  0
SECTION
  2
HEADER
  9
$ACADVER
  1
AC1012
  9
$DWGCODEPAGE
  3
dos932
  9
$INSBASE
 10
0.0
 20
0.0
 30
0.0
  9
$EXTMIN
 10
4228.699146888245
 20
-50.15783595326207
 30
0.0
  9
$EXTMAX
 10
5026.899146888245
 20
520.3421640467383
 30
0.0
  9
$LIMMIN
 10
4209.399146888245
 20
-66.45783595326202
  9
$LIMMAX
 10
5050.399146888246
 20
527.542164046738
  9
$ORTHOMODE
 70
     0
  9
$REGENMODE
 70
     1
  9
$FILLMODE
 70
     1
  9
$QTEXTMODE
 70
     0
  9
$MIRRTEXT
 70
     1
  9
$DRAGMODE
 70
     2
  9
$LTSCALE
 40
2.0
  9
$OSMODE
 70
  3071
  9
$ATTMODE
 70
     1
  9
$TEXTSIZE
 40
2.5
  9
$TRACEWID
 40
1.0
  9
$TEXTSTYLE
  7
SIMPLEXT
  9
$CLAYER
  8
AM_0
  9
$CELTYPE
  6
BYLAYER
  9
$CECOLOR
 62
   256
  9
$CELTSCALE
 40
1.0
  9
$DELOBJ
 70
     1
  9
$DISPSILH
 70
     0
  9
$DIMSCALE
 40
2.0
  9
$DIMASZ
 40
1.0
  9
$DIMEXO
 40
1.0
  9
$DIMDLI
 40
7.0
  9
$DIMRND
 40
0.0
  9
$DIMDLE
 40
0.0
  9
$DIMEXE
 40
1.0
  9
$DIMTP
 40
0.1
  9
$DIMTM
 40
0.1
  9
$DIMTXT
 40
3.0
  9
$DIMCEN
 40
0.0
  9
$DIMTSZ
 40
0.0
  9
$DIMTOL
 70
     0
  9
$DIMLIM
 70
     0
  9
$DIMTIH
 70
     0
  9
$DIMTOH
 70
     0
  9
$DIMSE1
 70
     0
  9
$DIMSE2
 70
     0
  9
$DIMTAD
 70
     1
  9
$DIMZIN
 70
     8
  9
$DIMBLK
  1

  9
$DIMASO
 70
     1
  9
$DIMSHO
 70
     1
  9
$DIMPOST
  1

  9
$DIMAPOST
  1
"
  9
$DIMALT
 70
     0
  9
$DIMALTD
 70
     2
  9
$DIMALTF
 40
0.0393701
  9
$DIMLFAC
 40
1.0
  9
$DIMTOFL
 70
     1
  9
$DIMTVP
 40
0.0
  9
$DIMTIX
 70
     1
  9
$DIMSOXD
 70
     0
  9
$DIMSAH
 70
     0
  9
$DIMBLK1
  1

  9
$DIMBLK2
  1

  9
$DIMSTYLE
  2
DTOS-2
  9
$DIMCLRD
 70
   256
  9
$DIMCLRE
 70
   256
  9
$DIMCLRT
 70
   256
  9
$DIMTFAC
 40
0.71
  9
$DIMGAP
 40
1.0
  9
$DIMJUST
 70
     0
  9
$DIMSD1
 70
     0
  9
$DIMSD2
 70
     0
  9
$DIMTOLJ
 70
     1
  9
$DIMTZIN
 70
     8
  9
$DIMALTZ
 70
     8
  9
$DIMALTTZ
 70
     8
  9
$DIMFIT
 70
     5
  9
$DIMUPT
 70
     0
  9
$DIMUNIT
 70
     2
  9
$DIMDEC
 70
     4
  9
$DIMTDEC
 70
     4
  9
$DIMALTU
 70
     2
  9
$DIMALTTD
 70
     2
  9
$DIMTXSTY
  7
STANDARD
  9
$DIMAUNIT
 70
     0
  9
$LUNITS
 70
     2
  9
$LUPREC
 70
     4
  9
$SKETCHINC
 40
1.0
  9
$FILLETRAD
 40
0.0
  9
$AUNITS
 70
     0
  9
$AUPREC
 70
     0
  9
$MENU
  1
.
  9
$ELEVATION
 40
0.0
  9
$PELEVATION
 40
0.0
  9
$THICKNESS
 40
0.0
  9
$LIMCHECK
 70
     0
  9
$BLIPMODE
 70
     0
  9
$CHAMFERA
 40
20.0
  9
$CHAMFERB
 40
20.0
  9
$CHAMFERC
 40
0.0
  9
$CHAMFERD
 40
0.0
  9
$SKPOLY
 70
     0
  9
$TDCREATE
 40
2454489.086194294
  9
$TDUPDATE
 40
2460361.735347581
  9
$TDINDWG
 40
0.8729637731
  9
$TDUSRTIMER
 40
0.8725769444
  9
$USRTIMER
 70
     1
  9
$ANGBASE
 50
0.0
  9
$ANGDIR
 70
     0
  9
$PDMODE
 70
     0
  9
$PDSIZE
 40
0.0
  9
$PLINEWID
 40
0.0
  9
$COORDS
 70
     1
  9
$SPLFRAME
 70
     0
  9
$SPLINETYPE
 70
     6
  9
$SPLINESEGS
 70
     8
  9
$ATTDIA
 70
     1
  9
$ATTREQ
 70
     1
  9
$HANDLING
 70
     1
  9
$HANDSEED
  5
1CD57
  9
$SURFTAB1
 70
     6
  9
$SURFTAB2
 70
     6
  9
$SURFTYPE
 70
     6
  9
$SURFU
 70
     6
  9
$SURFV
 70
     6
  9
$UCSNAME
  2

  9
$UCSORG
 10
0.0
 20
0.0
 30
0.0
  9
$UCSXDIR
 10
1.0
 20
0.0
 30
0.0
  9
$UCSYDIR
 10
0.0
 20
1.0
 30
0.0
  9
$PUCSNAME
  2

  9
$PUCSORG
 10
0.0
 20
0.0
 30
0.0
  9
$PUCSXDIR
 10
1.0
 20
0.0
 30
0.0
  9
$PUCSYDIR
 10
0.0
 20
1.0
 30
0.0
  9
$USERI1
 70
     0
  9
$USERI2
 70
     0
  9
$USERI3
 70
     0
  9
$USERI4
 70
     0
  9
$USERI5
 70
     0
  9
$USERR1
 40
0.0
  9
$USERR2
 40
0.0
  9
$USERR3
 40
0.0
  9
$USERR4
 40
0.0
  9
$USERR5
 40
0.0
  9
$WORLDVIEW
 70
     0
  9
$SHADEDGE
 70
     3
  9
$SHADEDIF
 70
    70
  9
$TILEMODE
 70
     1
  9
$MAXACTVP
 70
    48
  9
$PINSBASE
 10
0.0
 20
0.0
 30
0.0
  9
$PLIMCHECK
 70
     0
  9
$PEXTMIN
 10
-81.24937706734659
 20
-12.61109972763063
 30
0.0
  9
$PEXTMAX
 10
347.9493587567997
 20
215.8110938148499
 30
0.0
  9
$PLIMMIN
 10
0.0
 20
0.0
  9
$PLIMMAX
 10
420.0
 20
297.0
  9
$UNITMODE
 70
     0
  9
$VISRETAIN
 70
     1
  9
$PLINEGEN
 70
     0
  9
$PSLTSCALE
 70
     1
  9
$TREEDEPTH
 70
  3020
  9
$PICKSTYLE
 70
     1
  9
$CMLSTYLE
  2
STANDARD
  9
$CMLJUST
 70
     0
  9
$CMLSCALE
 40
1.0
  9
$SAVEIMAGES
 70
     1
  0
ENDSEC
  0
SECTION
  2
CLASSES
  0
CLASS
  1
ACDBDICTIONARYWDFLT
  2
AcDbDictionaryWithDefault
  3
AutoCAD 2000
 90
    32768
280
     0
281
     0
  0
CLASS
  1
MATERIAL
  2
AcDbMaterial
  3
ObjectDBX Classes
 90
    33921
280
     0
281
     0
  0
CLASS
  1
VISUALSTYLE
  2
AcDbVisualStyle
  3
ObjectDBX Classes
 90
    36863
280
     0
281
     0
  0
CLASS
  1
TABLESTYLE
  2
AcDbTableStyle
  3
ObjectDBX Classes
 90
    36863
280
     0
281
     0
  0
CLASS
  1
ACME_DOCUMENT
  2
AcMeDbDoc
  3
AcMeServices
 90
    32768
280
     0
281
     0
  0
CLASS
  1
AMGSETTINGSOBJ
  2
AmgSettingsObj
  3
"AcadM|Product Description: AutoCAD Mechanical|Company: Autodesk"
 90
    32768
280
     0
281
     0
  0
CLASS
  1
ACMESCOPE
  2
AcMeScope
  3
AcMeServices
 90
    32768
280
     0
281
     0
  0
CLASS
  1
ACMECOMMANDHISTORY
  2
AcMeCommandHistory
  3
AcMeServices
 90
    32768
280
     0
281
     0
  0
CLASS
  1
ACIMSYSVARMAN
  2
AcImSysVarManager
  3
AcMeServices
 90
    32768
280
     0
281
     0
  0
CLASS
  1
ACIMINTSYSVAR
  2
AcImIntSysVar
  3
AcMeServices
 90
    32768
280
     0
281
     0
  0
CLASS
  1
ACMEDRAWINGMAN
  2
AcMeDrawingMan
  3
AcMeServices
 90
    32768
280
     0
281
     0
  0
CLASS
  1
ACMEVIEW
  2
AcMeView
  3
AcMeServices
 90
    32768
280
     0
281
     0
  0
CLASS
  1
ACDBENTITYCACHE
  2
AcMeEntityCache
  3
AcMeServices
 90
    32768
280
     0
281
     0
  0
CLASS
  1
GSMANAGER
  2
AcMeGSManager
  3
AcMeServices
 90
    32768
280
     0
281
     0
  0
CLASS
  1
AMDTINTERNALREACTOR
  2
AmdtInternalReactor
  3
AcMeServices
 90
    32768
280
     0
281
     0
  0
CLASS
  1
ACMESTATEMGR
  2
AcMeStateMgr
  3
AcMeServices
 90
    32768
280
     0
281
     0
  0
CLASS
  1
ACGREFMASTER
  2
AcGrefMaster
  3
AcAttribServices
 90
    32768
280
     0
281
     0
  0
CLASS
  1
AM_DRAWING_MGR
  2
AcDmDwgMgr
  3
AcMechDwgViewMgmt
 90
    32768
280
     0
281
     0
  0
CLASS
  1
AM_DWG_DOCUMENT
  2
AcDmDwgDocument
  3
AcMechDwgViewMgmt
 90
    32768
280
     0
281
     0
  0
CLASS
  1
AM_DWG_SHEET
  2
AcDmSheet
  3
AcMechDwgViewMgmt
 90
    32768
280
     0
281
     0
  0
CLASS
  1
AM_VIEWDIMPARMAP
  2
AcDmViewDimParMap
  3
AcMechDwgViewMgmt
 90
    32768
280
     0
281
     0
  0
CLASS
  1
ACIMREALSYSVAR
  2
AcImRealSysVar
  3
AcMeServices
 90
    32768
280
     0
281
     0
  0
CLASS
  1
AM_DWGMGR_NAME
  2
AcDmDwgMgrName
  3
AcMechDwgViewMgmt
 90
    32768
280
     0
281
     0
  0
CLASS
  1
ACME_DATABASE
  2
AcMeDbDatabase
  3
AcMeServices
 90
    32768
280
     0
281
     0
  0
CLASS
  1
ACRFINSADJUSTERMGR
  2
AcRfInsAdjusterMgr
  3
AcMeServices
 90
    32768
280
     0
281
     0
  0
CLASS
  1
ACGREFACADMASTER
  2
AcGrefacadMaster
  3
AcGrefServices
 90
    32768
280
     0
281
     0
  0
CLASS
  1
AMDTMENUSTATEMGR
  2
AmdtMenuStateMgr
  3
McadcomServices
 90
    32768
280
     0
281
     0
  0
CLASS
  1
AMDTMCOMMENUSTATE
  2
AmdtMcomMenuState
  3
McadcomServices
 90
    32768
280
     0
281
     0
  0
CLASS
  1
AMIMASTER
  2
AmiMaster
  3
AmiServices
 90
    32768
280
     0
281
     0
  0
CLASS
  1
MAPIAMMOUDLE
  2
MApiAmModule
  3
MApiAmServices
 90
    32768
280
     0
281
     0
  0
CLASS
  1
ACIMSTRSYSVAR
  2
AcImStrSysVar
  3
AcMeServices
 90
    32768
280
     0
281
     0
  0
CLASS
  1
AMDTADMENUSTATE
  2
AmdtAdMenuState
  3
DesignerServices
 90
    32768
280
     0
281
     0
  0
CLASS
  1
ADAPPL
  2
AcAdAppl
  3
DesignerServices
 90
    32768
280
     0
281
     0
  0
CLASS
  1
DEPMGR
  2
AcAdDepMgr
  3
DesignerServices
 90
    32768
280
     0
281
     0
  0
CLASS
  1
PARAMMGR
  2
AcAdParamMgr
  3
DesignerServices
 90
    32768
280
     0
281
     0
  0
CLASS
  1
PARAMSCOPE
  2
AcAdParamScope
  3
DesignerServices
 90
    32768
280
     0
281
     0
  0
CLASS
  1
NAMEDAPPL
  2
AcAdNamedAppl
  3
DesignerServices
 90
    32768
280
     0
281
     0
  0
CLASS
  1
AMDTDMMENUSTATE
  2
AmdtDmMenuState
  3
AcMechDwgViewMgmt
 90
    32768
280
     0
281
     0
  0
CLASS
  1
AMDTAMMENUSTATE
  2
AmdtAmMenuState
  3
DesignerAssemblies
 90
    32768
280
     0
281
     0
  0
CLASS
  1
ACAMPROJECT
  2
AcAmProject
  3
DesignerAssemblies
 90
    32768
280
     0
281
     0
  0
CLASS
  1
ACAMGRCOMPDEF
  2
AcAmGrCompDef
  3
DesignerAssemblies
 90
    32768
280
     0
281
     0
  0
CLASS
  1
ACCMCONTEXT
  2
AcCmContext
  3
DesignerAssemblies
 90
    32768
280
     0
281
     0
  0
CLASS
  1
ACAMCOMPDEF
  2
AcAmCompDef
  3
DesignerAssemblies
 90
    32768
280
     0
281
     0
  0
CLASS
  1
ACAMCOMPDEFMGR
  2
AcAmCompDefMgr
  3
DesignerAssemblies
 90
    32768
280
     0
281
     0
  0
CLASS
  1
AMCONTEXTMGR
  2
AcAmContextMgr
  3
DesignerAssemblies
 90
    32768
280
     0
281
     0
  0
CLASS
  1
ACAMCONTEXTMODELER
  2
AcAmContextModeler
  3
DesignerAssemblies
 90
    32768
280
     0
281
     0
  0
CLASS
  1
ACMDATADICTIONARY
  2
AcmDataDictionary
  3
"AcmSymBB|Product Description: AutoCAD Mechanical|Company: Autodesk"
 90
    32768
280
     0
281
     0
  0
CLASS
  1
CATALOGSTATE
  2
AcAmCatalogState
  3
DesignerAssemblies
 90
    32768
280
     0
281
     0
  0
CLASS
  1
ACAMGRCOMPDEFSET
  2
AcAmGrCompDefSet
  3
DesignerAssemblies
 90
    32768
280
     0
281
     0
  0
CLASS
  1
AMDTBROWSERDBTAB
  2
AmdtBrowserDbTab
  3
McadcomServices
 90
    32768
280
     0
281
     0
  0
CLASS
  1
CBROWSERAPPOBJECT
  2
CBrowserAppObject
  3
McadcomServices
 90
    32768
280
     0
281
     0
  0
CLASS
  1
DM_PLACEHOLDER
  2
AcDmSelsetPlaceholder
  3
AcMechDwgViewMgmt
 90
    32768
280
     0
281
     0
  0
CLASS
  1
ACMSTANDARDANSI
  2
AcmStandardANSI
  3
"Amdt_StdImp|Product Description: AutoCAD Mechanical|Company: Autodesk"
 90
    32768
280
     0
281
     0
  0
CLASS
  1
AMGOBJPROPCFG
  2
AmgObjPropCfg
  3
"AmgLay|Product Description: AutoCAD Mechanical|Company: Autodesk"
 90
    32769
280
     0
281
     0
  0
CLASS
  1
ACMSURFSTANDARDANSI
  2
AcmSurfTextStdANSI
  3
"Amdt_StdImp|Product Description: AutoCAD Mechanical|Company: Autodesk"
 90
    32768
280
     0
281
     0
  0
CLASS
  1
ACMFCFSTANDARDANSI
  2
AcmFCFStdANSI
  3
"Amdt_StdImp|Product Description: AutoCAD Mechanical|Company: Autodesk"
 90
    32768
280
     0
281
     0
  0
CLASS
  1
ACMWELDSTANDARDANSI
  2
AcmWeldingStdANSI
  3
"Amdt_StdImp|Product Description: AutoCAD Mechanical|Company: Autodesk"
 90
    32768
280
     0
281
     0
  0
CLASS
  1
ACMIDSTANDARDANSI
  2
AcmIdStdANSI
  3
"Amdt_StdImp|Product Description: AutoCAD Mechanical|Company: Autodesk"
 90
    32768
280
     0
281
     0
  0
CLASS
  1
ACMDATUMSTANDARDANSI
  2
AcmDatumStdANSI
  3
"Amdt_StdImp|Product Description: AutoCAD Mechanical|Company: Autodesk"
 90
    32768
280
     0
281
     0
  0
CLASS
  1
ACMBOMSTANDARDANSI
  2
AcmBOMStdANSI
  3
"Amdt_StdImp|Product Description: AutoCAD Mechanical|Company: Autodesk"
 90
    32768
280
     0
281
     0
  0
CLASS
  1
ACMDETAILSTANDARDANSI
  2
AmdtDetailSymStdANSI
  3
"Amdt_StdImp|Product Description: AutoCAD Mechanical|Company: Autodesk"
 90
    32768
280
     0
281
     0
  0
CLASS
  1
ACMSECTIONSTANDARDANSI
  2
AmdtSectionSymStdANSI
  3
"Amdt_StdImp|Product Description: AutoCAD Mechanical|Company: Autodesk"
 90
    32768
280
     0
281
     0
  0
CLASS
  1
ACMCENTERLINESTANDARDANSI
  2
AmdtCenterLineStdANSI
  3
"Amdt_StdImp|Product Description: AutoCAD Mechanical|Company: Autodesk"
 90
    32768
280
     0
281
     0
  0
CLASS
  1
ACMTHREADLINESTANDARDANSI
  2
AmdtThreadLineStdANSI
  3
"Amdt_StdImp|Product Description: AutoCAD Mechanical|Company: Autodesk"
 90
    32768
280
     0
281
     0
  0
CLASS
  1
ACMNOTESTANDARDANSI
  2
AmdtNoteStdANSI
  3
"Amdt_StdImp|Product Description: AutoCAD Mechanical|Company: Autodesk"
 90
    32768
280
     0
281
     0
  0
CLASS
  1
ACMTAPERSTANDARDANSI
  2
AcmTaperStdANSI
  3
"Amdt_StdImp|Product Description: AutoCAD Mechanical|Company: Autodesk"
 90
    32768
280
     0
281
     0
  0
CLASS
  1
AMDTNOTETEMPLATEDB
  2
AmdtNoteTemplateDB
  3
AMDT_STDIMP_MODULE_NAME
 90
    32768
280
     0
281
     0
  0
CLASS
  1
ACAMGLAYSTD
  2
AcAmgLayStd
  3
"AmgLay|Product Description: AutoCAD Mechanical|Company: Autodesk"
 90
    32768
280
     0
281
     0
  0
CLASS
  1
ACAMGDIMSTD
  2
AcAmgDimStd
  3
"AmgDim|Product Description: AutoCAD Mechanical|Company: Autodesk"
 90
    32768
280
     0
281
     0
  0
CLASS
  1
ACAMGHOLECHARTSTDANSI
  2
AcAmgHoleChartStdANSI
  3
ACMSYMBB_MODULE_NAME
 90
    32768
280
     0
281
     0
  0
CLASS
  1
ACAMGTITLESTD
  2
AcAmgTitleStd
  3
"AmgTitle|Product Description: AutoCAD Mechanical|Company: Autodesk"
 90
    32768
280
     0
281
     0
  0
CLASS
  1
ACAMGFILTERDAT
  2
AcAmgFilterDat
  3
"AcadM|Product Description: AutoCAD Mechanical|Company: Autodesk"
 90
    32768
280
     0
281
     0
  0
CLASS
  1
SORTENTSTABLE
  2
AcDbSortentsTable
  3
AutoCAD 2000
 90
    32768
280
     0
281
     0
  0
CLASS
  1
ACMSTANDARDISO
  2
AcmStandardISO
  3
"Amdt_StdImp|Product Description: AutoCAD Mechanical|Company: Autodesk"
 90
    32768
280
     0
281
     0
  0
CLASS
  1
AMDTEDGESTANDARDISO13715
  2
AmdtEdgeStdISO13715
  3
"Amdt_StdImp|Product Description: AutoCAD Mechanical|Company: Autodesk"
 90
    32768
280
     0
281
     0
  0
CLASS
  1
ACMSURFSTANDARDISO
  2
AcmSurfTextStdISO
  3
"Amdt_StdImp|Product Description: AutoCAD Mechanical|Company: Autodesk"
 90
    32768
280
     0
281
     0
  0
CLASS
  1
ACMFCFSTANDARDISO
  2
AcmFCFStdISO
  3
"Amdt_StdImp|Product Description: AutoCAD Mechanical|Company: Autodesk"
 90
    32768
280
     0
281
     0
  0
CLASS
  1
ACMWELDSTANDARDISO
  2
AcmWeldingStdISO
  3
"Amdt_StdImp|Product Description: AutoCAD Mechanical|Company: Autodesk"
 90
    32768
280
     0
281
     0
  0
CLASS
  1
ACMIDSTANDARDISO
  2
AcmIdStdISO
  3
"Amdt_StdImp|Product Description: AutoCAD Mechanical|Company: Autodesk"
 90
    32768
280
     0
281
     0
  0
CLASS
  1
ACMDATUMSTANDARDISO
  2
AcmDatumStdISO
  3
"Amdt_StdImp|Product Description: AutoCAD Mechanical|Company: Autodesk"
 90
    32768
280
     0
281
     0
  0
CLASS
  1
ACMBOMSTANDARDISO
  2
AcmBOMStdISO
  3
"Amdt_StdImp|Product Description: AutoCAD Mechanical|Company: Autodesk"
 90
    32768
280
     0
281
     0
  0
CLASS
  1
ACMDETAILSTANDARDISO
  2
AmdtDetailSymStdISO
  3
"Amdt_StdImp|Product Description: AutoCAD Mechanical|Company: Autodesk"
 90
    32768
280
     0
281
     0
  0
CLASS
  1
ACMSECTIONSTANDARDISO
  2
AmdtSectionSymStdISO
  3
"Amdt_StdImp|Product Description: AutoCAD Mechanical|Company: Autodesk"
 90
    32768
280
     0
281
     0
  0
CLASS
  1
ACMCENTERLINESTANDARDISO
  2
AmdtCenterLineStdISO
  3
"Amdt_StdImp|Product Description: AutoCAD Mechanical|Company: Autodesk"
 90
    32768
280
     0
281
     0
  0
CLASS
  1
ACMTHREADLINESTANDARDISO
  2
AmdtThreadLineStdISO
  3
"Amdt_StdImp|Product Description: AutoCAD Mechanical|Company: Autodesk"
 90
    32768
280
     0
281
     0
  0
CLASS
  1
ACMNOTESTANDARDISO
  2
AmdtNoteStdISO
  3
"Amdt_StdImp|Product Description: AutoCAD Mechanical|Company: Autodesk"
 90
    32768
280
     0
281
     0
  0
CLASS
  1
ACMTAPERSTANDARDISO
  2
AcmTaperStdISO
  3
"Amdt_StdImp|Product Description: AutoCAD Mechanical|Company: Autodesk"
 90
    32768
280
     0
281
     0
  0
CLASS
  1
ACAMGHOLECHARTSTDISO
  2
AcAmgHoleChartStdISO
  3
ACMSYMBB_MODULE_NAME
 90
    32768
280
     0
281
     0
  0
CLASS
  1
DICTIONARYVAR
  2
AcDbDictionaryVar
  3
AutoCAD 2000
 90
    32768
280
     0
281
     0
  0
CLASS
  1
ACDBPLACEHOLDER
  2
AcDbPlaceHolder
  3
AutoCAD 2000
 90
    32768
280
     0
281
     0
  0
CLASS
  1
LAYOUT
  2
AcDbLayout
  3
AutoCAD 2000
 90
    32768
280
     0
281
     0
  0
CLASS
  1
PLOTSETTINGS
  2
AcDbPlotSettings
  3
AutoCAD 2000
 90
    32768
280
     0
281
     0
  0
CLASS
  1
DIMASSOC
  2
AcDbDimAssoc
  3
"AcDbDimAssoc|Product Desc:     AcDim ARX App For Dimension|Company:          Autodesk, Inc.|WEB Address:      www.autodesk.com"
 90
    32768
280
     0
281
     0
  0
CLASS
  1
ACAD_PROXY_OBJECT_WRAPPER
  2
AcDbProxyObjectWrapper
  3
AutoCAD 2000
 90
    32768
280
     0
281
     0
  0
CLASS
  1
LONG_TRANSACTION
  2
AcDbLongTransaction
  3
AutoCAD 2000
 90
    32768
280
     0
281
     0
  0
CLASS
  1
LWPOLYLINE
  2
AcDbPolyline
  3
AutoCAD 2000
 90
    32768
280
     0
281
     1
  0
CLASS
  1
HATCH
  2
AcDbHatch
  3
AutoCAD 2000
 90
    32768
280
     0
281
     1
  0
CLASS
  1
XRECORD
  2
AcDbXrecord
  3
AutoCAD 2000
 90
    32768
280
     0
281
     0
  0
ENDSEC
  0
SECTION
  2
TABLES
  0
TABLE
  2
VPORT
  5
1B868
102
{ACAD_XDICTIONARY
360
1BB85
102
}
330
0
100
AcDbSymbolTable
 70
     2
  0
VPORT
  5
1CD53
330
1B868
100
AcDbSymbolTableRecord
100
AcDbViewportTableRecord
  2
*ACTIVE
 70
     0
 10
0.0
 20
0.0
 11
1.0
 21
1.0
 12
4686.901678862716
 22
229.2628827318084
 13
0.0
 23
0.0
 14
5.0
 24
5.0
 15
20.0
 25
20.0
 16
0.0
 26
0.0
 36
1.0
 17
0.0
 27
0.0
 37
0.0
 40
681.2936701602118
 41
2.520694259012016
 42
50.0
 43
0.0
 44
0.0
 50
0.0
 51
0.0
 71
    16
 72
   100
 73
     1
 74
     1
 75
     0
 76
     0
 77
     0
 78
     0
  0
ENDTAB
  0
TABLE
  2
LTYPE
  5
1B865
330
0
100
AcDbSymbolTable
 70
    25
  0
LTYPE
  5
1B888
330
1B865
100
AcDbSymbolTableRecord
100
AcDbLinetypeTableRecord
  2
BYBLOCK
 70
     0
  3

 72
    65
 73
     0
 40
0.0
  0
LTYPE
  5
1B889
330
1B865
100
AcDbSymbolTableRecord
100
AcDbLinetypeTableRecord
  2
BYLAYER
 70
     0
  3

 72
    65
 73
     0
 40
0.0
  0
LTYPE
  5
1B88A
330
1B865
100
AcDbSymbolTableRecord
100
AcDbLinetypeTableRecord
  2
CONTINUOUS
 70
     0
  3
Solid line
 72
    65
 73
     0
 40
0.0
  0
LTYPE
  5
1B8A2
330
1B865
100
AcDbSymbolTableRecord
100
AcDbLinetypeTableRecord
  2
AM_ISO02W050
 70
     0
  3
__ __ __ __ __ __ __ __ __ __ __ __ __ __ __
 72
    65
 73
     2
 40
7.5
 49
6.0
 74
     0
 49
-1.5
 74
     0
  0
LTYPE
  5
1B8A3
330
1B865
100
AcDbSymbolTableRecord
100
AcDbLinetypeTableRecord
  2
AMZIGZAG
 70
     0
  3
/\/-/\/-/\/-/\/-/\/-/\/
 72
    65
 73
     2
 40
11.00009999999999
 49
0.0001
 74
     0
 49
-11.0
 74
     0
  0
LTYPE
  5
1B8A4
330
1B865
100
AcDbSymbolTableRecord
100
AcDbLinetypeTableRecord
  2
ACJISTGB
 70
     0
  3
__ . . __ . .
 72
    65
 73
     6
 40
9.0
 49
4.0
 74
     0
 49
-1.0
 74
     0
 49
1.0
 74
     0
 49
-1.0
 74
     0
 49
1.0
 74
     0
 49
-1.0
 74
     0
  0
LTYPE
  5
1B8A5
330
1B865
100
AcDbSymbolTableRecord
100
AcDbLinetypeTableRecord
  2
ACJISTGL
 70
     0
  3
_ _ _ _ _
 72
    65
 73
     2
 40
3.0
 49
2.0
 74
     0
 49
-1.0
 74
     0
  0
LTYPE
  5
1B8A6
330
1B865
100
AcDbSymbolTableRecord
100
AcDbLinetypeTableRecord
  2
DASHED1
 70
     0
  3
--  --  --  --  --  --  --  --  
 72
    65
 73
     2
 40
2.5
 49
1.25
 74
     0
 49
-1.25
 74
     0
  0
LTYPE
  5
1B8A7
330
1B865
100
AcDbSymbolTableRecord
100
AcDbLinetypeTableRecord
  2
ACJISWELD
 70
     0
  3
_ _ _ _ _
 72
    65
 73
     2
 40
3.0
 49
2.0
 74
     0
 49
-1.0
 74
     0
  0
LTYPE
  5
1B8A8
330
1B865
100
AcDbSymbolTableRecord
100
AcDbLinetypeTableRecord
  2
AM_ISO08W050
 70
     0
  3
____ . ____ . ____ . ____ . ____ . ____ . ____
 72
    65
 73
     4
 40
18.0
 49
12.0
 74
     0
 49
-1.5
 74
     0
 49
3.0
 74
     0
 49
-1.5
 74
     0
  0
LTYPE
  5
1B8A9
330
1B865
100
AcDbSymbolTableRecord
100
AcDbLinetypeTableRecord
  2
AM_ISO09W050
 70
     0
  3
_____ . . _____ . . _____ . . ____ .. ____
 72
    65
 73
     6
 40
22.5
 49
12.0
 74
     0
 49
-1.5
 74
     0
 49
3.0
 74
     0
 49
-1.5
 74
     0
 49
3.0
 74
     0
 49
-1.5
 74
     0
  0
LTYPE
  5
1B8AA
330
1B865
100
AcDbSymbolTableRecord
100
AcDbLinetypeTableRecord
  2
AMCONSTR
 70
     0
  3
_______________________
 72
    65
 73
     2
 40
9999.0
 49
9999.0
 74
     0
 49
0.0
 74
     0
  0
LTYPE
  5
1B8AB
330
1B865
100
AcDbSymbolTableRecord
100
AcDbLinetypeTableRecord
  2
AM_ISO08W050X2
 70
     0
  3
__ . __ . __ . __ . __ . __
 72
    65
 73
     4
 40
9.0
 49
6.0
 74
     0
 49
-0.75
 74
     0
 49
1.5
 74
     0
 49
-0.75
 74
     0
  0
LTYPE
  5
1B8AC
330
1B865
100
AcDbSymbolTableRecord
100
AcDbLinetypeTableRecord
  2
AM_ISO02W050X2
 70
     0
  3
 _ _ _ _ _ _ _ _ _ _ _ _
 72
    65
 73
     2
 40
3.75
 49
3.0
 74
     0
 49
-0.75
 74
     0
  0
LTYPE
  5
1B8AD
330
1B865
100
AcDbSymbolTableRecord
100
AcDbLinetypeTableRecord
  2
DD1
 70
     0
  3
一点鎖線
 72
    65
 73
     4
 40
11.1
 49
7.5
 74
     0
 49
-1.199999999999999
 74
     0
 49
1.199999999999999
 74
     0
 49
-1.199999999999999
 74
     0
  0
LTYPE
  5
1B951
330
1B865
100
AcDbSymbolTableRecord
100
AcDbLinetypeTableRecord
  2
HIDDEN
 70
     0
  3
Hidden __ __ __ __ __ __ __ __ __ __ __ __ __ _
 72
    65
 73
     2
 40
0.375
 49
0.25
 74
     0
 49
-0.125
 74
     0
  0
LTYPE
  5
1B952
330
1B865
100
AcDbSymbolTableRecord
100
AcDbLinetypeTableRecord
  2
PHANTOM2
 70
     0
  3
Phantom (.5x) ___ _ _ ___ _ _ ___ _ _ ___ _ _
 72
    65
 73
     6
 40
1.25
 49
0.625
 74
     0
 49
-0.125
 74
     0
 49
0.125
 74
     0
 49
-0.125
 74
     0
 49
0.125
 74
     0
 49
-0.125
 74
     0
  0
LTYPE
  5
1B953
330
1B865
100
AcDbSymbolTableRecord
100
AcDbLinetypeTableRecord
  2
CENTER
 70
     0
  3
Center ____ _ ____ _ ____ _ ____ _ ____ _ ____
 72
    65
 73
     4
 40
2.0
 49
1.25
 74
     0
 49
-0.25
 74
     0
 49
0.25
 74
     0
 49
-0.25
 74
     0
  0
LTYPE
  5
1B987
330
1B865
100
AcDbSymbolTableRecord
100
AcDbLinetypeTableRecord
  2
CENTER2
 70
     0
  3
Center (.5x) ___ _ ___ _ ___ _ ___ _ ___ _ ___
 72
    65
 73
     4
 40
1.125
 49
0.75
 74
     0
 49
-0.125
 74
     0
 49
0.125
 74
     0
 49
-0.125
 74
     0
  0
LTYPE
  5
1B988
330
1B865
100
AcDbSymbolTableRecord
100
AcDbLinetypeTableRecord
  2
HIDDEN2
 70
     0
  3
Hidden (.5x) _ _ _ _ _ _ _ _ _ _ _ _ _ _ _ _ _
 72
    65
 73
     2
 40
0.1875
 49
0.125
 74
     0
 49
-0.0625
 74
     0
  0
LTYPE
  5
1B98B
330
1B865
100
AcDbSymbolTableRecord
100
AcDbLinetypeTableRecord
  2
AMZIGZAG2
 70
     0
  3
/\/-/\/-/\/-/\/-/\/-/\/
 72
    65
 73
     2
 40
0.4401
 49
0.0001
 74
     4
 75
   136
340
1B98A
 46
0.0016
 50
0.0
 44
0.0
 45
0.0
 49
-0.4400000000000001
 74
     0
  0
LTYPE
  5
1B99A
330
1B865
100
AcDbSymbolTableRecord
100
AcDbLinetypeTableRecord
  2
ACANSTGB
 70
     0
  3
__ . . __ . .
 72
    65
 73
     6
 40
0.35433070866
 49
0.15748031496
 74
     0
 49
-0.03937007874
 74
     0
 49
0.03937007874
 74
     0
 49
-0.03937007874
 74
     0
 49
0.03937007874
 74
     0
 49
-0.03937007874
 74
     0
  0
LTYPE
  5
1B99B
330
1B865
100
AcDbSymbolTableRecord
100
AcDbLinetypeTableRecord
  2
ACANSTGL
 70
     0
  3
_ _ _ _ _
 72
    65
 73
     2
 40
0.11811023622
 49
0.07874015748
 74
     0
 49
-0.03937007874
 74
     0
  0
LTYPE
  5
1B9C1
330
1B865
100
AcDbSymbolTableRecord
100
AcDbLinetypeTableRecord
  2
ACISOWELD
 70
     0
  3
_ _ _ _ _
 72
    65
 73
     2
 40
2.0
 49
2.0
 74
     0
 49
-1.0
 74
     0
  0
LTYPE
  5
1B9C2
330
1B865
100
AcDbSymbolTableRecord
100
AcDbLinetypeTableRecord
  2
ACISOTGB
 70
     0
  3
__ . . __ . .
 72
    65
 73
     6
 40
9.0
 49
4.0
 74
     0
 49
-1.0
 74
     0
 49
1.0
 74
     0
 49
-1.0
 74
     0
 49
1.0
 74
     0
 49
-1.0
 74
     0
  0
LTYPE
  5
1B9C3
330
1B865
100
AcDbSymbolTableRecord
100
AcDbLinetypeTableRecord
  2
ACISOTGL
 70
     0
  3
_ _ _ _ _
 72
    65
 73
     2
 40
3.0
 49
2.0
 74
     0
 49
-1.0
 74
     0
  0
LTYPE
  5
1CB87
330
1B865
100
AcDbSymbolTableRecord
100
AcDbLinetypeTableRecord
  2
CENTER1
 70
     0
  3
----- - ----- - ----- - ----- - 
 72
    65
 73
     4
 40
10.0
 49
6.25
 74
     0
 49
-1.25
 74
     0
 49
1.25
 74
     0
 49
-1.25
 74
     0
  0
ENDTAB
  0
TABLE
  2
LAYER
  5
1B862
102
{ACAD_XDICTIONARY
360
1B9CE
102
}
330
0
100
AcDbSymbolTable
 70
    12
  0
LAYER
  5
1B885
102
{ACAD_XDICTIONARY
360
1CB51
102
}
330
1B862
100
AcDbSymbolTableRecord
100
AcDbLayerTableRecord
  2
0
 70
     0
 62
     7
  6
CONTINUOUS
  0
LAYER
  5
1B905
102
{ACAD_XDICTIONARY
360
1CB65
102
}
330
1B862
100
AcDbSymbolTableRecord
100
AcDbLayerTableRecord
  2
AM_0
 70
     0
 62
     7
  6
CONTINUOUS
  0
LAYER
  5
1B906
102
{ACAD_XDICTIONARY
360
1CB67
102
}
330
1B862
100
AcDbSymbolTableRecord
100
AcDbLayerTableRecord
  2
AM_5
 70
     0
 62
     3
  6
CONTINUOUS
  0
LAYER
  5
1B907
102
{ACAD_XDICTIONARY
360
1CB69
102
}
330
1B862
100
AcDbSymbolTableRecord
100
AcDbLayerTableRecord
  2
DEFPOINTS
 70
     1
 62
    -7
  6
CONTINUOUS
  0
LAYER
  5
1B908
102
{ACAD_XDICTIONARY
360
1CB6B
102
}
330
1B862
100
AcDbSymbolTableRecord
100
AcDbLayerTableRecord
  2
CONT_S_2
 70
     0
 62
     2
  6
CONTINUOUS
  0
LAYER
  5
1B909
102
{ACAD_XDICTIONARY
360
1CB6D
102
}
330
1B862
100
AcDbSymbolTableRecord
100
AcDbLayerTableRecord
  2
MJ
 70
     0
 62
     2
  6
CONTINUOUS
  0
LAYER
  5
1B90A
102
{ACAD_XDICTIONARY
360
1CB6F
102
}
330
1B862
100
AcDbSymbolTableRecord
100
AcDbLayerTableRecord
  2
OS
 70
     0
 62
     2
  6
CONTINUOUS
  0
LAYER
  5
1B90B
102
{ACAD_XDICTIONARY
360
1CB71
102
}
330
1B862
100
AcDbSymbolTableRecord
100
AcDbLayerTableRecord
  2
WK
 70
     0
 62
     7
  6
CONTINUOUS
  0
LAYER
  5
1B90C
102
{ACAD_XDICTIONARY
360
1CB73
102
}
330
1B862
100
AcDbSymbolTableRecord
100
AcDbLayerTableRecord
  2
AM_2
 70
     0
 62
     4
  6
CONTINUOUS
  0
LAYER
  5
1B90D
102
{ACAD_XDICTIONARY
360
1CB75
102
}
330
1B862
100
AcDbSymbolTableRecord
100
AcDbLayerTableRecord
  2
________
 70
     0
 62
     4
  6
DD1
  0
LAYER
  5
1B90E
102
{ACAD_XDICTIONARY
360
1CB77
102
}
330
1B862
100
AcDbSymbolTableRecord
100
AcDbLayerTableRecord
  2
TS
 70
     0
 62
     6
  6
DASHED1
  0
LAYER
  5
1BA50
102
{ACAD_XDICTIONARY
360
1BA51
102
}
330
1B862
100
AcDbSymbolTableRecord
100
AcDbLayerTableRecord
  2
１点斜線
 70
     0
 62
     4
  6
DD1
1001
ACAECLAYERSTANDARD
1000

1000

1001
ACCMTRANSPARENCY
1071
 33554687
  0
ENDTAB
  0
TABLE
  2
STYLE
  5
1B863
330
0
100
AcDbSymbolTable
 70
     9
  0
STYLE
  5
1B886
330
1B863
100
AcDbSymbolTableRecord
100
AcDbTextStyleTableRecord
  2
STANDARD
 70
     0
 40
0.0
 41
0.8299999999999998
 50
0.0
 71
     0
 42
2.5
  3
romans.shx
  4
extfont2.shx
  0
STYLE
  5
1B89F
330
1B863
100
AcDbSymbolTableRecord
100
AcDbTextStyleTableRecord
  2
ACJISGDT
 70
     0
 40
0.0
 41
1.0
 50
0.0
 71
     0
 42
2.5
  3
amgdt.shx
  4

  0
STYLE
  5
1B8A0
330
1B863
100
AcDbSymbolTableRecord
100
AcDbTextStyleTableRecord
  2
SIMPLEX
 70
     0
 40
0.0
 41
1.0
 50
0.0
 71
     0
 42
3.5
  3
simplex.shx
  4
extfont2.shx
  0
STYLE
  5
1B8A1
330
1B863
100
AcDbSymbolTableRecord
100
AcDbTextStyleTableRecord
  2
SIMPLEXT
 70
     4
 40
0.0
 41
1.0
 50
0.0
 71
     0
 42
2.5
  3
simplex.shx
  4
extfont2.shx
  0
STYLE
  5
1B98A
330
1B863
100
AcDbSymbolTableRecord
100
AcDbTextStyleTableRecord
  2

 70
     1
 40
0.0
 41
1.0
 50
0.0
 71
     0
 42
2.5
  3
genltshp.shx
  4

  0
STYLE
  5
1B98C
330
1B863
100
AcDbSymbolTableRecord
100
AcDbTextStyleTableRecord
  2
ACANSTS
 70
     0
 40
1.0
 41
1.0
 50
0.0
 71
     0
 42
2.5
  3
romans.shx
  4
extfont.shx
  0
STYLE
  5
1B999
330
1B863
100
AcDbSymbolTableRecord
100
AcDbTextStyleTableRecord
  2
ACANSGDT
 70
     0
 40
0.0
 41
1.0
 50
0.0
 71
     0
 42
2.5
  3
amgdt.shx
  4

  0
STYLE
  5
1B9C4
330
1B863
100
AcDbSymbolTableRecord
100
AcDbTextStyleTableRecord
  2
ACISOTS
 70
     0
 40
1.0
 41
1.0
 50
0.0
 71
     0
 42
2.5
  3
isocp.shx
  4
extfont.shx
  0
STYLE
  5
1B9C5
330
1B863
100
AcDbSymbolTableRecord
100
AcDbTextStyleTableRecord
  2
ACISOGDT
 70
     0
 40
0.0
 41
1.0
 50
0.0
 71
     0
 42
2.5
  3
amgdt.shx
  4

  0
ENDTAB
  0
TABLE
  2
VIEW
  5
1B866
330
0
100
AcDbSymbolTable
 70
     6
  0
VIEW
  5
1B8AE
102
{ACAD_XDICTIONARY
360
1CB59
102
}
330
1B866
100
AcDbSymbolTableRecord
100
AcDbViewTableRecord
  2
AM_VIEW1
 70
     0
 40
351.5943593853809
 10
-869.4999962207091
 20
-329.7971788144017
 41
420.9999991601575
 11
0.0
 21
0.0
 31
1.0
 12
0.0
 22
0.0
 32
0.0
 42
50.0
 43
0.0
 44
0.0
 50
0.0
 71
     0
  0
VIEW
  5
1B8AF
102
{ACAD_XDICTIONARY
360
1CB5B
102
}
330
1B866
100
AcDbSymbolTableRecord
100
AcDbViewTableRecord
  2
AM_VIEW2
 70
     0
 40
351.5943593853809
 10
-448.4999970605516
 20
-329.7971788144017
 41
420.9999991601575
 11
0.0
 21
0.0
 31
1.0
 12
0.0
 22
0.0
 32
0.0
 42
50.0
 43
0.0
 44
0.0
 50
0.0
 71
     0
  0
VIEW
  5
1B8B0
102
{ACAD_XDICTIONARY
360
1CB5D
102
}
330
1B866
100
AcDbSymbolTableRecord
100
AcDbViewTableRecord
  2
AM_VIEW3
 70
     0
 40
351.5943593853809
 10
-869.4999962207091
 20
-574.2028188434947
 41
420.9999991601575
 11
0.0
 21
0.0
 31
1.0
 12
0.0
 22
0.0
 32
0.0
 42
50.0
 43
0.0
 44
0.0
 50
0.0
 71
     0
  0
VIEW
  5
1B8B1
102
{ACAD_XDICTIONARY
360
1CB5F
102
}
330
1B866
100
AcDbSymbolTableRecord
100
AcDbViewTableRecord
  2
AM_VIEW4
 70
     0
 40
351.5943593853809
 10
-448.4999970605516
 20
-574.2028188434947
 41
420.9999991601575
 11
0.0
 21
0.0
 31
1.0
 12
0.0
 22
0.0
 32
0.0
 42
50.0
 43
0.0
 44
0.0
 50
0.0
 71
     0
  0
VIEW
  5
1B8B2
102
{ACAD_XDICTIONARY
360
1CB61
102
}
330
1B866
100
AcDbSymbolTableRecord
100
AcDbViewTableRecord
  2
AM_VIEW5
 70
     0
 40
351.5943593853809
 10
-658.9999966406303
 20
-451.9999988289483
 41
420.9999991601575
 11
0.0
 21
0.0
 31
1.0
 12
0.0
 22
0.0
 32
0.0
 42
50.0
 43
0.0
 44
0.0
 50
0.0
 71
     0
  0
VIEW
  5
1B8B3
102
{ACAD_XDICTIONARY
360
1CB63
102
}
330
1B866
100
AcDbSymbolTableRecord
100
AcDbViewTableRecord
  2
AM_VIEW6
 70
     0
 40
703.1816868835744
 10
-658.9999966406303
 20
-451.9999988289483
 41
841.9915783203318
 11
0.0
 21
0.0
 31
1.0
 12
0.0
 22
0.0
 32
0.0
 42
50.0
 43
0.0
 44
0.0
 50
0.0
 71
     0
  0
ENDTAB
  0
TABLE
  2
UCS
  5
1B867
330
0
100
AcDbSymbolTable
 70
     0
  0
ENDTAB
  0
TABLE
  2
APPID
  5
1B869
330
0
100
AcDbSymbolTable
 70
    75
  0
APPID
  5
1B887
330
1B869
100
AcDbSymbolTableRecord
100
AcDbRegAppTableRecord
  2
ACAD
 70
     0
  0
APPID
  5
1B8B5
330
1B869
100
AcDbSymbolTableRecord
100
AcDbRegAppTableRecord
  2
MCAD_NO_VIS
 70
     0
  0
APPID
  5
1B8B6
330
1B869
100
AcDbSymbolTableRecord
100
AcDbRegAppTableRecord
  2
ACAD_TEMP_GRAPHIC
 70
     0
  0
APPID
  5
1B8B7
330
1B869
100
AcDbSymbolTableRecord
100
AcDbRegAppTableRecord
  2
ACATTRIBSERVICES
 70
     0
  0
APPID
  5
1B8B8
330
1B869
100
AcDbSymbolTableRecord
100
AcDbRegAppTableRecord
  2
GENIUS_GENDIMSH_14
 70
     0
  0
APPID
  5
1B8B9
330
1B869
100
AcDbSymbolTableRecord
100
AcDbRegAppTableRecord
  2
GENIUS_GENOLIS_13
 70
     0
  0
APPID
  5
1B8BA
330
1B869
100
AcDbSymbolTableRecord
100
AcDbRegAppTableRecord
  2
GENIUS_GENOENT_13
 70
     0
  0
APPID
  5
1B8BB
330
1B869
100
AcDbSymbolTableRecord
100
AcDbRegAppTableRecord
  2
GENIUS_GENOBJ-N-TIT_13
 70
     0
  0
APPID
  5
1B8BC
330
1B869
100
AcDbSymbolTableRecord
100
AcDbRegAppTableRecord
  2
GENIUS_GENODEF_13
 70
     0
  0
APPID
  5
1B8BD
330
1B869
100
AcDbSymbolTableRecord
100
AcDbRegAppTableRecord
  2
GENIUS_GENTITLE_13
 70
     0
  0
APPID
  5
1B8BE
330
1B869
100
AcDbSymbolTableRecord
100
AcDbRegAppTableRecord
  2
GENIUS_GENOREF_13
 70
     0
  0
APPID
  5
1B8BF
330
1B869
100
AcDbSymbolTableRecord
100
AcDbRegAppTableRecord
  2
GENIUS_GENSCREG_15
 70
     0
  0
APPID
  5
1B8C0
330
1B869
100
AcDbSymbolTableRecord
100
AcDbRegAppTableRecord
  2
GENIUS_GENOBJ-N-SDF_13
 70
     0
  0
APPID
  5
1B8C1
330
1B869
100
AcDbSymbolTableRecord
100
AcDbRegAppTableRecord
  2
GENIUS_GENOBJ-N-REV_13
 70
     0
  0
APPID
  5
1B8C2
330
1B869
100
AcDbSymbolTableRecord
100
AcDbRegAppTableRecord
  2
GENIUS_GENOBJ-N-RSSYM_13
 70
     0
  0
APPID
  5
1B8C3
330
1B869
100
AcDbSymbolTableRecord
100
AcDbRegAppTableRecord
  2
GENIUS_GENSYMENT_13
 70
     0
  0
APPID
  5
1B8C4
330
1B869
100
AcDbSymbolTableRecord
100
AcDbRegAppTableRecord
  2
GENIUS_GENSCSYM_13
 70
     0
  0
APPID
  5
1B8C5
330
1B869
100
AcDbSymbolTableRecord
100
AcDbRegAppTableRecord
  2
DCO15
 70
     0
  0
APPID
  5
1B8C6
330
1B869
100
AcDbSymbolTableRecord
100
AcDbRegAppTableRecord
  2
GENIUS_GENDTOL_13
 70
     0
  0
APPID
  5
1B8C7
330
1B869
100
AcDbSymbolTableRecord
100
AcDbRegAppTableRecord
  2
HC_SUPERPART
 70
     0
  0
APPID
  5
1B8C8
330
1B869
100
AcDbSymbolTableRecord
100
AcDbRegAppTableRecord
  2
HC_SP4BLOCK
 70
     0
  0
APPID
  5
1B8C9
330
1B869
100
AcDbSymbolTableRecord
100
AcDbRegAppTableRecord
  2
HC_XDATA_SPRING
 70
     0
  0
APPID
  5
1B8CA
330
1B869
100
AcDbSymbolTableRecord
100
AcDbRegAppTableRecord
  2
HCCAD_FRAME
 70
     0
  0
APPID
  5
1B8CB
330
1B869
100
AcDbSymbolTableRecord
100
AcDbRegAppTableRecord
  2
GENIUS_GENOBJ-N-ZOO_13
 70
     0
  0
APPID
  5
1B8CC
330
1B869
100
AcDbSymbolTableRecord
100
AcDbRegAppTableRecord
  2
GENIUS_GENREV_15
 70
     0
  0
APPID
  5
1B8CD
330
1B869
100
AcDbSymbolTableRecord
100
AcDbRegAppTableRecord
  2
HRA
 70
     0
  0
APPID
  5
1B8CE
330
1B869
100
AcDbSymbolTableRecord
100
AcDbRegAppTableRecord
  2
HTIT
 70
     0
  0
APPID
  5
1B8CF
330
1B869
100
AcDbSymbolTableRecord
100
AcDbRegAppTableRecord
  2
GENIUS_GENZOO_17
 70
     0
  0
APPID
  5
1B8D0
330
1B869
100
AcDbSymbolTableRecord
100
AcDbRegAppTableRecord
  2
GENIUS_GENOBJ-N-CEN_13
 70
     0
  0
APPID
  5
1B8D1
330
1B869
100
AcDbSymbolTableRecord
100
AcDbRegAppTableRecord
  2
GENIUS_GENCEN_19
 70
     0
  0
APPID
  5
1B8D2
330
1B869
100
AcDbSymbolTableRecord
100
AcDbRegAppTableRecord
  2
GENIUS_GENOBJ-N-CRS_13
 70
     0
  0
APPID
  5
1B8D3
330
1B869
100
AcDbSymbolTableRecord
100
AcDbRegAppTableRecord
  2
GENIUS_GENCRS_20
 70
     0
  0
APPID
  5
1B8D4
330
1B869
100
AcDbSymbolTableRecord
100
AcDbRegAppTableRecord
  2
GENIUS_GENOBJ-N-CRC_13
 70
     0
  0
APPID
  5
1B8D5
330
1B869
100
AcDbSymbolTableRecord
100
AcDbRegAppTableRecord
  2
GENIUS_GENCRC_14
 70
     0
  0
APPID
  5
1B8D6
330
1B869
100
AcDbSymbolTableRecord
100
AcDbRegAppTableRecord
  2
GENIUS_GENFIL_13
 70
     0
  0
APPID
  5
1B8D7
330
1B869
100
AcDbSymbolTableRecord
100
AcDbRegAppTableRecord
  2
GENIUS_GENOBJ-N-CHA_13
 70
     0
  0
APPID
  5
1B8D8
330
1B869
100
AcDbSymbolTableRecord
100
AcDbRegAppTableRecord
  2
GENIUS_GENOBJ-N-FIL_13
 70
     0
  0
APPID
  5
1B8D9
330
1B869
100
AcDbSymbolTableRecord
100
AcDbRegAppTableRecord
  2
GENIUS_GENHATCH_13
 70
     0
  0
APPID
  5
1B8DA
330
1B869
100
AcDbSymbolTableRecord
100
AcDbRegAppTableRecord
  2
GENIUS_GENOBJ-N-HTC_13
 70
     0
  0
APPID
  5
1B8DB
330
1B869
100
AcDbSymbolTableRecord
100
AcDbRegAppTableRecord
  2
GENIUS_GENDIM_13
 70
     0
  0
APPID
  5
1B8DC
330
1B869
100
AcDbSymbolTableRecord
100
AcDbRegAppTableRecord
  2
GENIUS_GENOBJ-N-DIM_13
 70
     0
  0
APPID
  5
1B8DD
330
1B869
100
AcDbSymbolTableRecord
100
AcDbRegAppTableRecord
  2
GENIUS_GENOBJ-N-DIMLI_13
 70
     0
  0
APPID
  5
1B8DE
330
1B869
100
AcDbSymbolTableRecord
100
AcDbRegAppTableRecord
  2
GENIUS_GENOBJ-N-FITL_13
 70
     0
  0
APPID
  5
1B8DF
330
1B869
100
AcDbSymbolTableRecord
100
AcDbRegAppTableRecord
  2
GENIUS_GENFITL_13
 70
     0
  0
APPID
  5
1B8E0
330
1B869
100
AcDbSymbolTableRecord
100
AcDbRegAppTableRecord
  2
GENLAYCOLOR
 70
     0
  0
APPID
  5
1B8E1
330
1B869
100
AcDbSymbolTableRecord
100
AcDbRegAppTableRecord
  2
GENIUS_GENOBJ-NBEHI-BHB_13
 70
     0
  0
APPID
  5
1B8E2
330
1B869
100
AcDbSymbolTableRecord
100
AcDbRegAppTableRecord
  2
GENIUS_GENOBJ-NBEHI-BHF_13
 70
     0
  0
APPID
  5
1B8E3
330
1B869
100
AcDbSymbolTableRecord
100
AcDbRegAppTableRecord
  2
GENIUS_GENBH_13
 70
     0
  0
APPID
  5
1B8E4
330
1B869
100
AcDbSymbolTableRecord
100
AcDbRegAppTableRecord
  2
GENIUS_GENBHRL_14
 70
     0
  0
APPID
  5
1B8E5
330
1B869
100
AcDbSymbolTableRecord
100
AcDbRegAppTableRecord
  2
ACAECLAYERSTANDARD
 70
     0
  0
APPID
  5
1B8E6
330
1B869
100
AcDbSymbolTableRecord
100
AcDbRegAppTableRecord
  2
ACAD_MLEADERVER
 70
     0
  0
APPID
  5
1B8E7
330
1B869
100
AcDbSymbolTableRecord
100
AcDbRegAppTableRecord
  2
ACCMTRANSPARENCY
 70
     0
  0
APPID
  5
1B8E8
330
1B869
100
AcDbSymbolTableRecord
100
AcDbRegAppTableRecord
  2
ACAD_DSTYLE_DIMINSPECT
 70
     0
  0
APPID
  5
1B8E9
330
1B869
100
AcDbSymbolTableRecord
100
AcDbRegAppTableRecord
  2
ACADANNOTATIVE
 70
     0
  0
APPID
  5
1B8EA
330
1B869
100
AcDbSymbolTableRecord
100
AcDbRegAppTableRecord
  2
HATCHBACKGROUNDCOLOR
 70
     0
  0
APPID
  5
1B8EB
330
1B869
100
AcDbSymbolTableRecord
100
AcDbRegAppTableRecord
  2
ACAD_DSTYLE_DIMJAG
 70
     0
  0
APPID
  5
1B8EC
330
1B869
100
AcDbSymbolTableRecord
100
AcDbRegAppTableRecord
  2
ACAD_DSTYLE_DIMBREAK
 70
     0
  0
APPID
  5
1B8ED
330
1B869
100
AcDbSymbolTableRecord
100
AcDbRegAppTableRecord
  2
ACAD_DSTYLE_DIMTALN
 70
     0
  0
APPID
  5
1B8EE
330
1B869
100
AcDbSymbolTableRecord
100
AcDbRegAppTableRecord
  2
ACAD_DSTYLE_DIMARC_LENGTH_
 70
     0
  0
APPID
  5
1B8EF
330
1B869
100
AcDbSymbolTableRecord
100
AcDbRegAppTableRecord
  2
ACAD_PSEXT
 70
     0
  0
APPID
  5
1B8F0
330
1B869
100
AcDbSymbolTableRecord
100
AcDbRegAppTableRecord
  2
PLOTTRANSPARENCY
 70
     0
  0
APPID
  5
1B8F1
330
1B869
100
AcDbSymbolTableRecord
100
AcDbRegAppTableRecord
  2
GENIUS_GENREC_14
 70
     0
  0
APPID
  5
1B8F2
330
1B869
100
AcDbSymbolTableRecord
100
AcDbRegAppTableRecord
  2
GENIUS_GENOBJ-N-REC_13
 70
     0
  0
APPID
  5
1B8F3
330
1B869
100
AcDbSymbolTableRecord
100
AcDbRegAppTableRecord
  2
ACAD_DSTYLE_DIM_LINETYPE
 70
     0
  0
APPID
  5
1B8F4
330
1B869
100
AcDbSymbolTableRecord
100
AcDbRegAppTableRecord
  2
ACAD_DSTYLE_DIM_EXT1_LINET
 70
     0
  0
APPID
  5
1B8F5
330
1B869
100
AcDbSymbolTableRecord
100
AcDbRegAppTableRecord
  2
ACAD_DSTYLE_DIM_EXT2_LINET
 70
     0
  0
APPID
  5
1B8F6
330
1B869
100
AcDbSymbolTableRecord
100
AcDbRegAppTableRecord
  2
ACADANNOPO
 70
     0
  0
APPID
  5
1B8F7
330
1B869
100
AcDbSymbolTableRecord
100
AcDbRegAppTableRecord
  2
ACAD_NAV_VCDISPLAY
 70
     0
  0
APPID
  5
1B8F8
330
1B869
100
AcDbSymbolTableRecord
100
AcDbRegAppTableRecord
  2
ACDBBLOCKREPETAG
 70
     0
  0
APPID
  5
1B955
330
1B869
100
AcDbSymbolTableRecord
100
AcDbRegAppTableRecord
  2
AD_DRAW
 70
     0
  0
APPID
  5
1B978
330
1B869
100
AcDbSymbolTableRecord
100
AcDbRegAppTableRecord
  2
DESIGNERASSEMBLIES
 70
     0
  0
APPID
  5
1B97E
330
1B869
100
AcDbSymbolTableRecord
100
AcDbRegAppTableRecord
  2
ACADM_DIM_EDIT
 70
     0
  0
APPID
  5
1B97F
330
1B869
100
AcDbSymbolTableRecord
100
AcDbRegAppTableRecord
  2
AMDT_DM_ADJ
 70
     0
  0
APPID
  5
1B9B6
330
1B869
100
AcDbSymbolTableRecord
100
AcDbRegAppTableRecord
  2
ACAD_EXEMPT_FROM_CAD_STANDARDS
 70
     0
  0
APPID
  5
1BBC5
330
1B869
100
AcDbSymbolTableRecord
100
AcDbRegAppTableRecord
  2
ACAD_DSTYLE_DIMARC_LENGTH0
 70
     0
  0
ENDTAB
  0
TABLE
  2
DIMSTYLE
  5
1B86A
330
0
100
AcDbSymbolTable
 70
     5
  0
DIMSTYLE
105
1B8F9
330
1B86A
100
AcDbSymbolTableRecord
100
AcDbDimStyleTableRecord
  2
AM_JIS
 70
     0
  3

  4
"
  5
OPEN
  6

  7

 40
1.0
 41
1.6
 42
1.0
 43
7.0
 44
1.0
 45
0.0
 46
0.0
 47
0.1
 48
0.1
140
2.5
141
0.0
142
0.0
143
0.0393701
144
1.0
145
0.0
146
0.71
147
0.625
 71
     0
 72
     0
 73
     0
 74
     0
 75
     0
 76
     0
 77
     1
 78
     8
170
     0
171
     2
172
     1
173
     0
174
     0
175
     0
176
   256
177
   256
178
   256
270
     2
271
     4
272
     4
273
     2
274
     2
340
1B886
275
     0
280
     0
281
     0
282
     0
283
     1
284
     8
285
     8
286
     8
287
     5
288
     0
  0
DIMSTYLE
105
1B900
330
1B86A
100
AcDbSymbolTableRecord
100
AcDbDimStyleTableRecord
  2
DTOS-2
 70
     0
  3

  4
"
  5
SMALL
  6

  7

 40
2.0
 41
1.0
 42
1.0
 43
7.0
 44
1.0
 45
0.0
 46
0.0
 47
0.1
 48
0.1
140
3.0
141
0.0
142
0.0
143
0.0393701
144
1.0
145
0.0
146
0.71
147
1.0
 71
     0
 72
     0
 73
     0
 74
     0
 75
     0
 76
     0
 77
     1
 78
     8
170
     0
171
     2
172
     1
173
     0
174
     1
175
     0
176
   256
177
   256
178
   256
270
     2
271
     4
272
     4
273
     2
274
     2
340
1B886
275
     0
280
     0
281
     0
282
     0
283
     1
284
     8
285
     8
286
     8
287
     5
288
     0
  0
DIMSTYLE
105
1B901
330
1B86A
100
AcDbSymbolTableRecord
100
AcDbDimStyleTableRecord
  2
STANDARD
 70
     0
  3

  4

  5

  6

  7

 40
1.0
 41
0.18
 42
0.0625
 43
0.38
 44
0.18
 45
0.0
 46
0.0
 47
0.0
 48
0.0
140
0.18
141
0.09
142
0.0
143
25.4
144
1.0
145
0.0
146
1.0
147
0.09
 71
     0
 72
     0
 73
     1
 74
     1
 75
     0
 76
     0
 77
     0
 78
     0
170
     0
171
     2
172
     0
173
     0
174
     0
175
     0
176
     0
177
     0
178
     0
270
     2
271
     4
272
     4
273
     2
274
     2
340
1B886
275
     0
280
     0
281
     0
282
     0
283
     1
284
     8
285
     8
286
     8
287
     5
288
     0
  0
DIMSTYLE
105
1B9A6
330
1B86A
100
AcDbSymbolTableRecord
100
AcDbDimStyleTableRecord
  2
AM_ANSI
 70
     0
  3

  4
mm
  5

  6

  7

 40
1.0
 41
0.1
 42
0.05
 43
0.5
 44
0.1
 45
0.0
 46
0.0
 47
0.1
 48
0.1
140
0.12
141
0.0
142
0.0
143
25.4
144
1.0
145
0.0
146
0.71
147
0.06
 71
     0
 72
     0
 73
     1
 74
     1
 75
     0
 76
     0
 77
     0
 78
     7
170
     0
171
     2
172
     0
173
     0
174
     0
175
     0
176
   256
177
   256
178
     2
270
     2
271
     4
272
     4
273
     2
274
     4
340
1B886
275
     0
280
     0
281
     0
282
     0
283
     1
284
     7
285
     0
286
     0
287
     3
288
     0
1001
ACAD_DSTYLE_DIMARC_LENGTH0
1070
   379
1070
     1
  0
DIMSTYLE
105
1B9C6
330
1B86A
100
AcDbSymbolTableRecord
100
AcDbDimStyleTableRecord
  2
AM_ISO
 70
     0
  3

  4
"
  5

  6

  7

 40
1.0
 41
2.5
 42
1.0
 43
10.0
 44
1.0
 45
0.0
 46
0.0
 47
0.1
 48
0.1
140
3.5
141
0.0
142
0.0
143
0.0393701
144
1.0
145
0.0
146
0.71
147
1.5
 71
     0
 72
     0
 73
     0
 74
     0
 75
     0
 76
     0
 77
     1
 78
     8
170
     0
171
     2
172
     1
173
     0
174
     0
175
     0
176
   256
177
   256
178
     2
270
     2
271
     2
272
     3
273
     2
274
     4
340
1B886
275
     0
280
     0
281
     0
282
     0
283
     0
284
     8
285
     0
286
     0
287
     3
288
     0
1001
ACAD_DSTYLE_DIMARC_LENGTH0
1070
   379
1070
     1
  0
ENDTAB
  0
TABLE
  2
BLOCK_RECORD
  5
1B861
330
0
100
AcDbSymbolTable
 70
     2
  0
BLOCK_RECORD
  5
1B896
102
{ACAD_XDICTIONARY
360
1B9BD
102
}
330
1B861
100
AcDbSymbolTableRecord
100
AcDbBlockTableRecord
  2
*MODEL_SPACE
  0
BLOCK_RECORD
  5
1B892
102
{ACAD_XDICTIONARY
360
1CD54
102
}
330
1B861
100
AcDbSymbolTableRecord
100
AcDbBlockTableRecord
  2
*PAPER_SPACE
  0
BLOCK_RECORD
  5
1B89C
330
1B861
100
AcDbSymbolTableRecord
100
AcDbBlockTableRecord
  2
_OPEN
  0
BLOCK_RECORD
  5
1B89D
330
1B861
100
AcDbSymbolTableRecord
100
AcDbBlockTableRecord
  2
_SMALL
  0
ENDTAB
  0
ENDSEC
  0
SECTION
  2
BLOCKS
  0
BLOCK
  5
1B919
330
1B896
100
AcDbEntity
  8
0
100
AcDbBlockBegin
  2
*MODEL_SPACE
 70
     0
 10
0.0
 20
0.0
 30
0.0
  3
*MODEL_SPACE
  1

  0
ENDBLK
  5
1B91A
330
1B896
100
AcDbEntity
  8
0
100
AcDbBlockEnd
  0
BLOCK
  5
1B917
330
1B892
100
AcDbEntity
 67
     1
  8
0
100
AcDbBlockBegin
  2
*PAPER_SPACE
 70
     0
 10
0.0
 20
0.0
 30
0.0
  3
*PAPER_SPACE
  1

  0
ENDBLK
  5
1B918
330
1B892
100
AcDbEntity
 67
     1
  8
0
100
AcDbBlockEnd
  0
BLOCK
  5
1B4D8
330
1B89C
100
AcDbEntity
  8
0
100
AcDbBlockBegin
  2
_OPEN
 70
     0
 10
0.0
 20
0.0
 30
0.0
  3
_OPEN
  1

  0
LINE
  5
1B4DA
330
1B89C
100
AcDbEntity
  8
0
  6
BYBLOCK
 62
     0
100
AcDbLine
 10
-1.0
 20
0.1666666666666667
 30
0.0
 11
0.0
 21
0.0
 31
0.0
  0
LINE
  5
1B4DB
330
1B89C
100
AcDbEntity
  8
0
  6
BYBLOCK
 62
     0
100
AcDbLine
 10
-1.0
 20
-0.1666666666666667
 30
0.0
 11
0.0
 21
0.0
 31
0.0
  0
LINE
  5
1B4DC
330
1B89C
100
AcDbEntity
  8
0
  6
BYBLOCK
 62
     0
100
AcDbLine
 10
0.0
 20
0.0
 30
0.0
 11
-1.0
 21
0.0
 31
0.0
  0
ENDBLK
  5
1B4DD
330
1B89C
100
AcDbEntity
  8
0
100
AcDbBlockEnd
  0
BLOCK
  5
1B4DE
330
1B89D
100
AcDbEntity
  8
AM_0
100
AcDbBlockBegin
  2
_SMALL
 70
     0
 10
0.0
 20
0.0
 30
0.0
  3
_SMALL
  1

  0
CIRCLE
  5
1B4E0
330
1B89D
100
AcDbEntity
  8
0
  6
BYBLOCK
 62
     0
100
AcDbCircle
 10
0.0
 20
0.0
 30
0.0
 40
0.25
  0
ENDBLK
  5
1B4E1
330
1B89D
100
AcDbEntity
  8
AM_0
100
AcDbBlockEnd
  0
ENDSEC
  0
SECTION
  2
ENTITIES
  0
TEXT
  5
1B5DE
330
1B896
100
AcDbEntity
  8
WK
100
AcDbText
 10
4966.271788615596
 20
513.3421640467378
 30
0.0
 40
7.0
  1
大栄建材株式会社
 41
0.9
 72
     2
 11
5025.071788615596
 21
513.3421640467378
 31
0.0
100
AcDbText
  0
TEXT
  5
1B5DF
330
1B896
100
AcDbEntity
  8
WK
100
AcDbText
 10
4753.702280221578
 20
-36.2578359532622
 30
0.0
 40
3.2
  1
図名
 41
0.8299999999999998
100
AcDbText
  0
TEXT
  5
1B5E0
330
1B896
100
AcDbEntity
  8
WK
100
AcDbText
 10
4834.899146888245
 20
-48.15783595326207
 30
0.0
 40
4.0
  1
基準図
 41
0.8
100
AcDbText
  0
TEXT
  5
1B5E1
330
1B896
100
AcDbEntity
  8
WK
100
AcDbText
 10
4847.828146888245
 20
-36.2578359532622
 30
0.0
 40
3.2
  1
尺度
 41
0.8299999999999998
100
AcDbText
  0
TEXT
  5
1B5E2
330
1B896
100
AcDbEntity
  8
WK
100
AcDbText
 10
4867.952719393958
 20
-49.2578359532622
 30
0.0
 40
3.2
  1
廃止
 41
0.8299999999999998
100
AcDbText
  0
TEXT
  5
1B5E3
330
1B896
100
AcDbEntity
  8
WK
100
AcDbText
 10
4867.952719393958
 20
-43.2578359532622
 30
0.0
 40
3.2
  1
制定
 41
0.8299999999999998
100
AcDbText
  0
TEXT
  5
1B5E4
330
1B896
100
AcDbEntity
  8
WK
100
AcDbText
 10
4867.952719393958
 20
-37.2578359532622
 30
0.0
 40
3.2
  1
作成
 41
0.8299999999999998
100
AcDbText
  0
TEXT
  5
1B5E5
330
1B896
100
AcDbEntity
  8
WK
100
AcDbText
 10
4909.328146888245
 20
-36.2578359532622
 30
0.0
 40
3.2
  1
作図
 41
0.8299999999999998
100
AcDbText
  0
TEXT
  5
1B5E6
330
1B896
100
AcDbEntity
  8
WK
100
AcDbText
 10
4929.328146888245
 20
-36.2578359532622
 30
0.0
 40
3.2
  1
検図
 41
0.8299999999999998
100
AcDbText
  0
TEXT
  5
1B5E7
330
1B896
100
AcDbEntity
  8
WK
100
AcDbText
 10
4949.202280221578
 20
-36.2578359532622
 30
0.0
 40
3.2
  1
図番
 41
0.8299999999999998
100
AcDbText
  0
TEXT
  5
1B5E8
330
1B896
100
AcDbEntity
  8
WK
100
AcDbText
 10
4853.926956412054
 20
-45.75783630931378
 30
0.0
 40
3.2
  1
1:1
 41
0.8299999999999998
 72
     4
 11
4856.899146888245
 21
-44.15783630931378
 31
0.0
100
AcDbText
  0
CIRCLE
  5
1B5E9
330
1B896
100
AcDbEntity
  8
WK
100
AcDbCircle
 10
5019.208621907555
 20
-41.15783595326207
 30
0.0
 40
6.0
  0
LINE
  5
1B5EA
330
1B896
100
AcDbEntity
  8
WK
100
AcDbLine
 10
5013.208621907555
 20
-41.15783595326207
 30
0.0
 11
5025.208621907555
 21
-41.15783595326207
 31
0.0
  0
LINE
  5
1B5EB
330
1B896
100
AcDbEntity
  8
WK
100
AcDbLine
 10
4866.899146888245
 20
-38.15783595326207
 30
0.0
 11
4906.899146888245
 21
-38.15783595326207
 31
0.0
  0
LINE
  5
1B5EC
330
1B896
100
AcDbEntity
  8
WK
100
AcDbLine
 10
4866.899146888245
 20
-44.15783595326207
 30
0.0
 11
4906.899146888245
 21
-44.15783595326207
 31
0.0
  0
LINE
  5
1B5ED
330
1B896
100
AcDbEntity
  8
WK
100
AcDbLine
 10
4760.899146888244
 20
-40.15783595326207
 30
0.0
 11
4833.899146888246
 21
-40.15783595326207
 31
0.0
  0
LINE
  5
1B5EE
330
1B896
100
AcDbEntity
  8
WK
100
AcDbLine
 10
4751.899146888245
 20
-32.15783595326207
 30
0.0
 11
5026.899146888245
 21
-32.15783595326207
 31
0.0
  0
LINE
  5
1B5EF
330
1B896
100
AcDbEntity
  8
WK
100
AcDbLine
 10
4846.899146888245
 20
-32.15783595326207
 30
0.0
 11
4846.899146888245
 21
-50.15783595326207
 31
0.0
  0
LINE
  5
1B5F0
330
1B896
100
AcDbEntity
  8
WK
100
AcDbLine
 10
4866.899146888245
 20
-32.15783595326207
 30
0.0
 11
4866.899146888245
 21
-50.15783595326207
 31
0.0
  0
LINE
  5
1B5F1
330
1B896
100
AcDbEntity
  8
WK
100
AcDbLine
 10
4926.899146888246
 20
-32.15783595326207
 30
0.0
 11
4926.899146888246
 21
-50.15783595326207
 31
0.0
  0
LINE
  5
1B5F2
330
1B896
100
AcDbEntity
  8
WK
100
AcDbLine
 10
4906.899146888245
 20
-32.15783595326207
 30
0.0
 11
4906.899146888245
 21
-50.15783595326207
 31
0.0
  0
LINE
  5
1B5F3
330
1B896
100
AcDbEntity
  8
WK
100
AcDbLine
 10
4751.899146888245
 20
-32.15783595326207
 30
0.0
 11
4751.899146888245
 21
-50.15783595326207
 31
0.0
  0
LINE
  5
1B5F4
330
1B896
100
AcDbEntity
  8
WK
100
AcDbLine
 10
4946.899146888245
 20
-32.15783595326207
 30
0.0
 11
4946.899146888245
 21
-50.15783595326207
 31
0.0
  0
TEXT
  5
1B5F5
330
1B896
100
AcDbEntity
  8
WK
100
AcDbText
 10
4231.899146888244
 20
-50.15783595326207
 30
0.0
 40
3.2
  1
A1
 50
90.0
 41
0.8299999999999998
100
AcDbText
  0
LINE
  5
1B5F6
330
1B896
100
AcDbEntity
  8
WK
100
AcDbLine
 10
5026.899146888245
 20
511.3421640467378
 30
0.0
 11
5026.899146888245
 21
-50.15783595326207
 31
0.0
  0
LINE
  5
1B5F7
330
1B896
100
AcDbEntity
  8
WK
100
AcDbLine
 10
4232.899146888245
 20
511.3421640467378
 30
0.0
 11
4232.899146888245
 21
-50.15783595326207
 31
0.0
  0
LINE
  5
1B5F8
330
1B896
100
AcDbEntity
  8
WK
100
AcDbLine
 10
4232.899146888245
 20
511.3421640467378
 30
0.0
 11
5026.899146888245
 21
511.3421640467378
 31
0.0
  0
LINE
  5
1B5F9
330
1B896
100
AcDbEntity
  8
WK
100
AcDbLine
 10
4232.899146888245
 20
-50.15783595326207
 30
0.0
 11
5026.899146888245
 21
-50.15783595326207
 31
0.0
  0
TEXT
  5
1C4C0
330
1B896
100
AcDbEntity
  8
MJ
100
AcDbText
 10
4873.069669451094
 20
-1.507428036539522
 30
0.0
 40
7.0
  1
枠見込み75ｍｍ
 41
0.9
100
AcDbText
  0
TEXT
  5
1C4C1
330
1B896
100
AcDbEntity
  8
MJ
100
AcDbText
 10
4873.069669451094
 20
18.49257196346047
 30
0.0
 40
7.0
  1
シンプル・スリム枠
 41
0.9
100
AcDbText
  0
TEXT
  5
1C4C2
330
1B896
100
AcDbEntity
  8
MJ
100
AcDbText
 10
4873.069669451094
 20
8.492571963460477
 30
0.0
 40
7.0
  1
室内ドア　片開ドア　3方枠
 41
0.9
100
AcDbText
  0
TEXT
  5
1C4C3
330
1B896
100
AcDbEntity
  8
MJ
100
AcDbText
 10
4873.069669451094
 20
-11.50742803653952
 30
0.0
 40
7.0
  1
たて横断面
 41
0.9
100
AcDbText
  0
TEXT
  5
1C4C4
330
1B896
100
AcDbEntity
  8
MJ
100
AcDbText
 10
4873.069669451094
 20
-21.50742803653952
 30
0.0
 40
7.0
  1
ssd04a01
 41
0.9
100
AcDbText
  0
TEXT
  5
1C4C5
330
1B896
100
AcDbEntity
  8
AM_5
100
AcDbText
 10
4295.681295361087
 20
261.025216941396
 30
0.0
 40
6.0
  1
CH
 41
0.9
100
AcDbText
  0
LINE
  5
1C4C6
330
1B896
100
AcDbEntity
  8
AM_5
100
AcDbLine
 10
4301.214552732206
 20
276.244589039314
 30
0.0
 11
4305.861307618281
 21
268.1961734863139
 31
0.0
  0
LINE
  5
1C4C7
330
1B896
100
AcDbEntity
  8
AM_5
100
AcDbLine
 10
4296.567797846131
 20
268.1961734863139
 30
0.0
 11
4305.861307618281
 21
268.1961734863139
 31
0.0
  0
LINE
  5
1C4C8
330
1B896
100
AcDbEntity
  8
AM_5
100
AcDbLine
 10
4301.214552732206
 20
276.244589039314
 30
0.0
 11
4296.567797846131
 21
268.1961734863139
 31
0.0
  0
LINE
  5
1C4C9
330
1B896
100
AcDbEntity
  8
OS
100
AcDbLine
 10
4994.900216285473
 20
210.7294950051293
 30
0.0
 11
4949.900216285473
 21
165.7294950051293
 31
0.0
  0
LINE
  5
1C4CA
330
1B896
100
AcDbEntity
  8
OS
100
AcDbLine
 10
4949.900216285473
 20
270.7294950051293
 30
0.0
 11
4994.900216285473
 21
225.7294950051293
 31
0.0
  0
LINE
  5
1C4CB
330
1B896
100
AcDbEntity
  8
OS
100
AcDbLine
 10
4589.400197668573
 20
210.7294950051289
 30
0.0
 11
4634.400197668573
 21
165.7294950051293
 31
0.0
  0
LINE
  5
1C4CC
330
1B896
100
AcDbEntity
  8
OS
100
AcDbLine
 10
4634.400197668573
 20
270.7294950051293
 30
0.0
 11
4589.400197668573
 21
225.7294950051293
 31
0.0
  0
LINE
  5
1C4CD
330
1B896
100
AcDbEntity
  8
OS
100
AcDbLine
 10
4323.200622161259
 20
289.7445890393139
 30
0.0
 11
4390.780440947897
 21
327.2171190322217
 31
0.0
  0
LINE
  5
1C4CE
330
1B896
100
AcDbEntity
  8
OS
100
AcDbLine
 10
4323.200622161259
 20
450.7201309418264
 30
0.0
 11
4376.596790241134
 21
480.327927260379
 31
0.0
  0
LINE
  5
1C4CF
330
1B896
100
AcDbEntity
  8
OS
  6
DASHED1
100
AcDbLine
 10
4440.700622161259
 20
437.7201309418264
 30
0.0
 11
4520.61245821665
 21
437.7201309418264
 31
0.0
  0
LINE
  5
1C4D0
330
1B896
100
AcDbEntity
  8
OS
100
AcDbLine
 10
4428.200622161258
 20
289.7445890393139
 30
0.0
 11
4310.700622161259
 21
289.7445890393139
 31
0.0
  0
LINE
  5
1C4D1
330
1B896
100
AcDbEntity
  8
TS
100
AcDbLine
 10
4398.745622161253
 20
419.736541632049
 30
0.0
 11
4398.745622161253
 21
426.236541632049
 31
0.0
  0
LINE
  5
1C4D2
330
1B896
100
AcDbEntity
  8
TS
100
AcDbLine
 10
4392.655622161253
 20
426.236541632049
 30
0.0
 11
4392.655622161253
 21
419.736541632049
 31
0.0
  0
LINE
  5
1C4D3
330
1B896
100
AcDbEntity
  8
TS
100
AcDbLine
 10
4398.745622161253
 20
419.736541632049
 30
0.0
 11
4392.655622161253
 21
419.736541632049
 31
0.0
  0
LINE
  5
1C4D4
330
1B896
100
AcDbEntity
  8
TS
100
AcDbLine
 10
4397.100622161253
 20
417.736541632049
 30
0.0
 11
4394.431628870953
 21
417.736541632049
 31
0.0
  0
LINE
  5
1C4D5
330
1B896
100
AcDbEntity
  8
TS
100
AcDbLine
 10
4394.431628870953
 20
417.736541632049
 30
0.0
 11
4394.300622161253
 21
417.736541632049
 31
0.0
  0
LINE
  5
1C4D6
330
1B896
100
AcDbEntity
  8
TS
100
AcDbLine
 10
4393.800622161253
 20
418.2365416320489
 30
0.0
 11
4393.978416981553
 21
418.2365416320489
 31
0.0
  0
LINE
  5
1C4D7
330
1B896
100
AcDbEntity
  8
TS
100
AcDbLine
 10
4393.978416981553
 20
418.2365416320489
 30
0.0
 11
4397.600622161253
 21
418.2365416320489
 31
0.0
  0
LINE
  5
1C4D8
330
1B896
100
AcDbEntity
  8
TS
100
AcDbLine
 10
4392.940561754753
 20
419.736541632049
 30
0.0
 11
4392.655622161253
 21
419.736541632049
 31
0.0
  0
LINE
  5
1C4D9
330
1B896
100
AcDbEntity
  8
TS
100
AcDbLine
 10
4397.100622161253
 20
417.736541632049
 30
0.0
 11
4397.600622161253
 21
418.2365416320489
 31
0.0
  0
LINE
  5
1C4DA
330
1B896
100
AcDbEntity
  8
TS
100
AcDbLine
 10
4393.800622161253
 20
418.2365416320489
 30
0.0
 11
4394.300622161253
 21
417.736541632049
 31
0.0
  0
LINE
  5
1C4DB
330
1B896
100
AcDbEntity
  8
TS
100
AcDbLine
 10
4397.600622161253
 20
418.2365416320489
 30
0.0
 11
4397.600622161253
 21
419.736541632049
 31
0.0
  0
LINE
  5
1C4DC
330
1B896
100
AcDbEntity
  8
TS
100
AcDbLine
 10
4393.800622161253
 20
419.736541632049
 30
0.0
 11
4393.800622161253
 21
418.2365416320489
 31
0.0
  0
LINE
  5
1C4DD
330
1B896
100
AcDbEntity
  8
TS
100
AcDbLine
 10
4384.402356228853
 20
424.236541632049
 30
0.0
 11
4384.402356228853
 21
423.2365416320489
 31
0.0
  0
LINE
  5
1C4DE
330
1B896
100
AcDbEntity
  8
TS
100
AcDbLine
 10
4385.046445049852
 20
424.736541632049
 30
0.0
 11
4385.770486280453
 21
424.736541632049
 31
0.0
  0
LINE
  5
1C4DF
330
1B896
100
AcDbEntity
  8
TS
100
AcDbLine
 10
4385.770486280453
 20
424.736541632049
 30
0.0
 11
4390.536207256053
 21
424.736541632049
 31
0.0
  0
LINE
  5
1C4E0
330
1B896
100
AcDbEntity
  8
TS
100
AcDbLine
 10
4384.902300373953
 20
424.736541632049
 30
0.0
 11
4385.046445049852
 21
424.736541632049
 31
0.0
  0
LINE
  5
1C4E1
330
1B896
100
AcDbEntity
  8
TS
100
AcDbLine
 10
4390.536207256053
 20
424.736541632049
 30
0.0
 11
4405.534531609153
 21
424.736541632049
 31
0.0
  0
ARC
  5
1C4E2
330
1B896
100
AcDbEntity
  8
TS
100
AcDbCircle
 10
4406.026974420453
 20
424.236569557949
 30
0.0
 40
0.4999720748906001
100
AcDbArc
 50
359.9967997500032
 51
89.99679939248812
  0
LINE
  5
1C4E3
330
1B896
100
AcDbEntity
  8
TS
100
AcDbLine
 10
4405.534531609153
 20
424.736541632049
 30
0.0
 11
4406.027002349452
 21
424.736541632049
 31
0.0
  0
LINE
  5
1C4E4
330
1B896
100
AcDbEntity
  8
TS
100
AcDbLine
 10
4406.526946494553
 20
424.236541632049
 30
0.0
 11
4406.526946494553
 21
423.2365416320489
 31
0.0
  0
LINE
  5
1C4E5
330
1B896
100
AcDbEntity
  8
TS
100
AcDbLine
 10
4407.700622161253
 20
385.236541632049
 30
0.0
 11
4383.700622161252
 21
385.236541632049
 31
0.0
  0
ARC
  5
1C4E6
330
1B896
100
AcDbEntity
  8
TS
100
AcDbCircle
 10
4383.700622161252
 20
386.2365416320489
 30
0.0
 40
1.0
100
AcDbArc
 50
180.0
 51
270.0
  0
ARC
  5
1C4E7
330
1B896
100
AcDbEntity
  8
TS
100
AcDbCircle
 10
4384.300622161253
 20
421.6365416320488
 30
0.0
 40
1.600000000000022
100
AcDbArc
 50
98.21321070172283
 51
180.0
  0
LINE
  5
1C4E8
330
1B896
100
AcDbEntity
  8
TS
100
AcDbLine
 10
4382.700622161253
 20
421.6365416320488
 30
0.0
 11
4382.700622161253
 21
386.2365416320489
 31
0.0
  0
ARC
  5
1C4E9
330
1B896
100
AcDbEntity
  8
TS
100
AcDbCircle
 10
4407.700622161253
 20
386.2365416320489
 30
0.0
 40
1.0
100
AcDbArc
 50
270.0
 51
0.0
  0
LINE
  5
1C4EA
330
1B896
100
AcDbEntity
  8
TS
100
AcDbLine
 10
4408.700622161252
 20
421.6365416320488
 30
0.0
 11
4408.700622161252
 21
386.2365416320489
 31
0.0
  0
ARC
  5
1C4EB
330
1B896
100
AcDbEntity
  8
TS
100
AcDbCircle
 10
4407.100622161253
 20
421.6365416320488
 30
0.0
 40
1.600000000000022
100
AcDbArc
 50
0.0
 51
81.78678929832967
  0
ARC
  5
1C4EC
330
1B896
100
AcDbEntity
  8
TS
100
AcDbCircle
 10
4384.902328302953
 20
424.236569557949
 30
0.0
 40
0.4999720748904047
100
AcDbArc
 50
90.00320060740765
 51
180.0032002499967
  0
ARC
  5
1C4ED
330
1B896
100
AcDbEntity
  8
TS
100
AcDbCircle
 10
4408.100622161253
 20
442.736541632049
 30
0.0
 40
0.5
100
AcDbArc
 50
0.0
 51
90.0
  0
LINE
  5
1C4EE
330
1B896
100
AcDbEntity
  8
TS
100
AcDbLine
 10
4402.600622161253
 20
443.2365416320489
 30
0.0
 11
4408.100622161253
 21
443.2365416320489
 31
0.0
  0
LINE
  5
1C4EF
330
1B896
100
AcDbEntity
  8
TS
100
AcDbLine
 10
4408.600622161253
 20
442.736541632049
 30
0.0
 11
4408.600622161253
 21
434.236541632049
 31
0.0
  0
ARC
  5
1C4F0
330
1B896
100
AcDbEntity
  8
TS
100
AcDbCircle
 10
4408.100622161253
 20
430.7365416320489
 30
0.0
 40
0.5
100
AcDbArc
 50
270.0
 51
0.0
  0
LINE
  5
1C4F1
330
1B896
100
AcDbEntity
  8
TS
100
AcDbLine
 10
4408.600622161253
 20
434.236541632049
 30
0.0
 11
4402.600622161253
 21
434.236541632049
 31
0.0
  0
LINE
  5
1C4F2
330
1B896
100
AcDbEntity
  8
TS
100
AcDbLine
 10
4408.600622161253
 20
434.236541632049
 30
0.0
 11
4408.600622161253
 21
430.7365416320489
 31
0.0
  0
LINE
  5
1C4F3
330
1B896
100
AcDbEntity
  8
TS
100
AcDbLine
 10
4408.600622161253
 20
430.236541632049
 30
0.0
 11
4402.600622161253
 21
430.236541632049
 31
0.0
  0
LINE
  5
1C4F4
330
1B896
100
AcDbEntity
  8
TS
100
AcDbLine
 10
4408.600622161253
 20
426.7365416320489
 30
0.0
 11
4408.600622161253
 21
430.236541632049
 31
0.0
  0
ARC
  5
1C4F5
330
1B896
100
AcDbEntity
  8
TS
100
AcDbCircle
 10
4408.100622161253
 20
426.7365416320489
 30
0.0
 40
0.5
100
AcDbArc
 50
270.0
 51
0.0
  0
ARC
  5
1C4F6
330
1B896
100
AcDbEntity
  8
TS
100
AcDbCircle
 10
4383.300622161253
 20
442.736541632049
 30
0.0
 40
0.5
100
AcDbArc
 50
90.0
 51
180.0
  0
LINE
  5
1C4F7
330
1B896
100
AcDbEntity
  8
TS
100
AcDbLine
 10
4383.300622161253
 20
443.2365416320489
 30
0.0
 11
4388.800622161253
 21
443.2365416320489
 31
0.0
  0
LINE
  5
1C4F8
330
1B896
100
AcDbEntity
  8
TS
100
AcDbLine
 10
4382.800622161253
 20
442.736541632049
 30
0.0
 11
4382.800622161253
 21
434.236541632049
 31
0.0
  0
LINE
  5
1C4F9
330
1B896
100
AcDbEntity
  8
TS
100
AcDbLine
 10
4388.800622161253
 20
443.2365416320489
 30
0.0
 11
4402.600622161253
 21
443.2365416320489
 31
0.0
  0
ARC
  5
1C4FA
330
1B896
100
AcDbEntity
  8
TS
100
AcDbCircle
 10
4383.300622161253
 20
430.7365416320489
 30
0.0
 40
0.5
100
AcDbArc
 50
180.0
 51
270.0
  0
LINE
  5
1C4FB
330
1B896
100
AcDbEntity
  8
TS
100
AcDbLine
 10
4388.800622161253
 20
434.236541632049
 30
0.0
 11
4382.800622161253
 21
434.236541632049
 31
0.0
  0
LINE
  5
1C4FC
330
1B896
100
AcDbEntity
  8
TS
100
AcDbLine
 10
4382.800622161253
 20
434.236541632049
 30
0.0
 11
4382.800622161253
 21
430.7365416320489
 31
0.0
  0
LINE
  5
1C4FD
330
1B896
100
AcDbEntity
  8
TS
100
AcDbLine
 10
4388.800622161253
 20
430.236541632049
 30
0.0
 11
4382.800622161253
 21
430.236541632049
 31
0.0
  0
LINE
  5
1C4FE
330
1B896
100
AcDbEntity
  8
TS
100
AcDbLine
 10
4382.800622161253
 20
426.7365416320489
 30
0.0
 11
4382.800622161253
 21
430.236541632049
 31
0.0
  0
ARC
  5
1C4FF
330
1B896
100
AcDbEntity
  8
TS
100
AcDbCircle
 10
4383.300622161253
 20
426.7365416320489
 30
0.0
 40
0.5
100
AcDbArc
 50
180.0
 51
270.0
  0
LINE
  5
1C500
330
1B896
100
AcDbEntity
  8
TS
100
AcDbLine
 10
4402.600622161253
 20
434.236541632049
 30
0.0
 11
4388.800622161253
 21
434.236541632049
 31
0.0
  0
LINE
  5
1C501
330
1B896
100
AcDbEntity
  8
TS
100
AcDbLine
 10
4402.600622161253
 20
430.236541632049
 30
0.0
 11
4388.800622161253
 21
430.236541632049
 31
0.0
  0
LINE
  5
1C502
330
1B896
100
AcDbEntity
  8
OS
100
AcDbLine
 10
4440.700622161259
 20
437.7201309418264
 30
0.0
 11
4416.700622161259
 21
437.7201309418264
 31
0.0
  0
LINE
  5
1C503
330
1B896
100
AcDbEntity
  8
AM_0
100
AcDbLine
 10
4349.700622161259
 20
426.2201309418263
 30
0.0
 11
4359.200623161256
 21
426.2201309418263
 31
0.0
  0
LINE
  5
1C504
330
1B896
100
AcDbEntity
  8
AM_0
100
AcDbLine
 10
4347.700622161259
 20
428.2201309418264
 30
0.0
 11
4349.700622161259
 21
426.2201309418263
 31
0.0
  0
LINE
  5
1C505
330
1B896
100
AcDbEntity
  8
AM_0
100
AcDbLine
 10
4347.700622161259
 20
450.2201309418262
 30
0.0
 11
4416.700622161259
 21
450.2201309418262
 31
0.0
  0
LINE
  5
1C506
330
1B896
100
AcDbEntity
  8
AM_0
100
AcDbLine
 10
4347.700622161259
 20
428.2201309418264
 30
0.0
 11
4347.700622161259
 21
450.2201309418262
 31
0.0
  0
LINE
  5
1C507
330
1B896
100
AcDbEntity
  8
AM_0
100
AcDbLine
 10
4414.700622161259
 20
426.2201309418263
 30
0.0
 11
4375.200621161257
 21
426.2201309418263
 31
0.0
  0
LINE
  5
1C508
330
1B896
100
AcDbEntity
  8
AM_0
100
AcDbLine
 10
4414.700622161259
 20
426.2201309418263
 30
0.0
 11
4416.700622161259
 21
428.2201309418264
 31
0.0
  0
LINE
  5
1C509
330
1B896
100
AcDbEntity
  8
AM_0
100
AcDbLine
 10
4416.700622161259
 20
428.2201309418264
 30
0.0
 11
4416.700622161259
 21
450.2201309418262
 31
0.0
  0
LINE
  5
1C50A
330
1B896
100
AcDbEntity
  8
AM_0
100
AcDbLine
 10
4359.200623161256
 20
426.2201309418263
 30
0.0
 11
4359.200623161256
 21
434.2201309418263
 31
0.0
  0
LINE
  5
1C50B
330
1B896
100
AcDbEntity
  8
AM_0
100
AcDbLine
 10
4375.200621161257
 20
426.2201309418263
 30
0.0
 11
4375.200621161257
 21
434.2201309418263
 31
0.0
  0
LINE
  5
1C50C
330
1B896
100
AcDbEntity
  8
AM_0
100
AcDbLine
 10
4371.800622161257
 20
426.2201309418263
 30
0.0
 11
4371.800622161257
 21
434.2201309418263
 31
0.0
  0
LINE
  5
1C50D
330
1B896
100
AcDbEntity
  8
AM_0
100
AcDbLine
 10
4362.600622161257
 20
426.2201309418263
 30
0.0
 11
4362.600622161257
 21
434.2201309418263
 31
0.0
  0
LINE
  5
1C50E
330
1B896
100
AcDbEntity
  8
AM_0
100
AcDbLine
 10
4362.600622161257
 20
434.2201309418263
 30
0.0
 11
4359.200623161256
 21
434.2201309418263
 31
0.0
  0
LINE
  5
1C50F
330
1B896
100
AcDbEntity
  8
AM_0
100
AcDbLine
 10
4375.200621161257
 20
434.2201309418263
 30
0.0
 11
4371.800622161257
 21
434.2201309418263
 31
0.0
  0
LINE
  5
1C510
330
1B896
100
AcDbEntity
  8
AM_0
100
AcDbLine
 10
4362.600622161257
 20
426.2201309418263
 30
0.0
 11
4371.800622161257
 21
426.2201309418263
 31
0.0
  0
LINE
  5
1C511
330
1B896
100
AcDbEntity
  8
AM_2
100
AcDbLine
 10
4358.700622161257
 20
414.2201309418263
 30
0.0
 11
4375.700622161259
 21
414.2201309418263
 31
0.0
  0
LINE
  5
1C512
330
1B896
100
AcDbEntity
  8
AM_2
100
AcDbLine
 10
4358.200622161257
 20
414.7201309418263
 30
0.0
 11
4358.200622161257
 21
426.2200309418262
 31
0.0
  0
LINE
  5
1C513
330
1B896
100
AcDbEntity
  8
AM_2
100
AcDbLine
 10
4360.700662161258
 20
433.2200109418261
 30
0.0
 11
4361.700652161259
 21
433.2200109418261
 31
0.0
  0
LINE
  5
1C514
330
1B896
100
AcDbEntity
  8
AM_2
100
AcDbLine
 10
4359.650602161257
 20
431.2201309418263
 30
0.0
 11
4360.300662161257
 21
431.2201309418263
 31
0.0
  0
LINE
  5
1C515
330
1B896
100
AcDbEntity
  8
AM_2
100
AcDbLine
 10
4359.650602161257
 20
429.220070941826
 30
0.0
 11
4360.300662161257
 21
429.220070941826
 31
0.0
  0
LINE
  5
1C516
330
1B896
100
AcDbEntity
  8
AM_2
100
AcDbLine
 10
4359.650602161257
 20
427.220010941826
 30
0.0
 11
4360.300662161257
 21
427.220010941826
 31
0.0
  0
LINE
  5
1C517
330
1B896
100
AcDbEntity
  8
AM_2
100
AcDbLine
 10
4359.650602161257
 20
429.220070941826
 30
0.0
 11
4360.300662161257
 21
431.2201309418263
 31
0.0
  0
LINE
  5
1C518
330
1B896
100
AcDbEntity
  8
AM_2
100
AcDbLine
 10
4359.650602161257
 20
427.220010941826
 30
0.0
 11
4360.300662161257
 21
429.220070941826
 31
0.0
  0
LINE
  5
1C519
330
1B896
100
AcDbEntity
  8
AM_2
100
AcDbLine
 10
4359.650602161257
 20
431.2201309418263
 30
0.0
 11
4360.700662161258
 21
433.2200109418261
 31
0.0
  0
LINE
  5
1C51A
330
1B896
100
AcDbEntity
  8
AM_2
100
AcDbLine
 10
4360.300662161257
 20
426.0013009418261
 30
0.0
 11
4360.300662161257
 21
427.220010941826
 31
0.0
  0
LINE
  5
1C51B
330
1B896
100
AcDbEntity
  8
AM_2
100
AcDbLine
 10
4358.200622161257
 20
426.2200309418262
 30
0.0
 11
4360.300662161257
 21
426.0013009418261
 31
0.0
  0
LINE
  5
1C51C
330
1B896
100
AcDbEntity
  8
AM_2
100
AcDbLine
 10
4362.100662161257
 20
431.2201309418263
 30
0.0
 11
4362.750662161258
 21
431.2201309418263
 31
0.0
  0
LINE
  5
1C51D
330
1B896
100
AcDbEntity
  8
AM_2
100
AcDbLine
 10
4362.100662161257
 20
429.220070941826
 30
0.0
 11
4362.750662161258
 21
429.220070941826
 31
0.0
  0
LINE
  5
1C51E
330
1B896
100
AcDbEntity
  8
AM_2
100
AcDbLine
 10
4362.100662161257
 20
427.220010941826
 30
0.0
 11
4362.750662161258
 21
427.220010941826
 31
0.0
  0
LINE
  5
1C51F
330
1B896
100
AcDbEntity
  8
AM_2
100
AcDbLine
 10
4362.100662161257
 20
429.220070941826
 30
0.0
 11
4362.750662161258
 21
427.220010941826
 31
0.0
  0
LINE
  5
1C520
330
1B896
100
AcDbEntity
  8
AM_2
100
AcDbLine
 10
4362.100662161257
 20
431.2201309418263
 30
0.0
 11
4362.750662161258
 21
429.220070941826
 31
0.0
  0
LINE
  5
1C521
330
1B896
100
AcDbEntity
  8
AM_2
100
AcDbLine
 10
4361.700652161259
 20
433.2200109418261
 30
0.0
 11
4362.750662161258
 21
431.2201309418263
 31
0.0
  0
LINE
  5
1C522
330
1B896
100
AcDbEntity
  8
AM_2
100
AcDbLine
 10
4360.000622161257
 20
416.0201309418262
 30
0.0
 11
4374.400622161257
 21
416.0201309418262
 31
0.0
  0
LINE
  5
1C523
330
1B896
100
AcDbEntity
  8
AM_2
100
AcDbLine
 10
4360.000622161257
 20
416.0201309418262
 30
0.0
 11
4360.000622161257
 21
424.2228145248829
 31
0.0
  0
ARC
  5
1C524
330
1B896
100
AcDbEntity
  8
AM_2
100
AcDbCircle
 10
4358.700622161257
 20
414.7201309418263
 30
0.0
 40
0.5
100
AcDbArc
 50
180.0
 51
270.0
  0
ARC
  5
1C525
330
1B896
100
AcDbEntity
  8
AM_2
100
AcDbCircle
 10
4375.700622161259
 20
414.7201309418263
 30
0.0
 40
0.5
100
AcDbArc
 50
270.0
 51
0.0
  0
LINE
  5
1C526
330
1B896
100
AcDbEntity
  8
AM_2
100
AcDbLine
 10
4360.000622161257
 20
424.2228145248829
 30
0.0
 11
4362.100662161257
 21
424.0040845248826
 31
0.0
  0
LINE
  5
1C527
330
1B896
100
AcDbEntity
  8
AM_2
100
AcDbLine
 10
4362.100662161257
 20
424.0040845248826
 30
0.0
 11
4362.100662161257
 21
427.220010941826
 31
0.0
  0
LINE
  5
1C528
330
1B896
100
AcDbEntity
  8
AM_2
100
AcDbLine
 10
4372.300582161257
 20
424.0040845248826
 30
0.0
 11
4372.300582161257
 21
427.220010941826
 31
0.0
  0
LINE
  5
1C529
330
1B896
100
AcDbEntity
  8
AM_2
100
AcDbLine
 10
4374.400622161257
 20
424.2228145248829
 30
0.0
 11
4372.300582161257
 21
424.0040845248826
 31
0.0
  0
LINE
  5
1C52A
330
1B896
100
AcDbEntity
  8
AM_2
100
AcDbLine
 10
4372.700592161256
 20
433.2200109418261
 30
0.0
 11
4371.650582161258
 21
431.2201309418263
 31
0.0
  0
LINE
  5
1C52B
330
1B896
100
AcDbEntity
  8
AM_2
100
AcDbLine
 10
4372.300582161257
 20
431.2201309418263
 30
0.0
 11
4371.650582161258
 21
429.220070941826
 31
0.0
  0
LINE
  5
1C52C
330
1B896
100
AcDbEntity
  8
AM_2
100
AcDbLine
 10
4372.300582161257
 20
429.220070941826
 30
0.0
 11
4371.650582161258
 21
427.220010941826
 31
0.0
  0
LINE
  5
1C52D
330
1B896
100
AcDbEntity
  8
AM_2
100
AcDbLine
 10
4372.300582161257
 20
427.220010941826
 30
0.0
 11
4371.650582161258
 21
427.220010941826
 31
0.0
  0
LINE
  5
1C52E
330
1B896
100
AcDbEntity
  8
AM_2
100
AcDbLine
 10
4372.300582161257
 20
429.220070941826
 30
0.0
 11
4371.650582161258
 21
429.220070941826
 31
0.0
  0
LINE
  5
1C52F
330
1B896
100
AcDbEntity
  8
AM_2
100
AcDbLine
 10
4372.300582161257
 20
431.2201309418263
 30
0.0
 11
4371.650582161258
 21
431.2201309418263
 31
0.0
  0
LINE
  5
1C530
330
1B896
100
AcDbEntity
  8
AM_2
100
AcDbLine
 10
4376.200622161259
 20
426.2200309418262
 30
0.0
 11
4374.100582161257
 21
426.0013009418261
 31
0.0
  0
LINE
  5
1C531
330
1B896
100
AcDbEntity
  8
AM_2
100
AcDbLine
 10
4374.100582161257
 20
426.0013009418261
 30
0.0
 11
4374.100582161257
 21
427.220010941826
 31
0.0
  0
LINE
  5
1C532
330
1B896
100
AcDbEntity
  8
AM_2
100
AcDbLine
 10
4374.750642161257
 20
431.2201309418263
 30
0.0
 11
4373.700582161256
 21
433.2200109418261
 31
0.0
  0
LINE
  5
1C533
330
1B896
100
AcDbEntity
  8
AM_2
100
AcDbLine
 10
4374.750642161257
 20
427.220010941826
 30
0.0
 11
4374.100582161257
 21
429.220070941826
 31
0.0
  0
LINE
  5
1C534
330
1B896
100
AcDbEntity
  8
AM_2
100
AcDbLine
 10
4374.750642161257
 20
429.220070941826
 30
0.0
 11
4374.100582161257
 21
431.2201309418263
 31
0.0
  0
LINE
  5
1C535
330
1B896
100
AcDbEntity
  8
AM_2
100
AcDbLine
 10
4374.750642161257
 20
427.220010941826
 30
0.0
 11
4374.100582161257
 21
427.220010941826
 31
0.0
  0
LINE
  5
1C536
330
1B896
100
AcDbEntity
  8
AM_2
100
AcDbLine
 10
4374.750642161257
 20
429.220070941826
 30
0.0
 11
4374.100582161257
 21
429.220070941826
 31
0.0
  0
LINE
  5
1C537
330
1B896
100
AcDbEntity
  8
AM_2
100
AcDbLine
 10
4374.750642161257
 20
431.2201309418263
 30
0.0
 11
4374.100582161257
 21
431.2201309418263
 31
0.0
  0
LINE
  5
1C538
330
1B896
100
AcDbEntity
  8
AM_2
100
AcDbLine
 10
4373.700582161256
 20
433.2200109418261
 30
0.0
 11
4372.700592161256
 21
433.2200109418261
 31
0.0
  0
LINE
  5
1C539
330
1B896
100
AcDbEntity
  8
AM_2
100
AcDbLine
 10
4374.400622161257
 20
416.0201309418262
 30
0.0
 11
4374.400622161257
 21
424.2228145248829
 31
0.0
  0
LINE
  5
1C53A
330
1B896
100
AcDbEntity
  8
AM_2
100
AcDbLine
 10
4376.200622161259
 20
414.7201309418263
 30
0.0
 11
4376.200622161259
 21
426.2200309418262
 31
0.0
  0
LINE
  5
1C53B
330
1B896
100
AcDbEntity
  8
AM_2
100
AcDbLine
 10
4372.300582161257
 20
431.0540380096168
 30
0.0
 11
4372.259843307821
 21
431.0947768630525
 31
0.0
  0
LINE
  5
1C53C
330
1B896
100
AcDbEntity
  8
AM_2
100
AcDbLine
 10
4372.300582161257
 20
430.7397290453794
 30
0.0
 11
4372.182750401716
 21
430.8575608049208
 31
0.0
  0
LINE
  5
1C53D
330
1B896
100
AcDbEntity
  8
AM_2
100
AcDbLine
 10
4372.300582161257
 20
430.425420081142
 30
0.0
 11
4372.10565749561
 21
430.6203447467892
 31
0.0
  0
LINE
  5
1C53E
330
1B896
100
AcDbEntity
  8
AM_2
100
AcDbLine
 10
4372.300582161257
 20
430.1111111169046
 30
0.0
 11
4372.028564589505
 21
430.3831286886575
 31
0.0
  0
LINE
  5
1C53F
330
1B896
100
AcDbEntity
  8
AM_2
100
AcDbLine
 10
4372.300582161257
 20
429.7968021526672
 30
0.0
 11
4371.951471683398
 21
430.1459126305258
 31
0.0
  0
LINE
  5
1C540
330
1B896
100
AcDbEntity
  8
AM_2
100
AcDbLine
 10
4372.300582161257
 20
429.4824931884296
 30
0.0
 11
4371.874378777293
 21
429.9086965723939
 31
0.0
  0
LINE
  5
1C541
330
1B896
100
AcDbEntity
  8
AM_2
100
AcDbLine
 10
4372.248695443624
 20
429.220070941826
 30
0.0
 11
4371.797285871189
 21
429.6714805142622
 31
0.0
  0
LINE
  5
1C542
330
1B896
100
AcDbEntity
  8
AM_2
100
AcDbLine
 10
4371.934386479387
 20
429.220070941826
 30
0.0
 11
4371.720192965081
 21
429.4342644561305
 31
0.0
  0
LINE
  5
1C543
330
1B896
100
AcDbEntity
  8
AM_2
100
AcDbLine
 10
4372.300582161257
 20
432.3112738665664
 30
0.0
 11
4372.250019348305
 21
432.3618366795185
 31
0.0
  0
LINE
  5
1C544
330
1B896
100
AcDbEntity
  8
AM_2
100
AcDbLine
 10
4372.300582161257
 20
431.9969649023291
 30
0.0
 11
4372.141809689748
 21
432.1557373738389
 31
0.0
  0
LINE
  5
1C545
330
1B896
100
AcDbEntity
  8
AM_2
100
AcDbLine
 10
4372.300582161257
 20
431.6826559380916
 30
0.0
 11
4372.03360003119
 21
431.9496380681595
 31
0.0
  0
LINE
  5
1C546
330
1B896
100
AcDbEntity
  8
AM_2
100
AcDbLine
 10
4372.300582161257
 20
431.3683469738542
 30
0.0
 11
4371.925390372632
 21
431.7435387624797
 31
0.0
  0
LINE
  5
1C547
330
1B896
100
AcDbEntity
  8
AM_2
100
AcDbLine
 10
4372.134489229048
 20
431.2201309418263
 30
0.0
 11
4371.817180714073
 21
431.5374394568003
 31
0.0
  0
LINE
  5
1C548
330
1B896
100
AcDbEntity
  8
AM_2
100
AcDbLine
 10
4371.820180264811
 20
431.2201309418263
 30
0.0
 11
4371.708971055515
 21
431.3313401511207
 31
0.0
  0
LINE
  5
1C549
330
1B896
100
AcDbEntity
  8
AM_2
100
AcDbLine
 10
4372.300582161257
 20
429.1681842241922
 30
0.0
 11
4372.287855518668
 21
429.1809108667821
 31
0.0
  0
LINE
  5
1C54A
330
1B896
100
AcDbEntity
  8
AM_2
100
AcDbLine
 10
4372.300582161257
 20
428.8538752599548
 30
0.0
 11
4372.210762612562
 21
428.9436948086503
 31
0.0
  0
LINE
  5
1C54B
330
1B896
100
AcDbEntity
  8
AM_2
100
AcDbLine
 10
4372.300582161257
 20
428.5395662957175
 30
0.0
 11
4372.133669706455
 21
428.7064787505186
 31
0.0
  0
LINE
  5
1C54C
330
1B896
100
AcDbEntity
  8
AM_2
100
AcDbLine
 10
4372.300582161257
 20
428.2252573314799
 30
0.0
 11
4372.056576800349
 21
428.4692626923869
 31
0.0
  0
LINE
  5
1C54D
330
1B896
100
AcDbEntity
  8
AM_2
100
AcDbLine
 10
4372.300582161257
 20
427.9109483672426
 30
0.0
 11
4371.979483894246
 21
428.2320466342552
 31
0.0
  0
LINE
  5
1C54E
330
1B896
100
AcDbEntity
  8
AM_2
100
AcDbLine
 10
4372.300582161257
 20
427.5966394030052
 30
0.0
 11
4371.902390988139
 21
427.9948305761235
 31
0.0
  0
LINE
  5
1C54F
330
1B896
100
AcDbEntity
  8
AM_2
100
AcDbLine
 10
4372.300582161257
 20
427.2823304387678
 30
0.0
 11
4371.825298082032
 21
427.7576145179919
 31
0.0
  0
LINE
  5
1C550
330
1B896
100
AcDbEntity
  8
AM_2
100
AcDbLine
 10
4372.048592693961
 20
427.220010941826
 30
0.0
 11
4371.748205175928
 21
427.5203984598602
 31
0.0
  0
LINE
  5
1C551
330
1B896
100
AcDbEntity
  8
AM_2
100
AcDbLine
 10
4371.734283729725
 20
427.2200109418259
 30
0.0
 11
4371.671112269821
 21
427.2831824017284
 31
0.0
  0
LINE
  5
1C552
330
1B896
100
AcDbEntity
  8
AM_2
100
AcDbLine
 10
4362.66696059279
 20
427.220010941826
 30
0.0
 11
4362.730132052693
 21
427.2831824017284
 31
0.0
  0
LINE
  5
1C553
330
1B896
100
AcDbEntity
  8
AM_2
100
AcDbLine
 10
4362.352651628553
 20
427.220010941826
 30
0.0
 11
4362.653039146587
 21
427.5203984598602
 31
0.0
  0
LINE
  5
1C554
330
1B896
100
AcDbEntity
  8
AM_2
100
AcDbLine
 10
4362.100662161257
 20
427.2823304387678
 30
0.0
 11
4362.575946240482
 21
427.757614517992
 31
0.0
  0
LINE
  5
1C555
330
1B896
100
AcDbEntity
  8
AM_2
100
AcDbLine
 10
4362.100662161257
 20
427.5966394030054
 30
0.0
 11
4362.498853334376
 21
427.9948305761237
 31
0.0
  0
LINE
  5
1C556
330
1B896
100
AcDbEntity
  8
AM_2
100
AcDbLine
 10
4362.100662161257
 20
427.9109483672426
 30
0.0
 11
4362.42176042827
 21
428.2320466342553
 31
0.0
  0
LINE
  5
1C557
330
1B896
100
AcDbEntity
  8
AM_2
100
AcDbLine
 10
4362.100662161257
 20
428.22525733148
 30
0.0
 11
4362.344667522164
 21
428.4692626923873
 31
0.0
  0
LINE
  5
1C558
330
1B896
100
AcDbEntity
  8
AM_2
100
AcDbLine
 10
4362.100662161257
 20
428.5395662957175
 30
0.0
 11
4362.267574616058
 21
428.7064787505189
 31
0.0
  0
LINE
  5
1C559
330
1B896
100
AcDbEntity
  8
AM_2
100
AcDbLine
 10
4362.100662161257
 20
428.8538752599549
 30
0.0
 11
4362.190481709953
 21
428.9436948086507
 31
0.0
  0
LINE
  5
1C55A
330
1B896
100
AcDbEntity
  8
AM_2
100
AcDbLine
 10
4362.100662161257
 20
429.1681842241923
 30
0.0
 11
4362.113388803847
 21
429.1809108667823
 31
0.0
  0
LINE
  5
1C55B
330
1B896
100
AcDbEntity
  8
AM_2
100
AcDbLine
 10
4362.581064057703
 20
431.2201309418263
 30
0.0
 11
4362.692273266999
 21
431.3313401511208
 31
0.0
  0
LINE
  5
1C55C
330
1B896
100
AcDbEntity
  8
AM_2
100
AcDbLine
 10
4362.266755093467
 20
431.2201309418263
 30
0.0
 11
4362.584063608441
 21
431.5374394568003
 31
0.0
  0
LINE
  5
1C55D
330
1B896
100
AcDbEntity
  8
AM_2
100
AcDbLine
 10
4362.100662161257
 20
431.3683469738542
 30
0.0
 11
4362.475853949884
 21
431.7435387624797
 31
0.0
  0
LINE
  5
1C55E
330
1B896
100
AcDbEntity
  8
AM_2
100
AcDbLine
 10
4362.100662161257
 20
431.6826559380916
 30
0.0
 11
4362.367644291325
 21
431.9496380681595
 31
0.0
  0
LINE
  5
1C55F
330
1B896
100
AcDbEntity
  8
AM_2
100
AcDbLine
 10
4362.100662161257
 20
431.9969649023291
 30
0.0
 11
4362.259434632766
 21
432.1557373738389
 31
0.0
  0
LINE
  5
1C560
330
1B896
100
AcDbEntity
  8
AM_2
100
AcDbLine
 10
4362.100662161257
 20
432.3112738665665
 30
0.0
 11
4362.151224974208
 21
432.3618366795185
 31
0.0
  0
LINE
  5
1C561
330
1B896
100
AcDbEntity
  8
AM_2
100
AcDbLine
 10
4362.466857843128
 20
429.220070941826
 30
0.0
 11
4362.681051357433
 21
429.4342644561305
 31
0.0
  0
LINE
  5
1C562
330
1B896
100
AcDbEntity
  8
AM_2
100
AcDbLine
 10
4362.152548878891
 20
429.220070941826
 30
0.0
 11
4362.603958451327
 21
429.6714805142624
 31
0.0
  0
LINE
  5
1C563
330
1B896
100
AcDbEntity
  8
AM_2
100
AcDbLine
 10
4362.100662161257
 20
429.4824931884297
 30
0.0
 11
4362.526865545222
 21
429.9086965723943
 31
0.0
  0
LINE
  5
1C564
330
1B896
100
AcDbEntity
  8
AM_2
100
AcDbLine
 10
4362.100662161257
 20
429.7968021526672
 30
0.0
 11
4362.449772639116
 21
430.1459126305258
 31
0.0
  0
LINE
  5
1C565
330
1B896
100
AcDbEntity
  8
AM_2
100
AcDbLine
 10
4362.100662161257
 20
430.1111111169047
 30
0.0
 11
4362.37267973301
 21
430.3831286886575
 31
0.0
  0
LINE
  5
1C566
330
1B896
100
AcDbEntity
  8
AM_2
100
AcDbLine
 10
4362.100662161257
 20
430.4254200811421
 30
0.0
 11
4362.295586826903
 21
430.6203447467894
 31
0.0
  0
LINE
  5
1C567
330
1B896
100
AcDbEntity
  8
AM_2
100
AcDbLine
 10
4362.100662161257
 20
430.7397290453795
 30
0.0
 11
4362.218493920798
 21
430.8575608049208
 31
0.0
  0
LINE
  5
1C568
330
1B896
100
AcDbEntity
  8
AM_2
100
AcDbLine
 10
4362.100662161257
 20
431.054038009617
 30
0.0
 11
4362.141401014692
 21
431.0947768630529
 31
0.0
  0
LINE
  5
1C569
330
1B896
100
AcDbEntity
  8
AM_2
100
AcDbLine
 10
4362.100662161257
 20
427.220010941826
 30
0.0
 11
4362.100662161257
 21
432.4581401036444
 31
0.0
  0
LINE
  5
1C56A
330
1B896
100
AcDbEntity
  8
AM_2
100
AcDbLine
 10
4372.300582161257
 20
427.220010941826
 30
0.0
 11
4372.300582161257
 21
432.4581401036444
 31
0.0
  0
LINE
  5
1C56B
330
1B896
100
AcDbEntity
  8
AM_0
100
AcDbLine
 10
4412.200622161249
 20
423.2201309418263
 30
0.0
 11
4379.200622161259
 21
423.2201309418263
 31
0.0
  0
LINE
  5
1C56C
330
1B896
100
AcDbEntity
  8
AM_2
100
AcDbLine
 10
4375.200621161257
 20
265.8048226066438
 30
0.0
 11
4375.200621161257
 21
267.7445890392139
 31
0.0
  0
LINE
  5
1C56D
330
1B896
100
AcDbEntity
  8
AM_0
100
AcDbLine
 10
4349.700622161259
 20
264.244589039314
 30
0.0
 11
4359.200623161256
 21
264.244589039314
 31
0.0
  0
LINE
  5
1C56E
330
1B896
100
AcDbEntity
  8
AM_0
100
AcDbLine
 10
4347.700622161259
 20
266.244589039314
 30
0.0
 11
4349.700622161259
 21
264.244589039314
 31
0.0
  0
LINE
  5
1C56F
330
1B896
100
AcDbEntity
  8
AM_0
100
AcDbLine
 10
4347.700622161259
 20
289.244589039314
 30
0.0
 11
4416.700622161259
 21
289.244589039314
 31
0.0
  0
LINE
  5
1C570
330
1B896
100
AcDbEntity
  8
AM_0
100
AcDbLine
 10
4347.700622161259
 20
266.244589039314
 30
0.0
 11
4347.700622161259
 21
289.244589039314
 31
0.0
  0
LINE
  5
1C571
330
1B896
100
AcDbEntity
  8
OS
100
AcDbLine
 10
4440.700622161259
 20
277.2445890393139
 30
0.0
 11
4416.700622161259
 21
277.2445890393139
 31
0.0
  0
LINE
  5
1C572
330
1B896
100
AcDbEntity
  8
AM_0
100
AcDbLine
 10
4414.700622161259
 20
264.244589039314
 30
0.0
 11
4375.200621161257
 21
264.244589039314
 31
0.0
  0
LINE
  5
1C573
330
1B896
100
AcDbEntity
  8
AM_0
100
AcDbLine
 10
4414.700622161259
 20
264.244589039314
 30
0.0
 11
4416.700622161259
 21
266.244589039314
 31
0.0
  0
LINE
  5
1C574
330
1B896
100
AcDbEntity
  8
AM_0
100
AcDbLine
 10
4416.700622161259
 20
266.244589039314
 30
0.0
 11
4416.700622161259
 21
289.244589039314
 31
0.0
  0
LINE
  5
1C575
330
1B896
100
AcDbEntity
  8
AM_2
100
AcDbLine
 10
4375.200621161257
 20
265.7445890523139
 30
0.0
 11
4375.200621161257
 21
264.244589039314
 31
0.0
  0
LINE
  5
1C576
330
1B896
100
AcDbEntity
  8
AM_0
100
AcDbLine
 10
4411.200621161258
 20
264.244589039314
 30
0.0
 11
4375.200621161257
 21
264.244589039314
 31
0.0
  0
LINE
  5
1C577
330
1B896
100
AcDbEntity
  8
AM_0
100
AcDbLine
 10
4359.200623161256
 20
264.244589039314
 30
0.0
 11
4359.200623161256
 21
272.244589039314
 31
0.0
  0
LINE
  5
1C578
330
1B896
100
AcDbEntity
  8
AM_0
100
AcDbLine
 10
4375.200621161257
 20
264.244589039314
 30
0.0
 11
4375.200621161257
 21
272.244589039314
 31
0.0
  0
LINE
  5
1C579
330
1B896
100
AcDbEntity
  8
AM_0
100
AcDbLine
 10
4371.800622161257
 20
264.244589039314
 30
0.0
 11
4371.800622161257
 21
272.244589039314
 31
0.0
  0
LINE
  5
1C57A
330
1B896
100
AcDbEntity
  8
AM_0
100
AcDbLine
 10
4362.600622161257
 20
264.244589039314
 30
0.0
 11
4362.600622161257
 21
272.244589039314
 31
0.0
  0
LINE
  5
1C57B
330
1B896
100
AcDbEntity
  8
AM_0
100
AcDbLine
 10
4362.600622161257
 20
272.244589039314
 30
0.0
 11
4359.200623161256
 21
272.244589039314
 31
0.0
  0
LINE
  5
1C57C
330
1B896
100
AcDbEntity
  8
AM_0
100
AcDbLine
 10
4375.200621161257
 20
272.244589039314
 30
0.0
 11
4371.800622161257
 21
272.244589039314
 31
0.0
  0
LINE
  5
1C57D
330
1B896
100
AcDbEntity
  8
AM_0
100
AcDbLine
 10
4362.600622161257
 20
264.244589039314
 30
0.0
 11
4371.800622161257
 21
264.244589039314
 31
0.0
  0
LINE
  5
1C57E
330
1B896
100
AcDbEntity
  8
AM_2
100
AcDbLine
 10
4358.700622161257
 20
252.2445890393139
 30
0.0
 11
4375.700622161259
 21
252.2445890393139
 31
0.0
  0
LINE
  5
1C57F
330
1B896
100
AcDbEntity
  8
AM_2
100
AcDbLine
 10
4358.200622161257
 20
252.744589039314
 30
0.0
 11
4358.200622161257
 21
264.2444890393139
 31
0.0
  0
LINE
  5
1C580
330
1B896
100
AcDbEntity
  8
AM_2
100
AcDbLine
 10
4360.700662161258
 20
271.2444690393136
 30
0.0
 11
4361.700652161259
 21
271.2444690393136
 31
0.0
  0
LINE
  5
1C581
330
1B896
100
AcDbEntity
  8
AM_2
100
AcDbLine
 10
4359.650602161257
 20
269.244589039314
 30
0.0
 11
4360.300662161257
 21
269.244589039314
 31
0.0
  0
LINE
  5
1C582
330
1B896
100
AcDbEntity
  8
AM_2
100
AcDbLine
 10
4359.650602161257
 20
267.2445290393137
 30
0.0
 11
4360.300662161257
 21
267.2445290393137
 31
0.0
  0
LINE
  5
1C583
330
1B896
100
AcDbEntity
  8
AM_2
100
AcDbLine
 10
4359.650602161257
 20
265.2444690393136
 30
0.0
 11
4360.300662161257
 21
265.2444690393136
 31
0.0
  0
LINE
  5
1C584
330
1B896
100
AcDbEntity
  8
AM_2
100
AcDbLine
 10
4359.650602161257
 20
267.2445290393137
 30
0.0
 11
4360.300662161257
 21
269.244589039314
 31
0.0
  0
LINE
  5
1C585
330
1B896
100
AcDbEntity
  8
AM_2
100
AcDbLine
 10
4359.650602161257
 20
265.2444690393136
 30
0.0
 11
4360.300662161257
 21
267.2445290393137
 31
0.0
  0
LINE
  5
1C586
330
1B896
100
AcDbEntity
  8
AM_2
100
AcDbLine
 10
4359.650602161257
 20
269.244589039314
 30
0.0
 11
4360.700662161258
 21
271.2444690393136
 31
0.0
  0
LINE
  5
1C587
330
1B896
100
AcDbEntity
  8
AM_2
100
AcDbLine
 10
4360.300662161257
 20
264.0257590393137
 30
0.0
 11
4360.300662161257
 21
265.2444690393136
 31
0.0
  0
LINE
  5
1C588
330
1B896
100
AcDbEntity
  8
AM_2
100
AcDbLine
 10
4358.200622161257
 20
264.2444890393139
 30
0.0
 11
4360.300662161257
 21
264.0257590393137
 31
0.0
  0
LINE
  5
1C589
330
1B896
100
AcDbEntity
  8
AM_2
100
AcDbLine
 10
4362.100662161257
 20
269.244589039314
 30
0.0
 11
4362.750662161258
 21
269.244589039314
 31
0.0
  0
LINE
  5
1C58A
330
1B896
100
AcDbEntity
  8
AM_2
100
AcDbLine
 10
4362.100662161257
 20
267.2445290393137
 30
0.0
 11
4362.750662161258
 21
267.2445290393137
 31
0.0
  0
LINE
  5
1C58B
330
1B896
100
AcDbEntity
  8
AM_2
100
AcDbLine
 10
4362.100662161257
 20
265.2444690393136
 30
0.0
 11
4362.750662161258
 21
265.2444690393136
 31
0.0
  0
LINE
  5
1C58C
330
1B896
100
AcDbEntity
  8
AM_2
100
AcDbLine
 10
4362.100662161257
 20
267.2445290393137
 30
0.0
 11
4362.750662161258
 21
265.2444690393136
 31
0.0
  0
LINE
  5
1C58D
330
1B896
100
AcDbEntity
  8
AM_2
100
AcDbLine
 10
4362.100662161257
 20
269.244589039314
 30
0.0
 11
4362.750662161258
 21
267.2445290393137
 31
0.0
  0
LINE
  5
1C58E
330
1B896
100
AcDbEntity
  8
AM_2
100
AcDbLine
 10
4361.700652161259
 20
271.2444690393136
 30
0.0
 11
4362.750662161258
 21
269.244589039314
 31
0.0
  0
LINE
  5
1C58F
330
1B896
100
AcDbEntity
  8
AM_2
100
AcDbLine
 10
4360.000622161257
 20
254.0445890393139
 30
0.0
 11
4374.400622161257
 21
254.0445890393139
 31
0.0
  0
LINE
  5
1C590
330
1B896
100
AcDbEntity
  8
AM_2
100
AcDbLine
 10
4360.000622161257
 20
254.0445890393139
 30
0.0
 11
4360.000622161257
 21
262.2472726223707
 31
0.0
  0
ARC
  5
1C591
330
1B896
100
AcDbEntity
  8
AM_2
100
AcDbCircle
 10
4358.700622161257
 20
252.744589039314
 30
0.0
 40
0.5
100
AcDbArc
 50
180.0
 51
270.0
  0
ARC
  5
1C592
330
1B896
100
AcDbEntity
  8
AM_2
100
AcDbCircle
 10
4375.700622161259
 20
252.744589039314
 30
0.0
 40
0.5
100
AcDbArc
 50
270.0
 51
0.0
  0
LINE
  5
1C593
330
1B896
100
AcDbEntity
  8
AM_2
100
AcDbLine
 10
4360.000622161257
 20
262.2472726223707
 30
0.0
 11
4362.100662161257
 21
262.0285426223703
 31
0.0
  0
LINE
  5
1C594
330
1B896
100
AcDbEntity
  8
AM_2
100
AcDbLine
 10
4362.100662161257
 20
262.0285426223703
 30
0.0
 11
4362.100662161257
 21
265.2444690393136
 31
0.0
  0
LINE
  5
1C595
330
1B896
100
AcDbEntity
  8
AM_2
100
AcDbLine
 10
4372.300582161257
 20
262.0285426223703
 30
0.0
 11
4372.300582161257
 21
265.2444690393136
 31
0.0
  0
LINE
  5
1C596
330
1B896
100
AcDbEntity
  8
AM_2
100
AcDbLine
 10
4374.400622161257
 20
262.2472726223707
 30
0.0
 11
4372.300582161257
 21
262.0285426223703
 31
0.0
  0
LINE
  5
1C597
330
1B896
100
AcDbEntity
  8
AM_2
100
AcDbLine
 10
4372.700592161256
 20
271.2444690393136
 30
0.0
 11
4371.650582161258
 21
269.244589039314
 31
0.0
  0
LINE
  5
1C598
330
1B896
100
AcDbEntity
  8
AM_2
100
AcDbLine
 10
4372.300582161257
 20
269.244589039314
 30
0.0
 11
4371.650582161258
 21
267.2445290393137
 31
0.0
  0
LINE
  5
1C599
330
1B896
100
AcDbEntity
  8
AM_2
100
AcDbLine
 10
4372.300582161257
 20
267.2445290393137
 30
0.0
 11
4371.650582161258
 21
265.2444690393136
 31
0.0
  0
LINE
  5
1C59A
330
1B896
100
AcDbEntity
  8
AM_2
100
AcDbLine
 10
4372.300582161257
 20
265.2444690393136
 30
0.0
 11
4371.650582161258
 21
265.2444690393136
 31
0.0
  0
LINE
  5
1C59B
330
1B896
100
AcDbEntity
  8
AM_2
100
AcDbLine
 10
4372.300582161257
 20
267.2445290393137
 30
0.0
 11
4371.650582161258
 21
267.2445290393137
 31
0.0
  0
LINE
  5
1C59C
330
1B896
100
AcDbEntity
  8
AM_2
100
AcDbLine
 10
4372.300582161257
 20
269.244589039314
 30
0.0
 11
4371.650582161258
 21
269.244589039314
 31
0.0
  0
LINE
  5
1C59D
330
1B896
100
AcDbEntity
  8
AM_2
100
AcDbLine
 10
4376.200622161259
 20
264.2444890393139
 30
0.0
 11
4374.100582161257
 21
264.0257590393137
 31
0.0
  0
LINE
  5
1C59E
330
1B896
100
AcDbEntity
  8
AM_2
100
AcDbLine
 10
4374.100582161257
 20
264.0257590393137
 30
0.0
 11
4374.100582161257
 21
265.2444690393136
 31
0.0
  0
LINE
  5
1C59F
330
1B896
100
AcDbEntity
  8
AM_2
100
AcDbLine
 10
4374.750642161257
 20
269.244589039314
 30
0.0
 11
4373.700582161256
 21
271.2444690393136
 31
0.0
  0
LINE
  5
1C5A0
330
1B896
100
AcDbEntity
  8
AM_2
100
AcDbLine
 10
4374.750642161257
 20
265.2444690393136
 30
0.0
 11
4374.100582161257
 21
267.2445290393137
 31
0.0
  0
LINE
  5
1C5A1
330
1B896
100
AcDbEntity
  8
AM_2
100
AcDbLine
 10
4374.750642161257
 20
267.2445290393137
 30
0.0
 11
4374.100582161257
 21
269.244589039314
 31
0.0
  0
LINE
  5
1C5A2
330
1B896
100
AcDbEntity
  8
AM_2
100
AcDbLine
 10
4374.750642161257
 20
265.2444690393136
 30
0.0
 11
4374.100582161257
 21
265.2444690393136
 31
0.0
  0
LINE
  5
1C5A3
330
1B896
100
AcDbEntity
  8
AM_2
100
AcDbLine
 10
4374.750642161257
 20
267.2445290393137
 30
0.0
 11
4374.100582161257
 21
267.2445290393137
 31
0.0
  0
LINE
  5
1C5A4
330
1B896
100
AcDbEntity
  8
AM_2
100
AcDbLine
 10
4374.750642161257
 20
269.244589039314
 30
0.0
 11
4374.100582161257
 21
269.244589039314
 31
0.0
  0
LINE
  5
1C5A5
330
1B896
100
AcDbEntity
  8
AM_2
100
AcDbLine
 10
4373.700582161256
 20
271.2444690393136
 30
0.0
 11
4372.700592161256
 21
271.2444690393136
 31
0.0
  0
LINE
  5
1C5A6
330
1B896
100
AcDbEntity
  8
AM_2
100
AcDbLine
 10
4374.400622161257
 20
254.0445890393139
 30
0.0
 11
4374.400622161257
 21
262.2472726223707
 31
0.0
  0
LINE
  5
1C5A7
330
1B896
100
AcDbEntity
  8
AM_2
100
AcDbLine
 10
4376.200622161259
 20
252.744589039314
 30
0.0
 11
4376.200622161259
 21
264.2444890393139
 31
0.0
  0
LINE
  5
1C5A8
330
1B896
100
AcDbEntity
  8
AM_2
100
AcDbLine
 10
4372.300582161257
 20
269.0784961071045
 30
0.0
 11
4372.259843307821
 21
269.1192349605402
 31
0.0
  0
LINE
  5
1C5A9
330
1B896
100
AcDbEntity
  8
AM_2
100
AcDbLine
 10
4372.300582161257
 20
268.7641871428671
 30
0.0
 11
4372.182750401716
 21
268.8820189024086
 31
0.0
  0
LINE
  5
1C5AA
330
1B896
100
AcDbEntity
  8
AM_2
100
AcDbLine
 10
4372.300582161257
 20
268.4498781786296
 30
0.0
 11
4372.10565749561
 21
268.6448028442768
 31
0.0
  0
LINE
  5
1C5AB
330
1B896
100
AcDbEntity
  8
AM_2
100
AcDbLine
 10
4372.300582161257
 20
268.1355692143923
 30
0.0
 11
4372.028564589505
 21
268.4075867861452
 31
0.0
  0
LINE
  5
1C5AC
330
1B896
100
AcDbEntity
  8
AM_2
100
AcDbLine
 10
4372.300582161257
 20
267.8212602501548
 30
0.0
 11
4371.951471683398
 21
268.1703707280135
 31
0.0
  0
LINE
  5
1C5AD
330
1B896
100
AcDbEntity
  8
AM_2
100
AcDbLine
 10
4372.300582161257
 20
267.5069512859171
 30
0.0
 11
4371.874378777293
 21
267.9331546698816
 31
0.0
  0
LINE
  5
1C5AE
330
1B896
100
AcDbEntity
  8
AM_2
100
AcDbLine
 10
4372.248695443624
 20
267.2445290393137
 30
0.0
 11
4371.797285871189
 21
267.6959386117498
 31
0.0
  0
LINE
  5
1C5AF
330
1B896
100
AcDbEntity
  8
AM_2
100
AcDbLine
 10
4371.934386479387
 20
267.2445290393137
 30
0.0
 11
4371.720192965081
 21
267.4587225536182
 31
0.0
  0
LINE
  5
1C5B0
330
1B896
100
AcDbEntity
  8
AM_2
100
AcDbLine
 10
4372.300582161257
 20
270.3357319640541
 30
0.0
 11
4372.250019348305
 21
270.3862947770061
 31
0.0
  0
LINE
  5
1C5B1
330
1B896
100
AcDbEntity
  8
AM_2
100
AcDbLine
 10
4372.300582161257
 20
270.0214229998167
 30
0.0
 11
4372.141809689748
 21
270.1801954713266
 31
0.0
  0
LINE
  5
1C5B2
330
1B896
100
AcDbEntity
  8
AM_2
100
AcDbLine
 10
4372.300582161257
 20
269.7071140355792
 30
0.0
 11
4372.03360003119
 21
269.9740961656471
 31
0.0
  0
LINE
  5
1C5B3
330
1B896
100
AcDbEntity
  8
AM_2
100
AcDbLine
 10
4372.300582161257
 20
269.3928050713416
 30
0.0
 11
4371.925390372632
 21
269.7679968599674
 31
0.0
  0
LINE
  5
1C5B4
330
1B896
100
AcDbEntity
  8
AM_2
100
AcDbLine
 10
4372.134489229048
 20
269.244589039314
 30
0.0
 11
4371.817180714073
 21
269.5618975542877
 31
0.0
  0
LINE
  5
1C5B5
330
1B896
100
AcDbEntity
  8
AM_2
100
AcDbLine
 10
4371.820180264811
 20
269.244589039314
 30
0.0
 11
4371.708971055515
 21
269.3557982486083
 31
0.0
  0
LINE
  5
1C5B6
330
1B896
100
AcDbEntity
  8
AM_2
100
AcDbLine
 10
4372.300582161257
 20
267.1926423216798
 30
0.0
 11
4372.287855518668
 21
267.2053689642698
 31
0.0
  0
LINE
  5
1C5B7
330
1B896
100
AcDbEntity
  8
AM_2
100
AcDbLine
 10
4372.300582161257
 20
266.8783333574424
 30
0.0
 11
4372.210762612562
 21
266.968152906138
 31
0.0
  0
LINE
  5
1C5B8
330
1B896
100
AcDbEntity
  8
AM_2
100
AcDbLine
 10
4372.300582161257
 20
266.5640243932052
 30
0.0
 11
4372.133669706455
 21
266.7309368480063
 31
0.0
  0
LINE
  5
1C5B9
330
1B896
100
AcDbEntity
  8
AM_2
100
AcDbLine
 10
4372.300582161257
 20
266.2497154289677
 30
0.0
 11
4372.056576800349
 21
266.4937207898745
 31
0.0
  0
LINE
  5
1C5BA
330
1B896
100
AcDbEntity
  8
AM_2
100
AcDbLine
 10
4372.300582161257
 20
265.9354064647303
 30
0.0
 11
4371.979483894246
 21
266.2565047317428
 31
0.0
  0
LINE
  5
1C5BB
330
1B896
100
AcDbEntity
  8
AM_2
100
AcDbLine
 10
4372.300582161257
 20
265.6210975004928
 30
0.0
 11
4371.902390988139
 21
266.0192886736112
 31
0.0
  0
LINE
  5
1C5BC
330
1B896
100
AcDbEntity
  8
AM_2
100
AcDbLine
 10
4372.300582161257
 20
265.3067885362552
 30
0.0
 11
4371.825298082032
 21
265.7820726154795
 31
0.0
  0
LINE
  5
1C5BD
330
1B896
100
AcDbEntity
  8
AM_2
100
AcDbLine
 10
4372.048592693961
 20
265.2444690393138
 30
0.0
 11
4371.748205175928
 21
265.5448565573478
 31
0.0
  0
LINE
  5
1C5BE
330
1B896
100
AcDbEntity
  8
AM_2
100
AcDbLine
 10
4371.734283729725
 20
265.2444690393135
 30
0.0
 11
4371.671112269821
 21
265.3076404992162
 31
0.0
  0
LINE
  5
1C5BF
330
1B896
100
AcDbEntity
  8
AM_2
100
AcDbLine
 10
4362.66696059279
 20
265.2444690393136
 30
0.0
 11
4362.730132052693
 21
265.3076404992162
 31
0.0
  0
LINE
  5
1C5C0
330
1B896
100
AcDbEntity
  8
AM_2
100
AcDbLine
 10
4362.352651628553
 20
265.2444690393136
 30
0.0
 11
4362.653039146587
 21
265.5448565573478
 31
0.0
  0
LINE
  5
1C5C1
330
1B896
100
AcDbEntity
  8
AM_2
100
AcDbLine
 10
4362.100662161257
 20
265.3067885362555
 30
0.0
 11
4362.575946240482
 21
265.7820726154795
 31
0.0
  0
LINE
  5
1C5C2
330
1B896
100
AcDbEntity
  8
AM_2
100
AcDbLine
 10
4362.100662161257
 20
265.6210975004929
 30
0.0
 11
4362.498853334376
 21
266.0192886736114
 31
0.0
  0
LINE
  5
1C5C3
330
1B896
100
AcDbEntity
  8
AM_2
100
AcDbLine
 10
4362.100662161257
 20
265.9354064647303
 30
0.0
 11
4362.42176042827
 21
266.256504731743
 31
0.0
  0
LINE
  5
1C5C4
330
1B896
100
AcDbEntity
  8
AM_2
100
AcDbLine
 10
4362.100662161257
 20
266.2497154289677
 30
0.0
 11
4362.344667522164
 21
266.4937207898749
 31
0.0
  0
LINE
  5
1C5C5
330
1B896
100
AcDbEntity
  8
AM_2
100
AcDbLine
 10
4362.100662161257
 20
266.5640243932052
 30
0.0
 11
4362.267574616058
 21
266.7309368480067
 31
0.0
  0
LINE
  5
1C5C6
330
1B896
100
AcDbEntity
  8
AM_2
100
AcDbLine
 10
4362.100662161257
 20
266.8783333574426
 30
0.0
 11
4362.190481709953
 21
266.9681529061384
 31
0.0
  0
LINE
  5
1C5C7
330
1B896
100
AcDbEntity
  8
AM_2
100
AcDbLine
 10
4362.100662161257
 20
267.19264232168
 30
0.0
 11
4362.113388803847
 21
267.20536896427
 31
0.0
  0
LINE
  5
1C5C8
330
1B896
100
AcDbEntity
  8
AM_2
100
AcDbLine
 10
4362.581064057703
 20
269.244589039314
 30
0.0
 11
4362.692273266999
 21
269.3557982486083
 31
0.0
  0
LINE
  5
1C5C9
330
1B896
100
AcDbEntity
  8
AM_2
100
AcDbLine
 10
4362.266755093467
 20
269.244589039314
 30
0.0
 11
4362.584063608441
 21
269.561897554288
 31
0.0
  0
LINE
  5
1C5CA
330
1B896
100
AcDbEntity
  8
AM_2
100
AcDbLine
 10
4362.100662161257
 20
269.3928050713419
 30
0.0
 11
4362.475853949884
 21
269.7679968599674
 31
0.0
  0
LINE
  5
1C5CB
330
1B896
100
AcDbEntity
  8
AM_2
100
AcDbLine
 10
4362.100662161257
 20
269.7071140355792
 30
0.0
 11
4362.367644291325
 21
269.9740961656471
 31
0.0
  0
LINE
  5
1C5CC
330
1B896
100
AcDbEntity
  8
AM_2
100
AcDbLine
 10
4362.100662161257
 20
270.0214229998167
 30
0.0
 11
4362.259434632766
 21
270.1801954713266
 31
0.0
  0
LINE
  5
1C5CD
330
1B896
100
AcDbEntity
  8
AM_2
100
AcDbLine
 10
4362.100662161257
 20
270.3357319640542
 30
0.0
 11
4362.151224974208
 21
270.3862947770061
 31
0.0
  0
LINE
  5
1C5CE
330
1B896
100
AcDbEntity
  8
AM_2
100
AcDbLine
 10
4362.466857843128
 20
267.2445290393137
 30
0.0
 11
4362.681051357433
 21
267.4587225536182
 31
0.0
  0
LINE
  5
1C5CF
330
1B896
100
AcDbEntity
  8
AM_2
100
AcDbLine
 10
4362.152548878891
 20
267.2445290393137
 30
0.0
 11
4362.603958451327
 21
267.69593861175
 31
0.0
  0
LINE
  5
1C5D0
330
1B896
100
AcDbEntity
  8
AM_2
100
AcDbLine
 10
4362.100662161257
 20
267.5069512859174
 30
0.0
 11
4362.526865545222
 21
267.9331546698819
 31
0.0
  0
LINE
  5
1C5D1
330
1B896
100
AcDbEntity
  8
AM_2
100
AcDbLine
 10
4362.100662161257
 20
267.8212602501548
 30
0.0
 11
4362.449772639116
 21
268.1703707280135
 31
0.0
  0
LINE
  5
1C5D2
330
1B896
100
AcDbEntity
  8
AM_2
100
AcDbLine
 10
4362.100662161257
 20
268.1355692143923
 30
0.0
 11
4362.37267973301
 21
268.4075867861452
 31
0.0
  0
LINE
  5
1C5D3
330
1B896
100
AcDbEntity
  8
AM_2
100
AcDbLine
 10
4362.100662161257
 20
268.4498781786297
 30
0.0
 11
4362.295586826903
 21
268.6448028442769
 31
0.0
  0
LINE
  5
1C5D4
330
1B896
100
AcDbEntity
  8
AM_2
100
AcDbLine
 10
4362.100662161257
 20
268.7641871428671
 30
0.0
 11
4362.218493920798
 21
268.8820189024086
 31
0.0
  0
LINE
  5
1C5D5
330
1B896
100
AcDbEntity
  8
AM_2
100
AcDbLine
 10
4362.100662161257
 20
269.0784961071045
 30
0.0
 11
4362.141401014692
 21
269.1192349605403
 31
0.0
  0
LINE
  5
1C5D6
330
1B896
100
AcDbEntity
  8
AM_2
100
AcDbLine
 10
4362.100662161257
 20
265.2444690393136
 30
0.0
 11
4362.100662161257
 21
270.482598201132
 31
0.0
  0
LINE
  5
1C5D7
330
1B896
100
AcDbEntity
  8
AM_2
100
AcDbLine
 10
4372.300582161257
 20
265.2444690393136
 30
0.0
 11
4372.300582161257
 21
270.482598201132
 31
0.0
  0
LINE
  5
1C5D8
330
1B896
100
AcDbEntity
  8
AM_0
100
AcDbLine
 10
4412.200622161249
 20
261.244589039314
 30
0.0
 11
4379.200622161259
 21
261.244589039314
 31
0.0
  0
LINE
  5
1C5D9
330
1B896
100
AcDbEntity
  8
AM_2
100
AcDbLine
 10
4425.700622161259
 20
264.244589039214
 30
0.0
 11
4425.700622161259
 21
261.7445893502139
 31
0.0
  0
LINE
  5
1C5DA
330
1B896
100
AcDbEntity
  8
AM_2
100
AcDbLine
 10
4433.700622161259
 20
264.244589039214
 30
0.0
 11
4433.700622161259
 21
261.7445893502139
 31
0.0
  0
LINE
  5
1C5DB
330
1B896
100
AcDbEntity
  8
AM_2
100
AcDbLine
 10
4440.200622921149
 20
264.244589039214
 30
0.0
 11
4414.837113834347
 21
264.244589039214
 31
0.0
  0
LINE
  5
1C5DC
330
1B896
100
AcDbEntity
  8
AM_2
100
AcDbLine
 10
4440.200622921149
 20
266.244589134214
 30
0.0
 11
4440.200622921149
 21
264.244589039214
 31
0.0
  0
LINE
  5
1C5DD
330
1B896
100
AcDbEntity
  8
AM_2
100
AcDbLine
 10
4440.200622921149
 20
273.2445893502139
 30
0.0
 11
4440.200622921149
 21
266.244589134214
 31
0.0
  0
LINE
  5
1C5DE
330
1B896
100
AcDbEntity
  8
AM_2
100
AcDbLine
 10
4440.200622921149
 20
266.244589134214
 30
0.0
 11
4416.700622161259
 21
266.244589134214
 31
0.0
  0
LINE
  5
1C5DF
330
1B896
100
AcDbEntity
  8
AM_2
100
AcDbLine
 10
4416.700622161259
 20
273.2445893502139
 30
0.0
 11
4440.200622921149
 21
273.2445893502139
 31
0.0
  0
LINE
  5
1C5E0
330
1B896
100
AcDbEntity
  8
AM_2
100
AcDbLine
 10
4439.700622161077
 20
234.0382731601939
 30
0.0
 11
4439.700622161077
 21
261.7445893502139
 31
0.0
  0
ARC
  5
1C5E1
330
1B896
100
AcDbEntity
  8
AM_2
100
AcDbCircle
 10
4437.700622161076
 20
234.0382731601939
 30
0.0
 40
2.0
100
AcDbArc
 50
276.2258290645184
 51
0.0
  0
LINE
  5
1C5E2
330
1B896
100
AcDbEntity
  8
AM_2
100
AcDbLine
 10
4439.700622161077
 20
261.7445893502139
 30
0.0
 11
4413.200622161249
 21
261.7445893502139
 31
0.0
  0
LINE
  5
1C5E3
330
1B896
100
AcDbEntity
  8
AM_2
100
AcDbLine
 10
4412.200622161249
 20
229.244589350211
 30
0.0
 11
4437.917517181428
 21
232.0500688069739
 31
0.0
  0
ARC
  5
1C5E4
330
1B896
100
AcDbEntity
  8
AM_2
100
AcDbCircle
 10
4413.200622161249
 20
260.7445893502139
 30
0.0
 40
1.0
100
AcDbArc
 50
89.99999999984366
 51
180.0
  0
TEXT
  5
1C5E5
330
1B896
100
AcDbEntity
  8
AM_5
100
AcDbText
 10
4296.749314793996
 20
-7.076911137341767
 30
0.0
 40
6.0
  1
FL
 41
0.9
100
AcDbText
  0
LINE
  5
1C5E6
330
1B896
100
AcDbEntity
  8
AM_5
100
AcDbLine
 10
4301.214552732206
 20
-15.75541096068593
 30
0.0
 11
4305.861307618281
 21
-7.706995407686008
 31
0.0
  0
LINE
  5
1C5E7
330
1B896
100
AcDbEntity
  8
AM_5
100
AcDbLine
 10
4296.567797846131
 20
-7.706995407686008
 30
0.0
 11
4305.861307618281
 21
-7.706995407686008
 31
0.0
  0
LINE
  5
1C5E8
330
1B896
100
AcDbEntity
  8
AM_5
100
AcDbLine
 10
4301.214552732206
 20
-15.75541096068593
 30
0.0
 11
4296.567797846131
 21
-7.706995407686008
 31
0.0
  0
LINE
  5
1C5E9
330
1B896
100
AcDbEntity
  8
OS
100
AcDbLine
 10
4518.700622161259
 20
-25.35541096068607
 30
0.0
 11
4278.046815783207
 21
-25.35541096068607
 31
0.0
  0
LINE
  5
1C5EA
330
1B896
100
AcDbEntity
  8
OS
100
AcDbLine
 10
4518.700622161259
 20
-22.95541096068598
 30
0.0
 11
4278.046815783207
 21
-22.95541096068598
 31
0.0
  0
LINE
  5
1C5EB
330
1B896
100
AcDbEntity
  8
OS
100
AcDbLine
 10
4518.700622161259
 20
-20.55541096068612
 30
0.0
 11
4278.046815783207
 21
-20.55541096068612
 31
0.0
  0
LINE
  5
1C5EC
330
1B896
100
AcDbEntity
  8
OS
100
AcDbLine
 10
4518.700622161259
 20
-18.15541096068602
 30
0.0
 11
4278.046815783207
 21
-18.15541096068602
 31
0.0
  0
LINE
  5
1C5ED
330
1B896
100
AcDbEntity
  8
OS
100
AcDbLine
 10
4518.700622161259
 20
-27.75541096068593
 30
0.0
 11
4278.046815783207
 21
-27.75541096068593
 31
0.0
  0
LINE
  5
1C5EE
330
1B896
100
AcDbEntity
  8
OS
100
AcDbLine
 10
4518.700622161259
 20
-15.75541096068593
 30
0.0
 11
4278.046815783207
 21
-15.75541096068593
 31
0.0
  0
LINE
  5
1C5EF
330
1B896
100
AcDbEntity
  8
OS
100
AcDbLine
 10
4310.700622161259
 20
-15.75541096068593
 30
0.0
 11
4310.700622161259
 21
326.7171190322217
 31
0.0
  0
LINE
  5
1C5F0
330
1B896
100
AcDbEntity
  8
OS
  6
DASHED1
100
AcDbLine
 10
4440.700622161259
 20
277.2445890393139
 30
0.0
 11
4474.147601065711
 21
277.2445890393139
 31
0.0
  0
LINE
  5
1C5F1
330
1B896
100
AcDbEntity
  8
OS
  6
DASHED1
100
AcDbLine
 10
4428.200622161258
 20
289.7445890393139
 30
0.0
 11
4520.61245821665
 21
289.7445890393139
 31
0.0
  0
LINE
  5
1C5F2
330
1B896
100
AcDbEntity
  8
OS
  6
DASHED1
100
AcDbLine
 10
4310.700622161259
 20
277.2445890393139
 30
0.0
 11
4278.046815783207
 21
277.2445890393139
 31
0.0
  0
LINE
  5
1C5F3
330
1B896
100
AcDbEntity
  8
OS
  6
DASHED1
100
AcDbLine
 10
4310.700622161259
 20
289.7445890393139
 30
0.0
 11
4278.046815783207
 21
289.7445890393139
 31
0.0
  0
LINE
  5
1C5F4
330
1B896
100
AcDbEntity
  8
OS
  6
DASHED1
100
AcDbLine
 10
4310.700622161259
 20
438.2201309418264
 30
0.0
 11
4278.046815783207
 21
438.2201309418264
 31
0.0
  0
LINE
  5
1C5F5
330
1B896
100
AcDbEntity
  8
OS
  6
DASHED1
100
AcDbLine
 10
4428.200622161258
 20
450.7201309418264
 30
0.0
 11
4520.61245821665
 21
450.7201309418264
 31
0.0
  0
LINE
  5
1C5F6
330
1B896
100
AcDbEntity
  8
OS
  6
DASHED1
100
AcDbLine
 10
4310.700622161259
 20
450.7201309418264
 30
0.0
 11
4278.046815783207
 21
450.7201309418264
 31
0.0
  0
LINE
  5
1C5F7
330
1B896
100
AcDbEntity
  8
OS
100
AcDbLine
 10
4440.700622161259
 20
365.6249103299259
 30
0.0
 11
4440.700622161259
 21
480.7109343475564
 31
0.0
  0
LINE
  5
1C5F8
330
1B896
100
AcDbEntity
  8
OS
100
AcDbLine
 10
4428.200622161258
 20
450.7201309418264
 30
0.0
 11
4428.200622161258
 21
480.7109343475564
 31
0.0
  0
LINE
  5
1C5F9
330
1B896
100
AcDbEntity
  8
OS
100
AcDbLine
 10
4323.200622161259
 20
450.7201309418264
 30
0.0
 11
4323.200622161259
 21
480.7109343475564
 31
0.0
  0
LINE
  5
1C5FA
330
1B896
100
AcDbEntity
  8
OS
100
AcDbLine
 10
4310.700622161259
 20
365.6249103299259
 30
0.0
 11
4310.700622161259
 21
480.7109343475564
 31
0.0
  0
LINE
  5
1C5FB
330
1B896
100
AcDbEntity
  8
AM_0
100
AcDbLine
 10
4412.200622161249
 20
423.2201309418263
 30
0.0
 11
4412.200622161249
 21
365.6249103299259
 31
0.0
  0
LINE
  5
1C5FC
330
1B896
100
AcDbEntity
  8
AM_0
100
AcDbLine
 10
4379.200622161259
 20
423.2201309418263
 30
0.0
 11
4379.200622161259
 21
365.6249103299259
 31
0.0
  0
LINE
  5
1C5FD
330
1B896
100
AcDbEntity
  8
OS
100
AcDbLine
 10
4358.200622161259
 20
415.2201309418264
 30
0.0
 11
4358.200622161259
 21
365.6249103299259
 31
0.0
  0
LINE
  5
1C5FE
330
1B896
100
AcDbEntity
  8
OS
100
AcDbLine
 10
4376.200622161259
 20
415.2201309418264
 30
0.0
 11
4376.200622161259
 21
365.6249103299259
 31
0.0
  0
LINE
  5
1C5FF
330
1B896
100
AcDbEntity
  8
OS
100
AcDbLine
 10
4419.700622161259
 20
365.6249103299259
 30
0.0
 11
4419.700622161259
 21
450.7201309418262
 31
0.0
  0
LINE
  5
1C600
330
1B896
100
AcDbEntity
  8
OS
100
AcDbLine
 10
4344.700622161258
 20
365.6249103299259
 30
0.0
 11
4344.700622161258
 21
450.7201309418262
 31
0.0
  0
LINE
  5
1C601
330
1B896
100
AcDbEntity
  8
OS
100
AcDbLine
 10
4347.700622161259
 20
438.2201309418264
 30
0.0
 11
4310.700622161259
 21
438.2201309418264
 31
0.0
  0
LINE
  5
1C602
330
1B896
100
AcDbEntity
  8
OS
100
AcDbLine
 10
4428.200622161258
 20
450.7201309418264
 30
0.0
 11
4416.700622161259
 21
450.7201309418264
 31
0.0
  0
LINE
  5
1C603
330
1B896
100
AcDbEntity
  8
OS
100
AcDbLine
 10
4347.700622161259
 20
450.7201309418264
 30
0.0
 11
4310.700622161259
 21
450.7201309418264
 31
0.0
  0
LINE
  5
1C604
330
1B896
100
AcDbEntity
  8
AM_0
100
AcDbLine
 10
4665.900197668572
 20
181.7294950051293
 30
0.0
 11
4790.650197668573
 21
181.7294950051293
 31
0.0
  0
LINE
  5
1C605
330
1B896
100
AcDbEntity
  8
AM_0
100
AcDbLine
 10
4665.900197668572
 20
181.7294950051293
 30
0.0
 11
4665.900197668572
 21
214.7294950051293
 31
0.0
  0
LINE
  5
1C606
330
1B896
100
AcDbEntity
  8
AM_0
100
AcDbLine
 10
4665.900197668572
 20
214.7294950051293
 30
0.0
 11
4790.650197668573
 21
214.7294950051293
 31
0.0
  0
LINE
  5
1C607
330
1B896
100
AcDbEntity
  8
AM_0
100
AcDbLine
 10
4918.400197668574
 20
181.7294950051293
 30
0.0
 11
4790.650197668573
 21
181.7294950051293
 31
0.0
  0
LINE
  5
1C608
330
1B896
100
AcDbEntity
  8
AM_0
100
AcDbLine
 10
4918.400197668574
 20
214.7294950051293
 30
0.0
 11
4918.400197668574
 21
181.7294950051293
 31
0.0
  0
LINE
  5
1C609
330
1B896
100
AcDbEntity
  8
AM_0
100
AcDbLine
 10
4918.400197668574
 20
214.7294950051293
 30
0.0
 11
4790.650197668573
 21
214.7294950051293
 31
0.0
  0
LINE
  5
1C60A
330
1B896
100
AcDbEntity
  8
OS
100
AcDbLine
 10
4347.700622161259
 20
277.2445890393139
 30
0.0
 11
4310.700622161259
 21
277.2445890393139
 31
0.0
  0
LINE
  5
1C60B
330
1B896
100
AcDbEntity
  8
OS
100
AcDbLine
 10
4323.200622161259
 20
289.7445890393139
 30
0.0
 11
4323.200622161259
 21
327.2171190322217
 31
0.0
  0
LINE
  5
1C60C
330
1B896
100
AcDbEntity
  8
OS
100
AcDbLine
 10
4440.700622161259
 20
-12.75541093458593
 30
0.0
 11
4440.700622161259
 21
329.8665619275163
 31
0.0
  0
LINE
  5
1C60D
330
1B896
100
AcDbEntity
  8
OS
100
AcDbLine
 10
4428.200622161258
 20
289.7445890393139
 30
0.0
 11
4428.200622161258
 21
327.2171190322217
 31
0.0
  0
LINE
  5
1C60E
330
1B896
100
AcDbEntity
  8
________
100
AcDbLine
 10
4367.200622161258
 20
318.6017322818464
 30
0.0
 11
4367.200622161258
 21
258.797444347402
 31
0.0
  0
LINE
  5
1C60F
330
1B896
100
AcDbEntity
  8
OS
100
AcDbLine
 10
4344.700622161258
 20
289.7445890393139
 30
0.0
 11
4344.700622161258
 21
-15.75541096068593
 31
0.0
  0
LINE
  5
1C610
330
1B896
100
AcDbEntity
  8
AM_0
100
AcDbLine
 10
4412.200622161249
 20
261.244589039314
 30
0.0
 11
4412.200622161249
 21
-3.755410960685935
 31
0.0
  0
LINE
  5
1C611
330
1B896
100
AcDbEntity
  8
AM_0
100
AcDbLine
 10
4379.200622161259
 20
261.244589039314
 30
0.0
 11
4379.200622161259
 21
-3.755410960685935
 31
0.0
  0
LINE
  5
1C612
330
1B896
100
AcDbEntity
  8
OS
100
AcDbLine
 10
4376.200622161259
 20
252.744589039314
 30
0.0
 11
4376.200622161259
 21
-15.75541096068616
 31
0.0
  0
LINE
  5
1C613
330
1B896
100
AcDbEntity
  8
OS
100
AcDbLine
 10
4358.200622161259
 20
253.244589039314
 30
0.0
 11
4358.200622161259
 21
142.629111233163
 31
0.0
  0
LINE
  5
1C614
330
1B896
100
AcDbEntity
  8
OS
100
AcDbLine
 10
4419.700622161259
 20
230.0627711683986
 30
0.0
 11
4419.700622161259
 21
24.92640722112821
 31
0.0
  0
LINE
  5
1C615
330
1B896
100
AcDbEntity
  8
AM_0
100
AcDbLine
 10
4412.200622161249
 20
-3.755410960685935
 30
0.0
 11
4379.200622161259
 21
-3.755410960685935
 31
0.0
  0
TEXT
  5
1C623
330
1B896
100
AcDbEntity
  8
MJ
100
AcDbText
 10
4269.69462711362
 20
483.4416697299448
 30
0.0
 40
8.0
  1
■ソフトクローズ部
100
AcDbText
  0
TEXT
  5
1C624
330
1B896
100
AcDbEntity
  8
MJ
100
AcDbText
 10
4269.69462711362
 20
343.549159049202
 30
0.0
 40
8.0
  1
■ピボットヒンジ部
100
AcDbText
  0
LINE
  5
1C625
330
1B896
100
AcDbEntity
  8
________
100
AcDbLine
 10
4976.568057082944
 20
226.7294950051294
 30
0.0
 11
4916.453071593561
 21
226.7294950051294
 31
0.0
  0
LINE
  5
1C626
330
1B896
100
AcDbEntity
  8
OS
100
AcDbLine
 10
4634.400197668573
 20
165.7294950051293
 30
0.0
 11
4597.865540811163
 21
165.7294950051293
 31
0.0
  0
LINE
  5
1C627
330
1B896
100
AcDbEntity
  8
________
100
AcDbLine
 10
4607.769553809799
 20
226.7294950051294
 30
0.0
 11
4667.347342360485
 21
226.7294950051294
 31
0.0
  0
LINE
  5
1C628
330
1B896
100
AcDbEntity
  8
AM_0
100
AcDbLine
 10
4924.400216285473
 20
174.2294950051293
 30
0.0
 11
4949.900216285473
 21
174.2294950051293
 31
0.0
  0
LINE
  5
1C629
330
1B896
100
AcDbEntity
  8
AM_0
100
AcDbLine
 10
4924.400216285473
 20
174.2294950051293
 30
0.0
 11
4922.400216285473
 21
176.2294950051293
 31
0.0
  0
LINE
  5
1C62A
330
1B896
100
AcDbEntity
  8
AM_0
100
AcDbLine
 10
4924.400216285473
 20
249.2294950051293
 30
0.0
 11
4949.900216285473
 21
249.2294950051293
 31
0.0
  0
LINE
  5
1C62B
330
1B896
100
AcDbEntity
  8
AM_0
100
AcDbLine
 10
4924.400216285473
 20
249.2294950051293
 30
0.0
 11
4922.400216285473
 21
247.2294950051293
 31
0.0
  0
LINE
  5
1C62C
330
1B896
100
AcDbEntity
  8
AM_0
100
AcDbLine
 10
4659.900197668573
 20
174.2294950051293
 30
0.0
 11
4634.400197668573
 21
174.2294950051293
 31
0.0
  0
LINE
  5
1C62D
330
1B896
100
AcDbEntity
  8
AM_0
100
AcDbLine
 10
4661.900197668573
 20
176.2294950051293
 30
0.0
 11
4659.900197668573
 21
174.2294950051293
 31
0.0
  0
LINE
  5
1C62E
330
1B896
100
AcDbEntity
  8
AM_0
100
AcDbLine
 10
4661.900197668573
 20
247.2294950051293
 30
0.0
 11
4659.900197668573
 21
249.2294950051293
 31
0.0
  0
LINE
  5
1C62F
330
1B896
100
AcDbEntity
  8
AM_0
100
AcDbLine
 10
4659.900197668573
 20
249.2294950051293
 30
0.0
 11
4634.400197668573
 21
249.2294950051293
 31
0.0
  0
LINE
  5
1C630
330
1B896
100
AcDbEntity
  8
AM_0
100
AcDbLine
 10
4922.400216285473
 20
234.7294940051304
 30
0.0
 11
4922.400216285473
 21
247.2294950051293
 31
0.0
  0
ARC
  5
1C631
330
1B896
100
AcDbEntity
  8
AM_2
100
AcDbCircle
 10
4918.760628013264
 20
180.7294950051293
 30
0.0
 40
1.0
100
AcDbArc
 50
9.999999999991061
 51
90.0
  0
LINE
  5
1C632
330
1B896
100
AcDbEntity
  8
AM_2
100
AcDbLine
 10
4919.745435766277
 20
180.9031431827962
 30
0.0
 11
4922.278292365913
 21
166.5385995975872
 31
0.0
  0
LINE
  5
1C633
330
1B896
100
AcDbEntity
  8
AM_2
100
AcDbLine
 10
4918.760628013264
 20
181.7294950051293
 30
0.0
 11
4917.700197668572
 21
181.7294950051293
 31
0.0
  0
CIRCLE
  5
1C634
330
1B896
100
AcDbEntity
  8
AM_2
  6
DASHED1
100
AcDbCircle
 10
4910.16696422616
 20
164.9794950051242
 30
0.0
 40
3.799999999999998
  0
ARC
  5
1C635
330
1B896
100
AcDbEntity
  8
AM_2
100
AcDbCircle
 10
4912.430214835792
 20
164.8021178209172
 30
0.0
 40
10.0
100
AcDbArc
 50
315.0000000000114
 51
10.00000000000389
  0
ARC
  5
1C636
330
1B896
100
AcDbEntity
  8
AM_2
100
AcDbCircle
 10
4914.342873394242
 20
158.2294950051363
 30
0.0
 40
4.0
100
AcDbArc
 50
269.9999999998957
 51
315.0000000000092
  0
LINE
  5
1C637
330
1B896
100
AcDbEntity
  8
AM_2
100
AcDbLine
 10
4919.501282647654
 20
157.7310500090534
 30
0.0
 11
4917.171300518991
 21
155.4010678803904
 31
0.0
  0
ARC
  5
1C638
330
1B896
100
AcDbEntity
  8
AM_2
100
AcDbCircle
 10
4906.944189911902
 20
158.2294950051593
 30
0.0
 40
4.0
100
AcDbArc
 50
205.691784336162
 51
269.9999999998957
  0
LINE
  5
1C639
330
1B896
100
AcDbEntity
  8
AM_2
100
AcDbLine
 10
4914.342873394242
 20
154.2294950051364
 30
0.0
 11
4906.944189911902
 21
154.2294950051543
 31
0.0
  0
ARC
  5
1C63A
330
1B896
100
AcDbEntity
  8
AM_2
100
AcDbCircle
 10
4892.790525029463
 20
180.7294950051262
 30
0.0
 40
1.0
100
AcDbArc
 50
90.00000000010421
 51
205.6917843359202
  0
LINE
  5
1C63B
330
1B896
100
AcDbEntity
  8
AM_2
100
AcDbLine
 10
4891.889385834861
 20
180.2959651307792
 30
0.0
 11
4903.339633133502
 21
156.4953755077602
 31
0.0
  0
LINE
  5
1C63C
330
1B896
100
AcDbEntity
  8
________
100
AcDbLine
 10
4910.16696422616
 20
173.6044620932423
 30
0.0
 11
4910.16696422616
 21
157.5643628620143
 31
0.0
  0
LINE
  5
1C63D
330
1B896
100
AcDbEntity
  8
________
100
AcDbLine
 10
4904.284495529278
 20
164.9794950051242
 30
0.0
 11
4916.115937041668
 21
164.9794950051242
 31
0.0
  0
LINE
  5
1C63E
330
1B896
100
AcDbEntity
  8
AM_0
100
AcDbLine
 10
4922.400216285473
 20
176.2294950051293
 30
0.0
 11
4922.400216285473
 21
218.7294960051294
 31
0.0
  0
LINE
  5
1C63F
330
1B896
100
AcDbEntity
  8
AM_0
100
AcDbLine
 10
4922.400216285473
 20
218.7294960051294
 30
0.0
 11
4930.400216285473
 21
218.7294960051294
 31
0.0
  0
LINE
  5
1C640
330
1B896
100
AcDbEntity
  8
AM_0
100
AcDbLine
 10
4922.400216285473
 20
234.7294940051304
 30
0.0
 11
4930.400216285471
 21
234.7294940051304
 31
0.0
  0
LINE
  5
1C641
330
1B896
100
AcDbEntity
  8
AM_0
100
AcDbLine
 10
4922.400216285473
 20
231.3294950051294
 30
0.0
 11
4930.400216285471
 21
231.3294950051294
 31
0.0
  0
LINE
  5
1C642
330
1B896
100
AcDbEntity
  8
AM_0
100
AcDbLine
 10
4922.400216285473
 20
222.1294950051294
 30
0.0
 11
4930.400216285473
 21
222.1294950051294
 31
0.0
  0
LINE
  5
1C643
330
1B896
100
AcDbEntity
  8
AM_0
100
AcDbLine
 10
4930.400216285473
 20
222.1294950051294
 30
0.0
 11
4930.400216285473
 21
218.7294960051294
 31
0.0
  0
LINE
  5
1C644
330
1B896
100
AcDbEntity
  8
AM_0
100
AcDbLine
 10
4930.400216285471
 20
234.7294940051304
 30
0.0
 11
4930.400216285471
 21
231.3294950051294
 31
0.0
  0
LINE
  5
1C645
330
1B896
100
AcDbEntity
  8
AM_0
100
AcDbLine
 10
4922.400216285473
 20
222.1294950051294
 30
0.0
 11
4922.400216285473
 21
231.3294950051294
 31
0.0
  0
LINE
  5
1C646
330
1B896
100
AcDbEntity
  8
AM_2
100
AcDbLine
 10
4910.400216285471
 20
218.2294950051293
 30
0.0
 11
4910.400216285471
 21
235.2294950051305
 31
0.0
  0
LINE
  5
1C647
330
1B896
100
AcDbEntity
  8
AM_2
100
AcDbLine
 10
4910.900216285472
 20
217.7294950051293
 30
0.0
 11
4922.400116285473
 21
217.7294950051293
 31
0.0
  0
LINE
  5
1C648
330
1B896
100
AcDbEntity
  8
AM_2
100
AcDbLine
 10
4929.400096285473
 20
220.2295350051294
 30
0.0
 11
4929.400096285473
 21
221.2295250051304
 31
0.0
  0
LINE
  5
1C649
330
1B896
100
AcDbEntity
  8
AM_2
100
AcDbLine
 10
4927.400216285471
 20
219.1794750051294
 30
0.0
 11
4927.400216285471
 21
219.8295350051294
 31
0.0
  0
LINE
  5
1C64A
330
1B896
100
AcDbEntity
  8
AM_2
100
AcDbLine
 10
4925.400156285472
 20
219.1794750051294
 30
0.0
 11
4925.400156285472
 21
219.8295350051294
 31
0.0
  0
LINE
  5
1C64B
330
1B896
100
AcDbEntity
  8
AM_2
100
AcDbLine
 10
4923.400096285472
 20
219.1794750051294
 30
0.0
 11
4923.400096285472
 21
219.8295350051294
 31
0.0
  0
LINE
  5
1C64C
330
1B896
100
AcDbEntity
  8
AM_2
100
AcDbLine
 10
4925.400156285472
 20
219.1794750051294
 30
0.0
 11
4927.400216285471
 21
219.8295350051294
 31
0.0
  0
LINE
  5
1C64D
330
1B896
100
AcDbEntity
  8
AM_2
100
AcDbLine
 10
4923.400096285472
 20
219.1794750051294
 30
0.0
 11
4925.400156285472
 21
219.8295350051294
 31
0.0
  0
LINE
  5
1C64E
330
1B896
100
AcDbEntity
  8
AM_2
100
AcDbLine
 10
4927.400216285471
 20
219.1794750051294
 30
0.0
 11
4929.400096285473
 21
220.2295350051294
 31
0.0
  0
LINE
  5
1C64F
330
1B896
100
AcDbEntity
  8
AM_2
100
AcDbLine
 10
4922.181386285473
 20
219.8295350051294
 30
0.0
 11
4923.400096285472
 21
219.8295350051294
 31
0.0
  0
LINE
  5
1C650
330
1B896
100
AcDbEntity
  8
AM_2
100
AcDbLine
 10
4922.400116285473
 20
217.7294950051293
 30
0.0
 11
4922.181386285473
 21
219.8295350051294
 31
0.0
  0
LINE
  5
1C651
330
1B896
100
AcDbEntity
  8
AM_2
100
AcDbLine
 10
4927.400216285471
 20
221.6295350051296
 30
0.0
 11
4927.400216285471
 21
222.2795350051305
 31
0.0
  0
LINE
  5
1C652
330
1B896
100
AcDbEntity
  8
AM_2
100
AcDbLine
 10
4925.400156285472
 20
221.6295350051296
 30
0.0
 11
4925.400156285472
 21
222.2795350051305
 31
0.0
  0
LINE
  5
1C653
330
1B896
100
AcDbEntity
  8
AM_2
100
AcDbLine
 10
4923.400096285472
 20
221.6295350051296
 30
0.0
 11
4923.400096285472
 21
222.2795350051305
 31
0.0
  0
LINE
  5
1C654
330
1B896
100
AcDbEntity
  8
AM_2
100
AcDbLine
 10
4925.400156285472
 20
221.6295350051296
 30
0.0
 11
4923.400096285472
 21
222.2795350051305
 31
0.0
  0
LINE
  5
1C655
330
1B896
100
AcDbEntity
  8
AM_2
100
AcDbLine
 10
4927.400216285471
 20
221.6295350051296
 30
0.0
 11
4925.400156285472
 21
222.2795350051305
 31
0.0
  0
LINE
  5
1C656
330
1B896
100
AcDbEntity
  8
AM_2
100
AcDbLine
 10
4929.400096285473
 20
221.2295250051304
 30
0.0
 11
4927.400216285471
 21
222.2795350051305
 31
0.0
  0
LINE
  5
1C657
330
1B896
100
AcDbEntity
  8
AM_2
100
AcDbLine
 10
4912.200216285473
 20
219.5294950051295
 30
0.0
 11
4912.200216285473
 21
233.9294950051294
 31
0.0
  0
LINE
  5
1C658
330
1B896
100
AcDbEntity
  8
AM_2
100
AcDbLine
 10
4912.200216285473
 20
219.5294950051295
 30
0.0
 11
4920.40289986853
 21
219.5294950051295
 31
0.0
  0
ARC
  5
1C659
330
1B896
100
AcDbEntity
  8
AM_2
100
AcDbCircle
 10
4910.900216285472
 20
218.2294950051293
 30
0.0
 40
0.5
100
AcDbArc
 50
180.0
 51
270.0
  0
ARC
  5
1C65A
330
1B896
100
AcDbEntity
  8
AM_2
100
AcDbCircle
 10
4910.900216285472
 20
235.2294950051305
 30
0.0
 40
0.5
100
AcDbArc
 50
90.0
 51
180.0
  0
LINE
  5
1C65B
330
1B896
100
AcDbEntity
  8
AM_2
100
AcDbLine
 10
4920.40289986853
 20
219.5294950051295
 30
0.0
 11
4920.184169868529
 21
221.6295350051296
 31
0.0
  0
LINE
  5
1C65C
330
1B896
100
AcDbEntity
  8
AM_2
100
AcDbLine
 10
4920.184169868529
 20
221.6295350051296
 30
0.0
 11
4923.400096285472
 21
221.6295350051296
 31
0.0
  0
LINE
  5
1C65D
330
1B896
100
AcDbEntity
  8
AM_2
100
AcDbLine
 10
4920.184169868529
 20
231.8294550051305
 30
0.0
 11
4923.400096285472
 21
231.8294550051305
 31
0.0
  0
LINE
  5
1C65E
330
1B896
100
AcDbEntity
  8
AM_2
100
AcDbLine
 10
4920.40289986853
 20
233.9294950051294
 30
0.0
 11
4920.184169868529
 21
231.8294550051305
 31
0.0
  0
LINE
  5
1C65F
330
1B896
100
AcDbEntity
  8
AM_2
100
AcDbLine
 10
4929.400096285473
 20
232.2294650051293
 30
0.0
 11
4927.400216285471
 21
231.1794550051295
 31
0.0
  0
LINE
  5
1C660
330
1B896
100
AcDbEntity
  8
AM_2
100
AcDbLine
 10
4927.400216285471
 20
231.8294550051305
 30
0.0
 11
4925.400156285472
 21
231.1794550051295
 31
0.0
  0
LINE
  5
1C661
330
1B896
100
AcDbEntity
  8
AM_2
100
AcDbLine
 10
4925.400156285472
 20
231.8294550051305
 30
0.0
 11
4923.400096285472
 21
231.1794550051295
 31
0.0
  0
LINE
  5
1C662
330
1B896
100
AcDbEntity
  8
AM_2
100
AcDbLine
 10
4923.400096285472
 20
231.8294550051305
 30
0.0
 11
4923.400096285472
 21
231.1794550051295
 31
0.0
  0
LINE
  5
1C663
330
1B896
100
AcDbEntity
  8
AM_2
100
AcDbLine
 10
4925.400156285472
 20
231.8294550051305
 30
0.0
 11
4925.400156285472
 21
231.1794550051295
 31
0.0
  0
LINE
  5
1C664
330
1B896
100
AcDbEntity
  8
AM_2
100
AcDbLine
 10
4927.400216285471
 20
231.8294550051305
 30
0.0
 11
4927.400216285471
 21
231.1794550051295
 31
0.0
  0
LINE
  5
1C665
330
1B896
100
AcDbEntity
  8
AM_2
100
AcDbLine
 10
4922.400116285473
 20
235.7294950051305
 30
0.0
 11
4922.181386285473
 21
233.6294550051295
 31
0.0
  0
LINE
  5
1C666
330
1B896
100
AcDbEntity
  8
AM_2
100
AcDbLine
 10
4922.181386285473
 20
233.6294550051295
 30
0.0
 11
4923.400096285472
 21
233.6294550051295
 31
0.0
  0
LINE
  5
1C667
330
1B896
100
AcDbEntity
  8
AM_2
100
AcDbLine
 10
4927.400216285471
 20
234.2795150051295
 30
0.0
 11
4929.400096285473
 21
233.2294550051294
 31
0.0
  0
LINE
  5
1C668
330
1B896
100
AcDbEntity
  8
AM_2
100
AcDbLine
 10
4923.400096285472
 20
234.2795150051295
 30
0.0
 11
4925.400156285472
 21
233.6294550051295
 31
0.0
  0
LINE
  5
1C669
330
1B896
100
AcDbEntity
  8
AM_2
100
AcDbLine
 10
4925.400156285472
 20
234.2795150051295
 30
0.0
 11
4927.400216285471
 21
233.6294550051295
 31
0.0
  0
LINE
  5
1C66A
330
1B896
100
AcDbEntity
  8
AM_2
100
AcDbLine
 10
4923.400096285472
 20
234.2795150051295
 30
0.0
 11
4923.400096285472
 21
233.6294550051295
 31
0.0
  0
LINE
  5
1C66B
330
1B896
100
AcDbEntity
  8
AM_2
100
AcDbLine
 10
4925.400156285472
 20
234.2795150051295
 30
0.0
 11
4925.400156285472
 21
233.6294550051295
 31
0.0
  0
LINE
  5
1C66C
330
1B896
100
AcDbEntity
  8
AM_2
100
AcDbLine
 10
4927.400216285471
 20
234.2795150051295
 30
0.0
 11
4927.400216285471
 21
233.6294550051295
 31
0.0
  0
LINE
  5
1C66D
330
1B896
100
AcDbEntity
  8
AM_2
100
AcDbLine
 10
4929.400096285473
 20
233.2294550051294
 30
0.0
 11
4929.400096285473
 21
232.2294650051293
 31
0.0
  0
LINE
  5
1C66E
330
1B896
100
AcDbEntity
  8
AM_2
100
AcDbLine
 10
4912.200216285473
 20
233.9294950051294
 30
0.0
 11
4920.40289986853
 21
233.9294950051294
 31
0.0
  0
LINE
  5
1C66F
330
1B896
100
AcDbEntity
  8
AM_2
100
AcDbLine
 10
4910.900216285472
 20
235.7294950051305
 30
0.0
 11
4922.400116285473
 21
235.7294950051305
 31
0.0
  0
LINE
  5
1C670
330
1B896
100
AcDbEntity
  8
AM_2
100
AcDbLine
 10
4927.234123353263
 20
231.8294550051305
 30
0.0
 11
4927.274862206701
 21
231.7887161516935
 31
0.0
  0
LINE
  5
1C671
330
1B896
100
AcDbEntity
  8
AM_2
100
AcDbLine
 10
4926.919814389026
 20
231.8294550051305
 30
0.0
 11
4927.037646148567
 21
231.7116232455885
 31
0.0
  0
LINE
  5
1C672
330
1B896
100
AcDbEntity
  8
AM_2
100
AcDbLine
 10
4926.605505424788
 20
231.8294550051305
 30
0.0
 11
4926.800430090436
 21
231.6345303394825
 31
0.0
  0
LINE
  5
1C673
330
1B896
100
AcDbEntity
  8
AM_2
100
AcDbLine
 10
4926.29119646055
 20
231.8294550051305
 30
0.0
 11
4926.563214032304
 21
231.5574374333775
 31
0.0
  0
LINE
  5
1C674
330
1B896
100
AcDbEntity
  8
AM_2
100
AcDbLine
 10
4925.976887496314
 20
231.8294550051305
 30
0.0
 11
4926.325997974172
 21
231.4803445272714
 31
0.0
  0
LINE
  5
1C675
330
1B896
100
AcDbEntity
  8
AM_2
100
AcDbLine
 10
4925.662578532076
 20
231.8294550051305
 30
0.0
 11
4926.08878191604
 21
231.4032516211655
 31
0.0
  0
LINE
  5
1C676
330
1B896
100
AcDbEntity
  8
AM_2
100
AcDbLine
 10
4925.400156285472
 20
231.7775682874964
 30
0.0
 11
4925.851565857909
 21
231.3261587150605
 31
0.0
  0
LINE
  5
1C677
330
1B896
100
AcDbEntity
  8
AM_2
100
AcDbLine
 10
4925.400156285472
 20
231.4632593232594
 30
0.0
 11
4925.614349799776
 21
231.2490658089545
 31
0.0
  0
LINE
  5
1C678
330
1B896
100
AcDbEntity
  8
AM_2
100
AcDbLine
 10
4928.491359210212
 20
231.8294550051305
 30
0.0
 11
4928.541922023165
 21
231.7788921921774
 31
0.0
  0
LINE
  5
1C679
330
1B896
100
AcDbEntity
  8
AM_2
100
AcDbLine
 10
4928.177050245976
 20
231.8294550051305
 30
0.0
 11
4928.335822717485
 21
231.6706825336205
 31
0.0
  0
LINE
  5
1C67A
330
1B896
100
AcDbEntity
  8
AM_2
100
AcDbLine
 10
4927.862741281739
 20
231.8294550051305
 30
0.0
 11
4928.129723411807
 21
231.5624728750623
 31
0.0
  0
LINE
  5
1C67B
330
1B896
100
AcDbEntity
  8
AM_2
100
AcDbLine
 10
4927.5484323175
 20
231.8294550051305
 30
0.0
 11
4927.923624106127
 21
231.4542632165043
 31
0.0
  0
LINE
  5
1C67C
330
1B896
100
AcDbEntity
  8
AM_2
100
AcDbLine
 10
4927.400216285471
 20
231.6633620729205
 30
0.0
 11
4927.717524800447
 21
231.3460535579465
 31
0.0
  0
LINE
  5
1C67D
330
1B896
100
AcDbEntity
  8
AM_2
100
AcDbLine
 10
4927.400216285471
 20
231.3490531086833
 30
0.0
 11
4927.511425494767
 21
231.2378438993885
 31
0.0
  0
LINE
  5
1C67E
330
1B896
100
AcDbEntity
  8
AM_2
100
AcDbLine
 10
4925.348269567838
 20
231.8294550051305
 30
0.0
 11
4925.36099621043
 21
231.8167283625405
 31
0.0
  0
LINE
  5
1C67F
330
1B896
100
AcDbEntity
  8
AM_2
100
AcDbLine
 10
4925.033960603601
 20
231.8294550051305
 30
0.0
 11
4925.123780152297
 21
231.7396354564343
 31
0.0
  0
LINE
  5
1C680
330
1B896
100
AcDbEntity
  8
AM_2
100
AcDbLine
 10
4924.719651639364
 20
231.8294550051305
 30
0.0
 11
4924.886564094165
 21
231.6625425503284
 31
0.0
  0
LINE
  5
1C681
330
1B896
100
AcDbEntity
  8
AM_2
100
AcDbLine
 10
4924.405342675127
 20
231.8294550051305
 30
0.0
 11
4924.649348036032
 21
231.5854496442224
 31
0.0
  0
LINE
  5
1C682
330
1B896
100
AcDbEntity
  8
AM_2
100
AcDbLine
 10
4924.091033710889
 20
231.8294550051305
 30
0.0
 11
4924.412131977902
 21
231.5083567381175
 31
0.0
  0
LINE
  5
1C683
330
1B896
100
AcDbEntity
  8
AM_2
100
AcDbLine
 10
4923.776724746652
 20
231.8294550051305
 30
0.0
 11
4924.17491591977
 21
231.4312638320113
 31
0.0
  0
LINE
  5
1C684
330
1B896
100
AcDbEntity
  8
AM_2
100
AcDbLine
 10
4923.462415782415
 20
231.8294550051305
 30
0.0
 11
4923.937699861639
 21
231.3541709259054
 31
0.0
  0
LINE
  5
1C685
330
1B896
100
AcDbEntity
  8
AM_2
100
AcDbLine
 10
4923.400096285472
 20
231.5774655378344
 30
0.0
 11
4923.700483803506
 21
231.2770780198004
 31
0.0
  0
LINE
  5
1C686
330
1B896
100
AcDbEntity
  8
AM_2
100
AcDbLine
 10
4923.400096285472
 20
231.2631565735973
 30
0.0
 11
4923.463267745376
 21
231.1999851136945
 31
0.0
  0
LINE
  5
1C687
330
1B896
100
AcDbEntity
  8
AM_2
100
AcDbLine
 10
4923.400096285472
 20
222.1958334366624
 30
0.0
 11
4923.463267745376
 21
222.2590048965655
 31
0.0
  0
LINE
  5
1C688
330
1B896
100
AcDbEntity
  8
AM_2
100
AcDbLine
 10
4923.400096285472
 20
221.8815244724255
 30
0.0
 11
4923.700483803506
 21
222.1819119904594
 31
0.0
  0
LINE
  5
1C689
330
1B896
100
AcDbEntity
  8
AM_2
100
AcDbLine
 10
4923.462415782415
 20
221.6295350051296
 30
0.0
 11
4923.937699861639
 21
222.1048190843534
 31
0.0
  0
LINE
  5
1C68A
330
1B896
100
AcDbEntity
  8
AM_2
100
AcDbLine
 10
4923.776724746652
 20
221.6295350051296
 30
0.0
 11
4924.17491591977
 21
222.0277261782484
 31
0.0
  0
LINE
  5
1C68B
330
1B896
100
AcDbEntity
  8
AM_2
100
AcDbLine
 10
4924.091033710889
 20
221.6295350051296
 30
0.0
 11
4924.412131977902
 21
221.9506332721425
 31
0.0
  0
LINE
  5
1C68C
330
1B896
100
AcDbEntity
  8
AM_2
100
AcDbLine
 10
4924.405342675127
 20
221.6295350051296
 30
0.0
 11
4924.649348036032
 21
221.8735403660364
 31
0.0
  0
LINE
  5
1C68D
330
1B896
100
AcDbEntity
  8
AM_2
100
AcDbLine
 10
4924.719651639364
 20
221.6295350051296
 30
0.0
 11
4924.886564094165
 21
221.7964474599305
 31
0.0
  0
LINE
  5
1C68E
330
1B896
100
AcDbEntity
  8
AM_2
100
AcDbLine
 10
4925.033960603601
 20
221.6295350051296
 30
0.0
 11
4925.123780152297
 21
221.7193545538254
 31
0.0
  0
LINE
  5
1C68F
330
1B896
100
AcDbEntity
  8
AM_2
100
AcDbLine
 10
4925.348269567839
 20
221.6295350051296
 30
0.0
 11
4925.36099621043
 21
221.6422616477195
 31
0.0
  0
LINE
  5
1C690
330
1B896
100
AcDbEntity
  8
AM_2
100
AcDbLine
 10
4927.400216285473
 20
222.1099369015764
 30
0.0
 11
4927.511425494767
 21
222.2211461108715
 31
0.0
  0
LINE
  5
1C691
330
1B896
100
AcDbEntity
  8
AM_2
100
AcDbLine
 10
4927.400216285473
 20
221.7956279373395
 30
0.0
 11
4927.717524800447
 21
222.1129364523135
 31
0.0
  0
LINE
  5
1C692
330
1B896
100
AcDbEntity
  8
AM_2
100
AcDbLine
 10
4927.5484323175
 20
221.6295350051296
 30
0.0
 11
4927.923624106127
 21
222.0047267937554
 31
0.0
  0
LINE
  5
1C693
330
1B896
100
AcDbEntity
  8
AM_2
100
AcDbLine
 10
4927.862741281739
 20
221.6295350051296
 30
0.0
 11
4928.129723411807
 21
221.8965171351974
 31
0.0
  0
LINE
  5
1C694
330
1B896
100
AcDbEntity
  8
AM_2
100
AcDbLine
 10
4928.177050245976
 20
221.6295350051296
 30
0.0
 11
4928.335822717485
 21
221.7883074766394
 31
0.0
  0
LINE
  5
1C695
330
1B896
100
AcDbEntity
  8
AM_2
100
AcDbLine
 10
4928.491359210212
 20
221.6295350051296
 30
0.0
 11
4928.541922023165
 21
221.6800978180816
 31
0.0
  0
LINE
  5
1C696
330
1B896
100
AcDbEntity
  8
AM_2
100
AcDbLine
 10
4925.400156285472
 20
221.9957306870005
 30
0.0
 11
4925.614349799777
 21
222.2099242013054
 31
0.0
  0
LINE
  5
1C697
330
1B896
100
AcDbEntity
  8
AM_2
100
AcDbLine
 10
4925.400156285472
 20
221.6814217227633
 30
0.0
 11
4925.851565857909
 21
222.1328312951993
 31
0.0
  0
LINE
  5
1C698
330
1B896
100
AcDbEntity
  8
AM_2
100
AcDbLine
 10
4925.662578532076
 20
221.6295350051296
 30
0.0
 11
4926.088781916041
 21
222.0557383890946
 31
0.0
  0
LINE
  5
1C699
330
1B896
100
AcDbEntity
  8
AM_2
100
AcDbLine
 10
4925.976887496314
 20
221.6295350051296
 30
0.0
 11
4926.325997974172
 21
221.9786454829884
 31
0.0
  0
LINE
  5
1C69A
330
1B896
100
AcDbEntity
  8
AM_2
100
AcDbLine
 10
4926.29119646055
 20
221.6295350051296
 30
0.0
 11
4926.563214032304
 21
221.9015525768825
 31
0.0
  0
LINE
  5
1C69B
330
1B896
100
AcDbEntity
  8
AM_2
100
AcDbLine
 10
4926.605505424788
 20
221.6295350051296
 30
0.0
 11
4926.800430090436
 21
221.8244596707763
 31
0.0
  0
LINE
  5
1C69C
330
1B896
100
AcDbEntity
  8
AM_2
100
AcDbLine
 10
4926.919814389026
 20
221.6295350051296
 30
0.0
 11
4927.037646148567
 21
221.7473667646713
 31
0.0
  0
LINE
  5
1C69D
330
1B896
100
AcDbEntity
  8
AM_2
100
AcDbLine
 10
4927.234123353263
 20
221.6295350051296
 30
0.0
 11
4927.274862206701
 21
221.6702738585654
 31
0.0
  0
LINE
  5
1C69E
330
1B896
100
AcDbEntity
  8
AM_2
100
AcDbLine
 10
4923.400096285472
 20
221.6295350051296
 30
0.0
 11
4928.638225447291
 21
221.6295350051296
 31
0.0
  0
LINE
  5
1C69F
330
1B896
100
AcDbEntity
  8
AM_2
100
AcDbLine
 10
4923.400096285472
 20
231.8294550051305
 30
0.0
 11
4928.638225447291
 21
231.8294550051305
 31
0.0
  0
LINE
  5
1C6A0
330
1B896
100
AcDbEntity
  8
AM_0
100
AcDbLine
 10
4661.900197668573
 20
234.7294940051304
 30
0.0
 11
4661.900197668573
 21
247.2294950051293
 31
0.0
  0
LINE
  5
1C6A1
330
1B896
100
AcDbEntity
  8
AM_0
100
AcDbLine
 10
4661.900197668573
 20
176.2294950051293
 30
0.0
 11
4661.900197668573
 21
218.7294960051294
 31
0.0
  0
LINE
  5
1C6A2
330
1B896
100
AcDbEntity
  8
AM_0
100
AcDbLine
 10
4661.900197668573
 20
218.7294960051294
 30
0.0
 11
4653.900197668573
 21
218.7294960051294
 31
0.0
  0
LINE
  5
1C6A3
330
1B896
100
AcDbEntity
  8
AM_0
100
AcDbLine
 10
4661.900197668573
 20
234.7294940051304
 30
0.0
 11
4653.900197668573
 21
234.7294940051304
 31
0.0
  0
LINE
  5
1C6A4
330
1B896
100
AcDbEntity
  8
AM_0
100
AcDbLine
 10
4661.900197668573
 20
231.3294950051294
 30
0.0
 11
4653.900197668573
 21
231.3294950051294
 31
0.0
  0
LINE
  5
1C6A5
330
1B896
100
AcDbEntity
  8
AM_0
100
AcDbLine
 10
4661.900197668573
 20
222.1294950051294
 30
0.0
 11
4653.900197668573
 21
222.1294950051294
 31
0.0
  0
LINE
  5
1C6A6
330
1B896
100
AcDbEntity
  8
AM_0
100
AcDbLine
 10
4653.900197668573
 20
222.1294950051294
 30
0.0
 11
4653.900197668573
 21
218.7294960051294
 31
0.0
  0
LINE
  5
1C6A7
330
1B896
100
AcDbEntity
  8
AM_0
100
AcDbLine
 10
4653.900197668573
 20
234.7294940051304
 30
0.0
 11
4653.900197668573
 21
231.3294950051294
 31
0.0
  0
LINE
  5
1C6A8
330
1B896
100
AcDbEntity
  8
AM_0
100
AcDbLine
 10
4661.900197668573
 20
222.1294950051294
 30
0.0
 11
4661.900197668573
 21
231.3294950051294
 31
0.0
  0
LINE
  5
1C6A9
330
1B896
100
AcDbEntity
  8
AM_2
100
AcDbLine
 10
4673.900197668573
 20
218.2294950051293
 30
0.0
 11
4673.900197668573
 21
235.2294950051305
 31
0.0
  0
LINE
  5
1C6AA
330
1B896
100
AcDbEntity
  8
AM_2
100
AcDbLine
 10
4673.400197668573
 20
217.7294950051293
 30
0.0
 11
4661.900297668571
 21
217.7294950051293
 31
0.0
  0
LINE
  5
1C6AB
330
1B896
100
AcDbEntity
  8
AM_2
100
AcDbLine
 10
4654.900317668572
 20
220.2295350051294
 30
0.0
 11
4654.900317668572
 21
221.2295250051304
 31
0.0
  0
LINE
  5
1C6AC
330
1B896
100
AcDbEntity
  8
AM_2
100
AcDbLine
 10
4656.900197668573
 20
219.1794750051294
 30
0.0
 11
4656.900197668573
 21
219.8295350051294
 31
0.0
  0
LINE
  5
1C6AD
330
1B896
100
AcDbEntity
  8
AM_2
100
AcDbLine
 10
4658.900257668572
 20
219.1794750051294
 30
0.0
 11
4658.900257668572
 21
219.8295350051294
 31
0.0
  0
LINE
  5
1C6AE
330
1B896
100
AcDbEntity
  8
AM_2
100
AcDbLine
 10
4660.900317668572
 20
219.1794750051294
 30
0.0
 11
4660.900317668572
 21
219.8295350051294
 31
0.0
  0
LINE
  5
1C6AF
330
1B896
100
AcDbEntity
  8
AM_2
100
AcDbLine
 10
4658.900257668572
 20
219.1794750051294
 30
0.0
 11
4656.900197668573
 21
219.8295350051294
 31
0.0
  0
LINE
  5
1C6B0
330
1B896
100
AcDbEntity
  8
AM_2
100
AcDbLine
 10
4660.900317668572
 20
219.1794750051294
 30
0.0
 11
4658.900257668572
 21
219.8295350051294
 31
0.0
  0
LINE
  5
1C6B1
330
1B896
100
AcDbEntity
  8
AM_2
100
AcDbLine
 10
4656.900197668573
 20
219.1794750051294
 30
0.0
 11
4654.900317668572
 21
220.2295350051294
 31
0.0
  0
LINE
  5
1C6B2
330
1B896
100
AcDbEntity
  8
AM_2
100
AcDbLine
 10
4662.119027668572
 20
219.8295350051294
 30
0.0
 11
4660.900317668572
 21
219.8295350051294
 31
0.0
  0
LINE
  5
1C6B3
330
1B896
100
AcDbEntity
  8
AM_2
100
AcDbLine
 10
4661.900297668571
 20
217.7294950051293
 30
0.0
 11
4662.119027668572
 21
219.8295350051294
 31
0.0
  0
LINE
  5
1C6B4
330
1B896
100
AcDbEntity
  8
AM_2
100
AcDbLine
 10
4656.900197668573
 20
221.6295350051296
 30
0.0
 11
4656.900197668573
 21
222.2795350051305
 31
0.0
  0
LINE
  5
1C6B5
330
1B896
100
AcDbEntity
  8
AM_2
100
AcDbLine
 10
4658.900257668572
 20
221.6295350051296
 30
0.0
 11
4658.900257668572
 21
222.2795350051305
 31
0.0
  0
LINE
  5
1C6B6
330
1B896
100
AcDbEntity
  8
AM_2
100
AcDbLine
 10
4660.900317668572
 20
221.6295350051296
 30
0.0
 11
4660.900317668572
 21
222.2795350051305
 31
0.0
  0
LINE
  5
1C6B7
330
1B896
100
AcDbEntity
  8
AM_2
100
AcDbLine
 10
4658.900257668572
 20
221.6295350051296
 30
0.0
 11
4660.900317668572
 21
222.2795350051305
 31
0.0
  0
LINE
  5
1C6B8
330
1B896
100
AcDbEntity
  8
AM_2
100
AcDbLine
 10
4656.900197668573
 20
221.6295350051296
 30
0.0
 11
4658.900257668572
 21
222.2795350051305
 31
0.0
  0
LINE
  5
1C6B9
330
1B896
100
AcDbEntity
  8
AM_2
100
AcDbLine
 10
4654.900317668572
 20
221.2295250051304
 30
0.0
 11
4656.900197668573
 21
222.2795350051305
 31
0.0
  0
LINE
  5
1C6BA
330
1B896
100
AcDbEntity
  8
AM_2
100
AcDbLine
 10
4672.100197668572
 20
219.5294950051295
 30
0.0
 11
4672.100197668572
 21
233.9294950051294
 31
0.0
  0
LINE
  5
1C6BB
330
1B896
100
AcDbEntity
  8
AM_2
100
AcDbLine
 10
4672.100197668572
 20
219.5294950051295
 30
0.0
 11
4663.897514085515
 21
219.5294950051295
 31
0.0
  0
ARC
  5
1C6BC
330
1B896
100
AcDbEntity
  8
AM_2
100
AcDbCircle
 10
4673.400197668573
 20
218.2294950051293
 30
0.0
 40
0.5
100
AcDbArc
 50
270.0
 51
0.0
  0
ARC
  5
1C6BD
330
1B896
100
AcDbEntity
  8
AM_2
100
AcDbCircle
 10
4673.400197668573
 20
235.2294950051305
 30
0.0
 40
0.5
100
AcDbArc
 50
0.0
 51
90.0
  0
LINE
  5
1C6BE
330
1B896
100
AcDbEntity
  8
AM_2
100
AcDbLine
 10
4663.897514085515
 20
219.5294950051295
 30
0.0
 11
4664.116244085515
 21
221.6295350051296
 31
0.0
  0
LINE
  5
1C6BF
330
1B896
100
AcDbEntity
  8
AM_2
100
AcDbLine
 10
4664.116244085515
 20
221.6295350051296
 30
0.0
 11
4660.900317668572
 21
221.6295350051296
 31
0.0
  0
LINE
  5
1C6C0
330
1B896
100
AcDbEntity
  8
AM_2
100
AcDbLine
 10
4664.116244085515
 20
231.8294550051305
 30
0.0
 11
4660.900317668572
 21
231.8294550051305
 31
0.0
  0
LINE
  5
1C6C1
330
1B896
100
AcDbEntity
  8
AM_2
100
AcDbLine
 10
4663.897514085515
 20
233.9294950051294
 30
0.0
 11
4664.116244085515
 21
231.8294550051305
 31
0.0
  0
LINE
  5
1C6C2
330
1B896
100
AcDbEntity
  8
AM_2
100
AcDbLine
 10
4654.900317668572
 20
232.2294650051293
 30
0.0
 11
4656.900197668573
 21
231.1794550051295
 31
0.0
  0
LINE
  5
1C6C3
330
1B896
100
AcDbEntity
  8
AM_2
100
AcDbLine
 10
4656.900197668573
 20
231.8294550051305
 30
0.0
 11
4658.900257668572
 21
231.1794550051295
 31
0.0
  0
LINE
  5
1C6C4
330
1B896
100
AcDbEntity
  8
AM_2
100
AcDbLine
 10
4658.900257668572
 20
231.8294550051305
 30
0.0
 11
4660.900317668572
 21
231.1794550051295
 31
0.0
  0
LINE
  5
1C6C5
330
1B896
100
AcDbEntity
  8
AM_2
100
AcDbLine
 10
4660.900317668572
 20
231.8294550051305
 30
0.0
 11
4660.900317668572
 21
231.1794550051295
 31
0.0
  0
LINE
  5
1C6C6
330
1B896
100
AcDbEntity
  8
AM_2
100
AcDbLine
 10
4658.900257668572
 20
231.8294550051305
 30
0.0
 11
4658.900257668572
 21
231.1794550051295
 31
0.0
  0
LINE
  5
1C6C7
330
1B896
100
AcDbEntity
  8
AM_2
100
AcDbLine
 10
4656.900197668573
 20
231.8294550051305
 30
0.0
 11
4656.900197668573
 21
231.1794550051295
 31
0.0
  0
LINE
  5
1C6C8
330
1B896
100
AcDbEntity
  8
AM_2
100
AcDbLine
 10
4661.900297668571
 20
235.7294950051305
 30
0.0
 11
4662.119027668572
 21
233.6294550051295
 31
0.0
  0
LINE
  5
1C6C9
330
1B896
100
AcDbEntity
  8
AM_2
100
AcDbLine
 10
4662.119027668572
 20
233.6294550051295
 30
0.0
 11
4660.900317668572
 21
233.6294550051295
 31
0.0
  0
LINE
  5
1C6CA
330
1B896
100
AcDbEntity
  8
AM_2
100
AcDbLine
 10
4656.900197668573
 20
234.2795150051295
 30
0.0
 11
4654.900317668572
 21
233.2294550051294
 31
0.0
  0
LINE
  5
1C6CB
330
1B896
100
AcDbEntity
  8
AM_2
100
AcDbLine
 10
4660.900317668572
 20
234.2795150051295
 30
0.0
 11
4658.900257668572
 21
233.6294550051295
 31
0.0
  0
LINE
  5
1C6CC
330
1B896
100
AcDbEntity
  8
AM_2
100
AcDbLine
 10
4658.900257668572
 20
234.2795150051295
 30
0.0
 11
4656.900197668573
 21
233.6294550051295
 31
0.0
  0
LINE
  5
1C6CD
330
1B896
100
AcDbEntity
  8
AM_2
100
AcDbLine
 10
4660.900317668572
 20
234.2795150051295
 30
0.0
 11
4660.900317668572
 21
233.6294550051295
 31
0.0
  0
LINE
  5
1C6CE
330
1B896
100
AcDbEntity
  8
AM_2
100
AcDbLine
 10
4658.900257668572
 20
234.2795150051295
 30
0.0
 11
4658.900257668572
 21
233.6294550051295
 31
0.0
  0
LINE
  5
1C6CF
330
1B896
100
AcDbEntity
  8
AM_2
100
AcDbLine
 10
4656.900197668573
 20
234.2795150051295
 30
0.0
 11
4656.900197668573
 21
233.6294550051295
 31
0.0
  0
LINE
  5
1C6D0
330
1B896
100
AcDbEntity
  8
AM_2
100
AcDbLine
 10
4654.900317668572
 20
233.2294550051294
 30
0.0
 11
4654.900317668572
 21
232.2294650051293
 31
0.0
  0
LINE
  5
1C6D1
330
1B896
100
AcDbEntity
  8
AM_2
100
AcDbLine
 10
4672.100197668572
 20
233.9294950051294
 30
0.0
 11
4663.897514085515
 21
233.9294950051294
 31
0.0
  0
LINE
  5
1C6D2
330
1B896
100
AcDbEntity
  8
AM_2
100
AcDbLine
 10
4673.400197668573
 20
235.7294950051305
 30
0.0
 11
4661.900297668571
 21
235.7294950051305
 31
0.0
  0
LINE
  5
1C6D3
330
1B896
100
AcDbEntity
  8
AM_2
100
AcDbLine
 10
4670.900197668573
 20
217.7294950051293
 30
0.0
 11
4670.900197668573
 21
216.2309295431425
 31
0.0
  0
ARC
  5
1C6D4
330
1B896
100
AcDbEntity
  8
AM_2
100
AcDbCircle
 10
4667.437876305428
 20
219.4722841621155
 30
0.0
 40
4.7427891569855
100
AcDbArc
 50
229.8242923709621
 51
316.8879014584256
  0
LINE
  5
1C6D5
330
1B896
100
AcDbEntity
  8
AM_2
100
AcDbLine
 10
4669.900197668573
 20
217.2294950051293
 30
0.0
 11
4669.900197668573
 21
216.6535177878504
 31
0.0
  0
LINE
  5
1C6D6
330
1B896
100
AcDbEntity
  8
AM_2
100
AcDbLine
 10
4668.900197668572
 20
217.7294950051293
 30
0.0
 11
4668.900197668572
 21
217.2294950051293
 31
0.0
  0
LINE
  5
1C6D7
330
1B896
100
AcDbEntity
  8
AM_2
100
AcDbLine
 10
4668.900197668572
 20
217.2294950051293
 30
0.0
 11
4669.900197668573
 21
217.2294950051293
 31
0.0
  0
ARC
  5
1C6D8
330
1B896
100
AcDbEntity
  8
AM_2
100
AcDbCircle
 10
4664.700197668572
 20
216.2309295431425
 30
0.0
 40
0.5
100
AcDbArc
 50
49.77485877874039
 51
229.9010319405259
  0
ARC
  5
1C6D9
330
1B896
100
AcDbEntity
  8
AM_2
100
AcDbCircle
 10
4667.437875771771
 20
219.4722853002115
 30
0.0
 40
3.74279032437102
100
AcDbArc
 50
229.8206620448056
 51
311.1386941224274
  0
LINE
  5
1C6DA
330
1B896
100
AcDbEntity
  8
AM_2
100
AcDbLine
 10
4657.066290600782
 20
231.8294550051305
 30
0.0
 11
4657.025551747345
 21
231.7887161516935
 31
0.0
  0
LINE
  5
1C6DB
330
1B896
100
AcDbEntity
  8
AM_2
100
AcDbLine
 10
4657.380599565017
 20
231.8294550051305
 30
0.0
 11
4657.262767805478
 21
231.7116232455885
 31
0.0
  0
LINE
  5
1C6DC
330
1B896
100
AcDbEntity
  8
AM_2
100
AcDbLine
 10
4657.694908529256
 20
231.8294550051305
 30
0.0
 11
4657.499983863608
 21
231.6345303394825
 31
0.0
  0
LINE
  5
1C6DD
330
1B896
100
AcDbEntity
  8
AM_2
100
AcDbLine
 10
4658.009217493493
 20
231.8294550051305
 30
0.0
 11
4657.73719992174
 21
231.5574374333775
 31
0.0
  0
LINE
  5
1C6DE
330
1B896
100
AcDbEntity
  8
AM_2
100
AcDbLine
 10
4658.32352645773
 20
231.8294550051305
 30
0.0
 11
4657.974415979872
 21
231.4803445272714
 31
0.0
  0
LINE
  5
1C6DF
330
1B896
100
AcDbEntity
  8
AM_2
100
AcDbLine
 10
4658.637835421969
 20
231.8294550051305
 30
0.0
 11
4658.211632038004
 21
231.4032516211655
 31
0.0
  0
LINE
  5
1C6E0
330
1B896
100
AcDbEntity
  8
AM_2
100
AcDbLine
 10
4658.900257668572
 20
231.7775682874964
 30
0.0
 11
4658.448848096135
 21
231.3261587150605
 31
0.0
  0
LINE
  5
1C6E1
330
1B896
100
AcDbEntity
  8
AM_2
100
AcDbLine
 10
4658.900257668572
 20
231.4632593232594
 30
0.0
 11
4658.686064154268
 21
231.2490658089545
 31
0.0
  0
LINE
  5
1C6E2
330
1B896
100
AcDbEntity
  8
AM_2
100
AcDbLine
 10
4655.809054743832
 20
231.8294550051305
 30
0.0
 11
4655.75849193088
 21
231.7788921921774
 31
0.0
  0
LINE
  5
1C6E3
330
1B896
100
AcDbEntity
  8
AM_2
100
AcDbLine
 10
4656.123363708069
 20
231.8294550051305
 30
0.0
 11
4655.96459123656
 21
231.6706825336205
 31
0.0
  0
LINE
  5
1C6E4
330
1B896
100
AcDbEntity
  8
AM_2
100
AcDbLine
 10
4656.437672672306
 20
231.8294550051305
 30
0.0
 11
4656.170690542238
 21
231.5624728750623
 31
0.0
  0
LINE
  5
1C6E5
330
1B896
100
AcDbEntity
  8
AM_2
100
AcDbLine
 10
4656.751981636544
 20
231.8294550051305
 30
0.0
 11
4656.376789847917
 21
231.4542632165043
 31
0.0
  0
LINE
  5
1C6E6
330
1B896
100
AcDbEntity
  8
AM_2
100
AcDbLine
 10
4656.900197668573
 20
231.6633620729205
 30
0.0
 11
4656.582889153598
 21
231.3460535579465
 31
0.0
  0
LINE
  5
1C6E7
330
1B896
100
AcDbEntity
  8
AM_2
100
AcDbLine
 10
4656.900197668573
 20
231.3490531086833
 30
0.0
 11
4656.788988459278
 21
231.2378438993885
 31
0.0
  0
LINE
  5
1C6E8
330
1B896
100
AcDbEntity
  8
AM_2
100
AcDbLine
 10
4658.952144386206
 20
231.8294550051305
 30
0.0
 11
4658.939417743616
 21
231.8167283625405
 31
0.0
  0
LINE
  5
1C6E9
330
1B896
100
AcDbEntity
  8
AM_2
100
AcDbLine
 10
4659.266453350443
 20
231.8294550051305
 30
0.0
 11
4659.176633801748
 21
231.7396354564343
 31
0.0
  0
LINE
  5
1C6EA
330
1B896
100
AcDbEntity
  8
AM_2
100
AcDbLine
 10
4659.580762314681
 20
231.8294550051305
 30
0.0
 11
4659.41384985988
 21
231.6625425503284
 31
0.0
  0
LINE
  5
1C6EB
330
1B896
100
AcDbEntity
  8
AM_2
100
AcDbLine
 10
4659.895071278918
 20
231.8294550051305
 30
0.0
 11
4659.651065918011
 21
231.5854496442224
 31
0.0
  0
LINE
  5
1C6EC
330
1B896
100
AcDbEntity
  8
AM_2
100
AcDbLine
 10
4660.209380243155
 20
231.8294550051305
 30
0.0
 11
4659.888281976143
 21
231.5083567381175
 31
0.0
  0
LINE
  5
1C6ED
330
1B896
100
AcDbEntity
  8
AM_2
100
AcDbLine
 10
4660.523689207393
 20
231.8294550051305
 30
0.0
 11
4660.125498034275
 21
231.4312638320113
 31
0.0
  0
LINE
  5
1C6EE
330
1B896
100
AcDbEntity
  8
AM_2
100
AcDbLine
 10
4660.837998171631
 20
231.8294550051305
 30
0.0
 11
4660.362714092406
 21
231.3541709259054
 31
0.0
  0
LINE
  5
1C6EF
330
1B896
100
AcDbEntity
  8
AM_2
100
AcDbLine
 10
4660.900317668572
 20
231.5774655378344
 30
0.0
 11
4660.599930150538
 21
231.2770780198004
 31
0.0
  0
LINE
  5
1C6F0
330
1B896
100
AcDbEntity
  8
AM_2
100
AcDbLine
 10
4660.900317668573
 20
231.2631565735973
 30
0.0
 11
4660.837146208669
 21
231.1999851136945
 31
0.0
  0
LINE
  5
1C6F1
330
1B896
100
AcDbEntity
  8
AM_2
100
AcDbLine
 10
4670.900197668573
 20
217.3146994256724
 30
0.0
 11
4670.485402089115
 21
217.7294950051293
 31
0.0
  0
LINE
  5
1C6F2
330
1B896
100
AcDbEntity
  8
AM_2
100
AcDbLine
 10
4670.900197668573
 20
216.4166738135654
 30
0.0
 11
4669.587376477007
 21
217.7294950051293
 31
0.0
  0
LINE
  5
1C6F3
330
1B896
100
AcDbEntity
  8
AM_2
100
AcDbLine
 10
4669.1893508649
 20
217.2294950051293
 30
0.0
 11
4668.900197668572
 21
217.5186482014585
 31
0.0
  0
LINE
  5
1C6F4
330
1B896
100
AcDbEntity
  8
AM_2
100
AcDbLine
 10
4670.536868014471
 20
215.8819778555594
 30
0.0
 11
4669.827344742553
 21
216.5915011274774
 31
0.0
  0
LINE
  5
1C6F5
330
1B896
100
AcDbEntity
  8
AM_2
100
AcDbLine
 10
4670.024129537011
 20
215.4966907209125
 30
0.0
 11
4669.296961956843
 21
216.2238583010805
 31
0.0
  0
LINE
  5
1C6F6
330
1B896
100
AcDbEntity
  8
AM_2
100
AcDbLine
 10
4669.446813557732
 20
215.1759810880844
 30
0.0
 11
4668.680869833522
 21
215.9419248122935
 31
0.0
  0
LINE
  5
1C6F7
330
1B896
100
AcDbEntity
  8
AM_2
100
AcDbLine
 10
4668.796509924102
 20
214.9282591096064
 30
0.0
 11
4667.958839871181
 21
215.7659291625295
 31
0.0
  0
LINE
  5
1C6F8
330
1B896
100
AcDbEntity
  8
AM_2
100
AcDbLine
 10
4668.056703593349
 20
214.7700398282525
 30
0.0
 11
4667.080110169864
 21
215.7466332517385
 31
0.0
  0
LINE
  5
1C6F9
330
1B896
100
AcDbEntity
  8
AM_2
100
AcDbLine
 10
4667.192891326681
 20
214.7358264828145
 30
0.0
 11
4665.841886201961
 21
216.0868316075355
 31
0.0
  0
LINE
  5
1C6FA
330
1B896
100
AcDbEntity
  8
AM_2
100
AcDbLine
 10
4666.112139601846
 20
214.9185525955433
 30
0.0
 11
4664.399949157917
 21
216.6307430394715
 31
0.0
  0
LINE
  5
1C6FB
330
1B896
100
AcDbEntity
  8
AM_2
100
AcDbLine
 10
4660.900317668572
 20
222.1958334366624
 30
0.0
 11
4660.837146208669
 21
222.2590048965655
 31
0.0
  0
LINE
  5
1C6FC
330
1B896
100
AcDbEntity
  8
AM_2
100
AcDbLine
 10
4660.900317668572
 20
221.8815244724255
 30
0.0
 11
4660.599930150538
 21
222.1819119904594
 31
0.0
  0
LINE
  5
1C6FD
330
1B896
100
AcDbEntity
  8
AM_2
100
AcDbLine
 10
4660.837998171629
 20
221.6295350051296
 30
0.0
 11
4660.362714092406
 21
222.1048190843534
 31
0.0
  0
LINE
  5
1C6FE
330
1B896
100
AcDbEntity
  8
AM_2
100
AcDbLine
 10
4660.523689207392
 20
221.6295350051296
 30
0.0
 11
4660.125498034275
 21
222.0277261782484
 31
0.0
  0
LINE
  5
1C6FF
330
1B896
100
AcDbEntity
  8
AM_2
100
AcDbLine
 10
4660.209380243155
 20
221.6295350051296
 30
0.0
 11
4659.888281976143
 21
221.9506332721425
 31
0.0
  0
LINE
  5
1C700
330
1B896
100
AcDbEntity
  8
AM_2
100
AcDbLine
 10
4659.895071278918
 20
221.6295350051296
 30
0.0
 11
4659.651065918011
 21
221.8735403660364
 31
0.0
  0
LINE
  5
1C701
330
1B896
100
AcDbEntity
  8
AM_2
100
AcDbLine
 10
4659.580762314681
 20
221.6295350051296
 30
0.0
 11
4659.41384985988
 21
221.7964474599305
 31
0.0
  0
LINE
  5
1C702
330
1B896
100
AcDbEntity
  8
AM_2
100
AcDbLine
 10
4659.266453350443
 20
221.6295350051296
 30
0.0
 11
4659.176633801748
 21
221.7193545538254
 31
0.0
  0
LINE
  5
1C703
330
1B896
100
AcDbEntity
  8
AM_2
100
AcDbLine
 10
4658.952144386206
 20
221.6295350051296
 30
0.0
 11
4658.939417743616
 21
221.6422616477195
 31
0.0
  0
LINE
  5
1C704
330
1B896
100
AcDbEntity
  8
AM_2
100
AcDbLine
 10
4656.900197668573
 20
222.1099369015764
 30
0.0
 11
4656.788988459276
 21
222.2211461108715
 31
0.0
  0
LINE
  5
1C705
330
1B896
100
AcDbEntity
  8
AM_2
100
AcDbLine
 10
4656.900197668573
 20
221.7956279373395
 30
0.0
 11
4656.582889153598
 21
222.1129364523135
 31
0.0
  0
LINE
  5
1C706
330
1B896
100
AcDbEntity
  8
AM_2
100
AcDbLine
 10
4656.751981636544
 20
221.6295350051296
 30
0.0
 11
4656.376789847917
 21
222.0047267937554
 31
0.0
  0
LINE
  5
1C707
330
1B896
100
AcDbEntity
  8
AM_2
100
AcDbLine
 10
4656.437672672306
 20
221.6295350051296
 30
0.0
 11
4656.170690542238
 21
221.8965171351974
 31
0.0
  0
LINE
  5
1C708
330
1B896
100
AcDbEntity
  8
AM_2
100
AcDbLine
 10
4656.123363708069
 20
221.6295350051296
 30
0.0
 11
4655.96459123656
 21
221.7883074766394
 31
0.0
  0
LINE
  5
1C709
330
1B896
100
AcDbEntity
  8
AM_2
100
AcDbLine
 10
4655.809054743832
 20
221.6295350051296
 30
0.0
 11
4655.75849193088
 21
221.6800978180816
 31
0.0
  0
LINE
  5
1C70A
330
1B896
100
AcDbEntity
  8
AM_2
100
AcDbLine
 10
4658.900257668572
 20
221.9957306870005
 30
0.0
 11
4658.686064154268
 21
222.2099242013054
 31
0.0
  0
LINE
  5
1C70B
330
1B896
100
AcDbEntity
  8
AM_2
100
AcDbLine
 10
4658.900257668572
 20
221.6814217227633
 30
0.0
 11
4658.448848096135
 21
222.1328312951993
 31
0.0
  0
LINE
  5
1C70C
330
1B896
100
AcDbEntity
  8
AM_2
100
AcDbLine
 10
4658.637835421969
 20
221.6295350051296
 30
0.0
 11
4658.211632038003
 21
222.0557383890946
 31
0.0
  0
LINE
  5
1C70D
330
1B896
100
AcDbEntity
  8
AM_2
100
AcDbLine
 10
4658.32352645773
 20
221.6295350051296
 30
0.0
 11
4657.974415979872
 21
221.9786454829884
 31
0.0
  0
LINE
  5
1C70E
330
1B896
100
AcDbEntity
  8
AM_2
100
AcDbLine
 10
4658.009217493493
 20
221.6295350051296
 30
0.0
 11
4657.73719992174
 21
221.9015525768825
 31
0.0
  0
LINE
  5
1C70F
330
1B896
100
AcDbEntity
  8
AM_2
100
AcDbLine
 10
4657.694908529256
 20
221.6295350051296
 30
0.0
 11
4657.499983863608
 21
221.8244596707763
 31
0.0
  0
LINE
  5
1C710
330
1B896
100
AcDbEntity
  8
AM_2
100
AcDbLine
 10
4657.380599565017
 20
221.6295350051296
 30
0.0
 11
4657.262767805478
 21
221.7473667646713
 31
0.0
  0
LINE
  5
1C711
330
1B896
100
AcDbEntity
  8
AM_2
100
AcDbLine
 10
4657.066290600781
 20
221.6295350051296
 30
0.0
 11
4657.025551747345
 21
221.6702738585654
 31
0.0
  0
LINE
  5
1C712
330
1B896
100
AcDbEntity
  8
AM_2
100
AcDbLine
 10
4660.900317668572
 20
221.6295350051296
 30
0.0
 11
4655.662188506754
 21
221.6295350051296
 31
0.0
  0
LINE
  5
1C713
330
1B896
100
AcDbEntity
  8
AM_2
100
AcDbLine
 10
4660.900317668572
 20
231.8294550051305
 30
0.0
 11
4655.662188506754
 21
231.8294550051305
 31
0.0
  0
LINE
  5
1C714
330
1B896
100
AcDbEntity
  8
OS
100
AcDbLine
 10
4653.900197668573
 20
146.2294950051293
 30
0.0
 11
4653.900197668573
 21
174.2294950051293
 31
0.0
  0
LINE
  5
1C715
330
1B896
100
AcDbEntity
  8
OS
100
AcDbLine
 10
4653.900197668573
 20
146.2294950051293
 30
0.0
 11
4589.400197668573
 21
146.2294950051293
 31
0.0
  0
LINE
  5
1C716
330
1B896
100
AcDbEntity
  8
OS
100
AcDbLine
 10
4646.900197668573
 20
153.2294950051293
 30
0.0
 11
4653.900197668573
 21
146.2294950051293
 31
0.0
  0
LINE
  5
1C717
330
1B896
100
AcDbEntity
  8
OS
100
AcDbLine
 10
4653.900197668573
 20
290.2294950051293
 30
0.0
 11
4653.900197668573
 21
249.2294950051293
 31
0.0
  0
LINE
  5
1C718
330
1B896
100
AcDbEntity
  8
OS
100
AcDbLine
 10
4653.900197668573
 20
290.2294950051293
 30
0.0
 11
4589.400197668573
 21
290.2294950051293
 31
0.0
  0
LINE
  5
1C719
330
1B896
100
AcDbEntity
  8
OS
100
AcDbLine
 10
4646.900197668573
 20
283.2294950051293
 30
0.0
 11
4653.900197668573
 21
290.2294950051293
 31
0.0
  0
LINE
  5
1C71A
330
1B896
100
AcDbEntity
  8
OS
100
AcDbLine
 10
4930.400216285473
 20
174.2294950051293
 30
0.0
 11
4930.400216285473
 21
115.2643326445899
 31
0.0
  0
LINE
  5
1C71B
330
1B896
100
AcDbEntity
  8
OS
100
AcDbLine
 10
4930.400216285473
 20
326.993689580093
 30
0.0
 11
4930.400216285473
 21
249.2294950051293
 31
0.0
  0
LINE
  5
1C71C
330
1B896
100
AcDbEntity
  8
OS
100
AcDbLine
 10
4937.400216285473
 20
249.2294950051293
 30
0.0
 11
4937.400216285473
 21
326.993689580093
 31
0.0
  0
LINE
  5
1C71D
330
1B896
100
AcDbEntity
  8
OS
100
AcDbLine
 10
4949.900216285473
 20
249.2294950051293
 30
0.0
 11
4949.900216285473
 21
326.993689580093
 31
0.0
  0
LINE
  5
1C71E
330
1B896
100
AcDbEntity
  8
AM_0
100
AcDbLine
 10
4949.900216285473
 20
174.2294950051293
 30
0.0
 11
4949.900216285473
 21
249.2294950051293
 31
0.0
  0
LINE
  5
1C71F
330
1B896
100
AcDbEntity
  8
OS
100
AcDbLine
 10
4646.900197668573
 20
283.2294950051293
 30
0.0
 11
4646.900197668573
 21
249.2294950051293
 31
0.0
  0
LINE
  5
1C720
330
1B896
100
AcDbEntity
  8
OS
100
AcDbLine
 10
4634.400197668573
 20
283.2294950051293
 30
0.0
 11
4634.400197668573
 21
249.2294950051293
 31
0.0
  0
LINE
  5
1C721
330
1B896
100
AcDbEntity
  8
AM_0
100
AcDbLine
 10
4634.400197668573
 20
174.2294950051293
 30
0.0
 11
4634.400197668573
 21
249.2294950051293
 31
0.0
  0
LINE
  5
1C722
330
1B896
100
AcDbEntity
  8
OS
100
AcDbLine
 10
4937.400216285473
 20
174.2294950051293
 30
0.0
 11
4937.400216285473
 21
115.2643326445899
 31
0.0
  0
LINE
  5
1C723
330
1B896
100
AcDbEntity
  8
OS
100
AcDbLine
 10
4949.900216285473
 20
174.2294950051293
 30
0.0
 11
4949.900216285473
 21
86.10414473675474
 31
0.0
  0
LINE
  5
1C724
330
1B896
100
AcDbEntity
  8
OS
100
AcDbLine
 10
4634.400197668573
 20
174.2294950051293
 30
0.0
 11
4634.400197668573
 21
153.2294950051293
 31
0.0
  0
LINE
  5
1C725
330
1B896
100
AcDbEntity
  8
OS
100
AcDbLine
 10
4646.900197668573
 20
174.2294950051293
 30
0.0
 11
4646.900197668573
 21
153.2294950051293
 31
0.0
  0
LINE
  5
1C726
330
1B896
100
AcDbEntity
  8
OS
100
AcDbLine
 10
4949.900216285473
 20
165.7294950051293
 30
0.0
 11
4994.900216285473
 21
165.7294950051293
 31
0.0
  0
LINE
  5
1C727
330
1B896
100
AcDbEntity
  8
OS
100
AcDbLine
 10
4949.900216285473
 20
270.7294950051293
 30
0.0
 11
4994.900216285473
 21
270.7294950051293
 31
0.0
  0
LINE
  5
1C728
330
1B896
100
AcDbEntity
  8
OS
100
AcDbLine
 10
4646.900197668573
 20
283.2294950051293
 30
0.0
 11
4589.400197668573
 21
283.2294950051293
 31
0.0
  0
LINE
  5
1C729
330
1B896
100
AcDbEntity
  8
OS
100
AcDbLine
 10
4646.900197668573
 20
283.2294950051293
 30
0.0
 11
4589.400197668573
 21
283.2294950051293
 31
0.0
  0
LINE
  5
1C72A
330
1B896
100
AcDbEntity
  8
OS
100
AcDbLine
 10
4634.400197668573
 20
270.7294950051293
 30
0.0
 11
4589.400197668573
 21
270.7294950051293
 31
0.0
  0
LINE
  5
1C72B
330
1B896
100
AcDbEntity
  8
OS
100
AcDbLine
 10
4646.900197668573
 20
153.2294950051293
 30
0.0
 11
4589.400197668573
 21
153.2294950051293
 31
0.0
  0
LINE
  5
1C72C
330
1B896
100
AcDbEntity
  8
________
100
AcDbLine
 10
4367.200622161258
 20
476.2201309418263
 30
0.0
 11
4367.200622161258
 21
424.3626329832277
 31
0.0
  0
LINE
  5
1C72D
330
1B896
100
AcDbEntity
  8
OS
100
AcDbLine
 10
4419.700622161259
 20
-6.755410960685935
 30
0.0
 11
4419.70062216126
 21
-12.75541093458593
 31
0.0
  0
LINE
  5
1C72E
330
1B896
100
AcDbEntity
  8
OS
100
AcDbLine
 10
4347.700622161259
 20
438.2201309418264
 30
0.0
 11
4347.700622161259
 21
450.7201309418264
 31
0.0
  0
LINE
  5
1C72F
330
1B896
100
AcDbEntity
  8
OS
100
AcDbLine
 10
4416.700622161259
 20
437.7201309418264
 30
0.0
 11
4416.700622161259
 21
450.7201309418264
 31
0.0
  0
TEXT
  5
1C730
330
1B896
100
AcDbEntity
  8
AM_5
100
AcDbText
 10
4580.459901757412
 20
122.740132682279
 30
0.0
 40
6.0
  1
巾木
 41
0.9
100
AcDbText
  0
LINE
  5
1C731
330
1B896
100
AcDbEntity
  8
OS
100
AcDbLine
 10
4937.400216285473
 20
101.3149371537238
 30
0.0
 11
4937.400216285473
 21
86.10414473675474
 31
0.0
  0
LINE
  5
1C732
330
1B896
100
AcDbEntity
  8
OS
100
AcDbLine
 10
4930.400216285473
 20
101.3149371537238
 30
0.0
 11
4930.400216285473
 21
86.10414473675474
 31
0.0
  0
ARC
  5
1C733
330
1B896
100
AcDbEntity
  8
AM_2
  6
CONTINUOUS
100
AcDbCircle
 10
4683.225728620619
 20
175.1869073846745
 30
0.0
 40
33.81783432542852
100
AcDbArc
 50
120.8184444461577
 51
129.0944134323249
  0
LINE
  5
1C734
330
1B896
100
AcDbEntity
  8
AM_2
  6
CONTINUOUS
100
AcDbLine
 10
4665.900197668572
 20
192.2294950051293
 30
0.0
 11
4661.900197668573
 21
192.2294950051293
 31
0.0
  0
ARC
  5
1C735
330
1B896
100
AcDbEntity
  8
TS
100
AcDbCircle
 10
4654.900197668573
 20
192.7294950051293
 30
0.0
 40
0.5
100
AcDbArc
 50
148.2292097835195
 51
270.0
  0
LINE
  5
1C736
330
1B896
100
AcDbEntity
  8
TS
100
AcDbLine
 10
4661.400197668573
 20
192.2294950051293
 30
0.0
 11
4654.900197668573
 21
192.2294950051293
 31
0.0
  0
ARC
  5
1C737
330
1B896
100
AcDbEntity
  8
TS
100
AcDbCircle
 10
4683.225728620619
 20
175.1869073846745
 30
0.0
 40
33.81783432542852
100
AcDbArc
 50
130.1945652099084
 51
148.2292097835444
  0
LINE
  5
1C738
330
1B896
100
AcDbEntity
  8
AM_5
100
AcDbLine
 10
4661.900197668573
 20
103.6147044702796
 30
0.0
 11
4922.400216285473
 21
103.6147044702796
 31
0.0
1001
ACAD_DSTYLE_DIMINSPECT
1070
   393
1070
     0
1001
ACAD
1000
DSTYLE
1002
{
1070
   140
1040
5.0
1070
    72
1070
     0
1070
    71
1070
     0
1002
}
  0
LINE
  5
1C739
330
1B896
100
AcDbEntity
  8
AM_5
100
AcDbLine
 10
4485.200622161239
 20
-15.75541096068593
 30
0.0
 11
4485.200622161239
 21
264.244589039214
 31
0.0
1001
ACAD_DSTYLE_DIMINSPECT
1070
   393
1070
     0
1001
ACAD
1000
DSTYLE
1002
{
1070
   140
1040
5.0
1070
    72
1070
     0
1070
    71
1070
     0
1002
}
  0
LINE
  5
1C73A
330
1B896
100
AcDbEntity
  8
TS
100
AcDbLine
 10
4395.700622161252
 20
446.7076339886102
 30
0.0
 11
4395.700622161252
 21
379.7550714523894
 31
0.0
  0
TEXT
  5
1C73B
330
1B896
100
AcDbEntity
  8
AM_5
100
AcDbText
 10
4446.095608110762
 20
461.7821772265152
 30
0.0
 40
6.0
  1
LDD-V（ラプコン隠しドアダンパー）
 41
0.9
100
AcDbText
  0
LINE
  5
1C73C
330
1B896
100
AcDbEntity
  8
OS
100
AcDbLine
 10
4358.200622161259
 20
131.8602269743212
 30
0.0
 11
4358.200622161259
 21
-15.75541096068616
 31
0.0
  0
LINE
  5
1C73D
330
1B896
100
AcDbEntity
  8
OS
  6
DASHED1
100
AcDbLine
 10
4489.592703534247
 20
277.2445890393139
 30
0.0
 11
4520.61245821665
 21
277.2445890393139
 31
0.0
  0
LINE
  5
1C73E
330
1B896
100
AcDbEntity
  8
AM_5
100
AcDbLine
 10
4489.280619138749
 20
-8.955403679712389
 30
0.0
 11
4481.120618338748
 21
-8.955403679712276
 31
0.0
  0
LINE
  5
1C73F
330
1B896
100
AcDbEntity
  8
AM_5
100
AcDbLine
 10
4489.160619238749
 20
-9.155403579712356
 30
0.0
 11
4481.240618238748
 21
-9.155403579712242
 31
0.0
  0
LINE
  5
1C740
330
1B896
100
AcDbEntity
  8
AM_5
100
AcDbLine
 10
4489.040619338749
 20
-9.355403379713379
 30
0.0
 11
4481.360618038748
 21
-9.355403379713266
 31
0.0
  0
LINE
  5
1C741
330
1B896
100
AcDbEntity
  8
AM_5
100
AcDbLine
 10
4488.920620438748
 20
-9.555403179712584
 30
0.0
 11
4481.480617938749
 21
-9.55540317971247
 31
0.0
  0
LINE
  5
1C742
330
1B896
100
AcDbEntity
  8
AM_5
100
AcDbLine
 10
4488.800620538748
 20
-9.755402979711789
 30
0.0
 11
4481.600617838749
 21
-9.755402979711675
 31
0.0
  0
LINE
  5
1C743
330
1B896
100
AcDbEntity
  8
AM_5
100
AcDbLine
 10
4485.20062007694
 20
-15.75540695986421
 30
0.0
 11
4491.200615838748
 21
-5.755406879712381
 31
0.0
  0
LINE
  5
1C744
330
1B896
100
AcDbEntity
  8
AM_5
100
AcDbLine
 10
4485.320627648749
 20
-15.55539456971166
 30
0.0
 11
4485.080612628748
 21
-15.55539456971166
 31
0.0
  0
LINE
  5
1C745
330
1B896
100
AcDbEntity
  8
AM_5
100
AcDbLine
 10
4485.200622161239
 20
-15.75541096068593
 30
0.0
 11
4479.200620238748
 21
-5.755407179712733
 31
0.0
  0
LINE
  5
1C746
330
1B896
100
AcDbEntity
  8
AM_5
100
AcDbLine
 10
4485.440622768748
 20
-15.35539761971245
 30
0.0
 11
4484.960614648748
 21
-15.35539761971245
 31
0.0
  0
LINE
  5
1C747
330
1B896
100
AcDbEntity
  8
AM_5
100
AcDbLine
 10
4485.680625398749
 20
-14.95539800971312
 30
0.0
 11
4484.720614878749
 21
-14.95539800971312
 31
0.0
  0
LINE
  5
1C748
330
1B896
100
AcDbEntity
  8
AM_5
100
AcDbLine
 10
4485.560622658748
 20
-15.15539781971313
 30
0.0
 11
4484.840614758748
 21
-15.15539781971313
 31
0.0
  0
LINE
  5
1C749
330
1B896
100
AcDbEntity
  8
AM_5
100
AcDbLine
 10
4485.800625288749
 20
-14.75539817971162
 30
0.0
 11
4484.600614988749
 21
-14.75539817971162
 31
0.0
  0
LINE
  5
1C74A
330
1B896
100
AcDbEntity
  8
AM_5
100
AcDbLine
 10
4485.920625178748
 20
-14.5553983797123
 30
0.0
 11
4484.480615098749
 21
-14.5553983797123
 31
0.0
  0
LINE
  5
1C74B
330
1B896
100
AcDbEntity
  8
AM_5
100
AcDbLine
 10
4486.040624108748
 20
-14.35539857971309
 30
0.0
 11
4484.360615218748
 21
-14.35539857971309
 31
0.0
  0
LINE
  5
1C74C
330
1B896
100
AcDbEntity
  8
AM_5
100
AcDbLine
 10
4486.160623988748
 20
-14.15539877971207
 30
0.0
 11
4484.240615328748
 21
-14.15539877971207
 31
0.0
  0
LINE
  5
1C74D
330
1B896
100
AcDbEntity
  8
AM_5
100
AcDbLine
 10
4486.280623838748
 20
-13.95539897971298
 30
0.0
 11
4484.120615438749
 21
-13.95539897971298
 31
0.0
  0
LINE
  5
1C74E
330
1B896
100
AcDbEntity
  8
AM_5
100
AcDbLine
 10
4486.520623638749
 20
-13.55539937971275
 30
0.0
 11
4483.880615638748
 21
-13.55539937971264
 31
0.0
  0
LINE
  5
1C74F
330
1B896
100
AcDbEntity
  8
AM_5
100
AcDbLine
 10
4486.400623738748
 20
-13.75539917971195
 30
0.0
 11
4484.000615538747
 21
-13.75539917971184
 31
0.0
  0
LINE
  5
1C750
330
1B896
100
AcDbEntity
  8
AM_5
100
AcDbLine
 10
4486.640623538749
 20
-13.35539957971354
 30
0.0
 11
4483.760615838749
 21
-13.35539957971343
 31
0.0
  0
LINE
  5
1C751
330
1B896
100
AcDbEntity
  8
AM_5
100
AcDbLine
 10
4486.760623438748
 20
-13.15539967971358
 30
0.0
 11
4483.640615938749
 21
-13.15539967971346
 31
0.0
  0
LINE
  5
1C752
330
1B896
100
AcDbEntity
  8
AM_5
100
AcDbLine
 10
4486.880623338748
 20
-12.95539987971255
 30
0.0
 11
4483.520616038748
 21
-12.95539987971244
 31
0.0
  0
LINE
  5
1C753
330
1B896
100
AcDbEntity
  8
AM_5
100
AcDbLine
 10
4487.000623238748
 20
-12.75540007971153
 30
0.0
 11
4483.400616138748
 21
-12.75540007971142
 31
0.0
  0
LINE
  5
1C754
330
1B896
100
AcDbEntity
  8
AM_5
100
AcDbLine
 10
4487.120623038748
 20
-12.55540027971233
 30
0.0
 11
4483.280616238749
 21
-12.55540027971221
 31
0.0
  0
LINE
  5
1C755
330
1B896
100
AcDbEntity
  8
AM_5
100
AcDbLine
 10
4487.240622938748
 20
-12.35540047971312
 30
0.0
 11
4483.160616338749
 21
-12.35540047971301
 31
0.0
  0
LINE
  5
1C756
330
1B896
100
AcDbEntity
  8
AM_5
100
AcDbLine
 10
4487.360622838749
 20
-12.15540067971392
 30
0.0
 11
4483.040616438748
 21
-12.15540067971198
 31
0.0
  0
LINE
  5
1C757
330
1B896
100
AcDbEntity
  8
AM_5
100
AcDbLine
 10
4487.480621738749
 20
-11.95540087971289
 30
0.0
 11
4482.920616638748
 21
-11.95540087971278
 31
0.0
  0
LINE
  5
1C758
330
1B896
100
AcDbEntity
  8
AM_5
100
AcDbLine
 10
4487.600621638748
 20
-11.75540107971187
 30
0.0
 11
4482.800616738749
 21
-11.75540107971176
 31
0.0
  0
LINE
  5
1C759
330
1B896
100
AcDbEntity
  8
AM_5
100
AcDbLine
 10
4487.720621538748
 20
-11.55540127971266
 30
0.0
 11
4482.680616838748
 21
-11.55540127971255
 31
0.0
  0
LINE
  5
1C75A
330
1B896
100
AcDbEntity
  8
AM_5
100
AcDbLine
 10
4487.840621438748
 20
-11.35540147971346
 30
0.0
 11
4482.560616938748
 21
-11.35540147971335
 31
0.0
  0
LINE
  5
1C75B
330
1B896
100
AcDbEntity
  8
AM_5
100
AcDbLine
 10
4487.960621338749
 20
-11.15540167971244
 30
0.0
 11
4482.440617038748
 21
-11.15540167971232
 31
0.0
  0
LINE
  5
1C75C
330
1B896
100
AcDbEntity
  8
AM_5
100
AcDbLine
 10
4488.080621238749
 20
-10.95540177971247
 30
0.0
 11
4482.320617138748
 21
-10.95540177971236
 31
0.0
  0
LINE
  5
1C75D
330
1B896
100
AcDbEntity
  8
AM_5
100
AcDbLine
 10
4488.200621138749
 20
-10.75540197971327
 30
0.0
 11
4482.200617238748
 21
-10.75540197971315
 31
0.0
  0
LINE
  5
1C75E
330
1B896
100
AcDbEntity
  8
AM_5
100
AcDbLine
 10
4488.320620938748
 20
-10.55540217971224
 30
0.0
 11
4482.080617438749
 21
-10.55540217971213
 31
0.0
  0
LINE
  5
1C75F
330
1B896
100
AcDbEntity
  8
AM_5
100
AcDbLine
 10
4488.440620838748
 20
-10.35540237971304
 30
0.0
 11
4481.960617538748
 21
-10.35540237971292
 31
0.0
  0
LINE
  5
1C760
330
1B896
100
AcDbEntity
  8
AM_5
100
AcDbLine
 10
4488.560620738748
 20
-10.15540257971383
 30
0.0
 11
4481.840617638749
 21
-10.15540257971372
 31
0.0
  0
LINE
  5
1C761
330
1B896
100
AcDbEntity
  8
AM_5
100
AcDbLine
 10
4488.680619638748
 20
-9.955402779712812
 30
0.0
 11
4481.720617738749
 21
-9.955402779712699
 31
0.0
  0
LINE
  5
1C762
330
1B896
100
AcDbEntity
  8
AM_5
100
AcDbLine
 10
4489.520618838748
 20
-8.555404079712161
 30
0.0
 11
4480.880618538748
 21
-8.555404079712047
 31
0.0
  0
LINE
  5
1C763
330
1B896
100
AcDbEntity
  8
AM_5
100
AcDbLine
 10
4489.400619038748
 20
-8.755403879713185
 30
0.0
 11
4481.000618438748
 21
-8.755403879711252
 31
0.0
  0
LINE
  5
1C764
330
1B896
100
AcDbEntity
  8
AM_5
100
AcDbLine
 10
4489.640618738748
 20
-8.355404279712956
 30
0.0
 11
4480.760618638748
 21
-8.355404279712843
 31
0.0
  0
LINE
  5
1C765
330
1B896
100
AcDbEntity
  8
AM_5
100
AcDbLine
 10
4489.760618638748
 20
-8.155404479713752
 30
0.0
 11
4480.640618738749
 21
-8.155404479713638
 31
0.0
  0
LINE
  5
1C766
330
1B896
100
AcDbEntity
  8
AM_5
100
AcDbLine
 10
4489.880618538748
 20
-7.955404679712728
 30
0.0
 11
4480.520618838748
 21
-7.955404679712614
 31
0.0
  0
LINE
  5
1C767
330
1B896
100
AcDbEntity
  8
AM_5
100
AcDbLine
 10
4490.000618438748
 20
-7.755404879711704
 30
0.0
 11
4480.400619038748
 21
-7.755404879711591
 31
0.0
  0
LINE
  5
1C768
330
1B896
100
AcDbEntity
  8
AM_5
100
AcDbLine
 10
4490.120618338749
 20
-7.5554050797125
 30
0.0
 11
4480.280619138748
 21
-7.555405079712386
 31
0.0
  0
LINE
  5
1C769
330
1B896
100
AcDbEntity
  8
AM_5
100
AcDbLine
 10
4490.240618238749
 20
-7.355405279713295
 30
0.0
 11
4480.160619238748
 21
-7.355405279713181
 31
0.0
  0
LINE
  5
1C76A
330
1B896
100
AcDbEntity
  8
AM_5
100
AcDbLine
 10
4490.360618038748
 20
-7.155405479712271
 30
0.0
 11
4480.040619338748
 21
-7.155405479712158
 31
0.0
  0
LINE
  5
1C76B
330
1B896
100
AcDbEntity
  8
AM_5
100
AcDbLine
 10
4490.480617038747
 20
-6.955405679713067
 30
0.0
 11
4479.920619438749
 21
-6.955405679712953
 31
0.0
  0
LINE
  5
1C76C
330
1B896
100
AcDbEntity
  8
AM_5
100
AcDbLine
 10
4490.600616938748
 20
-6.7554057797131
 30
0.0
 11
4479.800619538749
 21
-6.755405779712987
 31
0.0
  0
LINE
  5
1C76D
330
1B896
100
AcDbEntity
  8
AM_5
100
AcDbLine
 10
4490.720616738748
 20
-6.555405979712077
 30
0.0
 11
4479.680619638748
 21
-6.555405979711963
 31
0.0
  0
LINE
  5
1C76E
330
1B896
100
AcDbEntity
  8
AM_5
100
AcDbLine
 10
4490.840616638748
 20
-6.355406179712872
 30
0.0
 11
4479.560619838749
 21
-6.355406179712758
 31
0.0
  0
LINE
  5
1C76F
330
1B896
100
AcDbEntity
  8
AM_5
100
AcDbLine
 10
4490.960616538749
 20
-6.155406379713667
 30
0.0
 11
4479.440619938748
 21
-6.155406379713554
 31
0.0
  0
LINE
  5
1C770
330
1B896
100
AcDbEntity
  8
AM_5
100
AcDbLine
 10
4491.080616438749
 20
-5.955406579712644
 30
0.0
 11
4479.320620038748
 21
-5.95540657971253
 31
0.0
  0
LINE
  5
1C771
330
1B896
100
AcDbEntity
  8
AM_5
100
AcDbLine
 10
4491.200616338749
 20
-5.75540677971162
 30
0.0
 11
4479.200620138748
 21
-5.755406779711506
 31
0.0
  0
LINE
  5
1C772
330
1B896
100
AcDbEntity
  8
AM_5
100
AcDbLine
 10
4481.120625183727
 20
257.4445817582404
 30
0.0
 11
4489.280625983727
 21
257.4445817582404
 31
0.0
  0
LINE
  5
1C773
330
1B896
100
AcDbEntity
  8
AM_5
100
AcDbLine
 10
4481.240625083727
 20
257.6445816582404
 30
0.0
 11
4489.160626083728
 21
257.6445816582404
 31
0.0
  0
LINE
  5
1C774
330
1B896
100
AcDbEntity
  8
AM_5
100
AcDbLine
 10
4481.360624983728
 20
257.8445814582414
 30
0.0
 11
4489.040626283728
 21
257.8445814582414
 31
0.0
  0
LINE
  5
1C775
330
1B896
100
AcDbEntity
  8
AM_5
100
AcDbLine
 10
4481.480623883727
 20
258.0445812582406
 30
0.0
 11
4488.920626383728
 21
258.0445812582406
 31
0.0
  0
LINE
  5
1C776
330
1B896
100
AcDbEntity
  8
AM_5
100
AcDbLine
 10
4481.600623783729
 20
258.2445810582398
 30
0.0
 11
4488.800626483728
 21
258.2445810582398
 31
0.0
  0
LINE
  5
1C777
330
1B896
100
AcDbEntity
  8
AM_5
100
AcDbLine
 10
4485.200624245536
 20
264.2445850383924
 30
0.0
 11
4479.200628483727
 21
254.2445849582404
 31
0.0
  0
LINE
  5
1C778
330
1B896
100
AcDbEntity
  8
AM_5
100
AcDbLine
 10
4485.080616673728
 20
264.0445726482398
 30
0.0
 11
4485.320631693727
 21
264.0445726482398
 31
0.0
  0
LINE
  5
1C779
330
1B896
100
AcDbEntity
  8
AM_5
100
AcDbLine
 10
4485.200622161239
 20
264.244589039214
 30
0.0
 11
4491.200624083727
 21
254.2445852582408
 31
0.0
  0
LINE
  5
1C77A
330
1B896
100
AcDbEntity
  8
AM_5
100
AcDbLine
 10
4484.960621553727
 20
263.8445756982404
 30
0.0
 11
4485.440629673727
 21
263.8445756982404
 31
0.0
  0
LINE
  5
1C77B
330
1B896
100
AcDbEntity
  8
AM_5
100
AcDbLine
 10
4484.720618923727
 20
263.4445760882413
 30
0.0
 11
4485.680629443728
 21
263.4445760882413
 31
0.0
  0
LINE
  5
1C77C
330
1B896
100
AcDbEntity
  8
AM_5
100
AcDbLine
 10
4484.840621663727
 20
263.6445758982412
 30
0.0
 11
4485.560629563727
 21
263.6445758982412
 31
0.0
  0
LINE
  5
1C77D
330
1B896
100
AcDbEntity
  8
AM_5
100
AcDbLine
 10
4484.600619033727
 20
263.2445762582396
 30
0.0
 11
4485.800629333727
 21
263.2445762582396
 31
0.0
  0
LINE
  5
1C77E
330
1B896
100
AcDbEntity
  8
AM_5
100
AcDbLine
 10
4484.480619143728
 20
263.0445764582404
 30
0.0
 11
4485.920629223727
 21
263.0445764582404
 31
0.0
  0
LINE
  5
1C77F
330
1B896
100
AcDbEntity
  8
AM_5
100
AcDbLine
 10
4484.360620213728
 20
262.8445766582412
 30
0.0
 11
4486.040629103728
 21
262.8445766582412
 31
0.0
  0
LINE
  5
1C780
330
1B896
100
AcDbEntity
  8
AM_5
100
AcDbLine
 10
4484.240620333728
 20
262.6445768582402
 30
0.0
 11
4486.160628993729
 21
262.6445768582402
 31
0.0
  0
LINE
  5
1C781
330
1B896
100
AcDbEntity
  8
AM_5
100
AcDbLine
 10
4484.120620483728
 20
262.444577058241
 30
0.0
 11
4486.280628883728
 21
262.444577058241
 31
0.0
  0
LINE
  5
1C782
330
1B896
100
AcDbEntity
  8
AM_5
100
AcDbLine
 10
4483.880620683728
 20
262.0445774582407
 30
0.0
 11
4486.520628683728
 21
262.0445774582407
 31
0.0
  0
LINE
  5
1C783
330
1B896
100
AcDbEntity
  8
AM_5
100
AcDbLine
 10
4484.000620583728
 20
262.2445772582401
 30
0.0
 11
4486.400628783728
 21
262.2445772582401
 31
0.0
  0
LINE
  5
1C784
330
1B896
100
AcDbEntity
  8
AM_5
100
AcDbLine
 10
4483.760620783728
 20
261.8445776582415
 30
0.0
 11
4486.640628483727
 21
261.8445776582415
 31
0.0
  0
LINE
  5
1C785
330
1B896
100
AcDbEntity
  8
AM_5
100
AcDbLine
 10
4483.640620883728
 20
261.6445777582416
 30
0.0
 11
4486.760628383727
 21
261.6445777582416
 31
0.0
  0
LINE
  5
1C786
330
1B896
100
AcDbEntity
  8
AM_5
100
AcDbLine
 10
4483.520620983727
 20
261.4445779582406
 30
0.0
 11
4486.880628283727
 21
261.4445779582406
 31
0.0
  0
LINE
  5
1C787
330
1B896
100
AcDbEntity
  8
AM_5
100
AcDbLine
 10
4483.400621083728
 20
261.2445781582396
 30
0.0
 11
4487.000628183728
 21
261.2445781582396
 31
0.0
  0
LINE
  5
1C788
330
1B896
100
AcDbEntity
  8
AM_5
100
AcDbLine
 10
4483.280621283728
 20
261.0445783582404
 30
0.0
 11
4487.120628083728
 21
261.0445783582404
 31
0.0
  0
LINE
  5
1C789
330
1B896
100
AcDbEntity
  8
AM_5
100
AcDbLine
 10
4483.160621383727
 20
260.8445785582412
 30
0.0
 11
4487.240627983728
 21
260.8445785582412
 31
0.0
  0
LINE
  5
1C78A
330
1B896
100
AcDbEntity
  8
AM_5
100
AcDbLine
 10
4483.040621483727
 20
260.644578758242
 30
0.0
 11
4487.360627883727
 21
260.6445787582401
 31
0.0
  0
LINE
  5
1C78B
330
1B896
100
AcDbEntity
  8
AM_5
100
AcDbLine
 10
4482.920622583728
 20
260.4445789582409
 30
0.0
 11
4487.480627683728
 21
260.4445789582409
 31
0.0
  0
LINE
  5
1C78C
330
1B896
100
AcDbEntity
  8
AM_5
100
AcDbLine
 10
4482.800622683728
 20
260.24457915824
 30
0.0
 11
4487.600627583728
 21
260.24457915824
 31
0.0
  0
LINE
  5
1C78D
330
1B896
100
AcDbEntity
  8
AM_5
100
AcDbLine
 10
4482.680622783727
 20
260.0445793582408
 30
0.0
 11
4487.720627483728
 21
260.0445793582408
 31
0.0
  0
LINE
  5
1C78E
330
1B896
100
AcDbEntity
  8
AM_5
100
AcDbLine
 10
4482.560622883728
 20
259.8445795582416
 30
0.0
 11
4487.840627383728
 21
259.8445795582416
 31
0.0
  0
LINE
  5
1C78F
330
1B896
100
AcDbEntity
  8
AM_5
100
AcDbLine
 10
4482.440622983728
 20
259.6445797582404
 30
0.0
 11
4487.960627283727
 21
259.6445797582404
 31
0.0
  0
LINE
  5
1C790
330
1B896
100
AcDbEntity
  8
AM_5
100
AcDbLine
 10
4482.320623083728
 20
259.4445798582406
 30
0.0
 11
4488.080627183727
 21
259.4445798582406
 31
0.0
  0
LINE
  5
1C791
330
1B896
100
AcDbEntity
  8
AM_5
100
AcDbLine
 10
4482.200623183728
 20
259.2445800582414
 30
0.0
 11
4488.200627083729
 21
259.2445800582414
 31
0.0
  0
LINE
  5
1C792
330
1B896
100
AcDbEntity
  8
AM_5
100
AcDbLine
 10
4482.080623383728
 20
259.0445802582402
 30
0.0
 11
4488.320626883727
 21
259.0445802582402
 31
0.0
  0
LINE
  5
1C793
330
1B896
100
AcDbEntity
  8
AM_5
100
AcDbLine
 10
4481.960623483728
 20
258.844580458241
 30
0.0
 11
4488.440626783727
 21
258.844580458241
 31
0.0
  0
LINE
  5
1C794
330
1B896
100
AcDbEntity
  8
AM_5
100
AcDbLine
 10
4481.840623583728
 20
258.6445806582418
 30
0.0
 11
4488.560626683727
 21
258.6445806582418
 31
0.0
  0
LINE
  5
1C795
330
1B896
100
AcDbEntity
  8
AM_5
100
AcDbLine
 10
4481.720624683728
 20
258.4445808582409
 30
0.0
 11
4488.680626583728
 21
258.4445808582409
 31
0.0
  0
LINE
  5
1C796
330
1B896
100
AcDbEntity
  8
AM_5
100
AcDbLine
 10
4480.880625483727
 20
257.0445821582402
 30
0.0
 11
4489.520625783728
 21
257.0445821582402
 31
0.0
  0
LINE
  5
1C797
330
1B896
100
AcDbEntity
  8
AM_5
100
AcDbLine
 10
4481.000625283728
 20
257.2445819582412
 30
0.0
 11
4489.400625883727
 21
257.2445819582394
 31
0.0
  0
LINE
  5
1C798
330
1B896
100
AcDbEntity
  8
AM_5
100
AcDbLine
 10
4480.760625583728
 20
256.8445823582409
 30
0.0
 11
4489.640625683728
 21
256.8445823582409
 31
0.0
  0
LINE
  5
1C799
330
1B896
100
AcDbEntity
  8
AM_5
100
AcDbLine
 10
4480.640625683729
 20
256.6445825582417
 30
0.0
 11
4489.760625583728
 21
256.6445825582417
 31
0.0
  0
LINE
  5
1C79A
330
1B896
100
AcDbEntity
  8
AM_5
100
AcDbLine
 10
4480.520625783728
 20
256.4445827582408
 30
0.0
 11
4489.880625483727
 21
256.4445827582408
 31
0.0
  0
LINE
  5
1C79B
330
1B896
100
AcDbEntity
  8
AM_5
100
AcDbLine
 10
4480.400625883728
 20
256.2445829582397
 30
0.0
 11
4490.000625283729
 21
256.2445829582397
 31
0.0
  0
LINE
  5
1C79C
330
1B896
100
AcDbEntity
  8
AM_5
100
AcDbLine
 10
4480.280625983728
 20
256.0445831582405
 30
0.0
 11
4490.120625183728
 21
256.0445831582405
 31
0.0
  0
LINE
  5
1C79D
330
1B896
100
AcDbEntity
  8
AM_5
100
AcDbLine
 10
4480.160626083728
 20
255.8445833582414
 30
0.0
 11
4490.240625083727
 21
255.8445833582414
 31
0.0
  0
LINE
  5
1C79E
330
1B896
100
AcDbEntity
  8
AM_5
100
AcDbLine
 10
4480.040626283727
 20
255.6445835582404
 30
0.0
 11
4490.360624983727
 21
255.6445835582404
 31
0.0
  0
LINE
  5
1C79F
330
1B896
100
AcDbEntity
  8
AM_5
100
AcDbLine
 10
4479.920627283727
 20
255.4445837582412
 30
0.0
 11
4490.480624883727
 21
255.4445837582412
 31
0.0
  0
LINE
  5
1C7A0
330
1B896
100
AcDbEntity
  8
AM_5
100
AcDbLine
 10
4479.800627383728
 20
255.2445838582412
 30
0.0
 11
4490.600624783727
 21
255.2445838582412
 31
0.0
  0
LINE
  5
1C7A1
330
1B896
100
AcDbEntity
  8
AM_5
100
AcDbLine
 10
4479.680627583728
 20
255.0445840582402
 30
0.0
 11
4490.720624683727
 21
255.0445840582402
 31
0.0
  0
LINE
  5
1C7A2
330
1B896
100
AcDbEntity
  8
AM_5
100
AcDbLine
 10
4479.560627683728
 20
254.844584258241
 30
0.0
 11
4490.840624483728
 21
254.844584258241
 31
0.0
  0
LINE
  5
1C7A3
330
1B896
100
AcDbEntity
  8
AM_5
100
AcDbLine
 10
4479.440627783728
 20
254.6445844582418
 30
0.0
 11
4490.960624383728
 21
254.6445844582418
 31
0.0
  0
LINE
  5
1C7A4
330
1B896
100
AcDbEntity
  8
AM_5
100
AcDbLine
 10
4479.320627883728
 20
254.4445846582406
 30
0.0
 11
4491.080624283728
 21
254.4445846582406
 31
0.0
  0
LINE
  5
1C7A5
330
1B896
100
AcDbEntity
  8
AM_5
100
AcDbLine
 10
4479.200627983728
 20
254.2445848582397
 30
0.0
 11
4491.200624183728
 21
254.2445848582397
 31
0.0
  0
LINE
  5
1C7A6
330
1B896
100
AcDbEntity
  8
AM_5
100
AcDbLine
 10
4915.600212741825
 20
107.6947036901853
 30
0.0
 11
4915.600212741825
 21
99.53470289018525
 31
0.0
  0
LINE
  5
1C7A7
330
1B896
100
AcDbEntity
  8
AM_5
100
AcDbLine
 10
4915.800212641825
 20
107.5747037901853
 30
0.0
 11
4915.800212641825
 21
99.6547027901853
 31
0.0
  0
LINE
  5
1C7A8
330
1B896
100
AcDbEntity
  8
AM_5
100
AcDbLine
 10
4916.000212441826
 20
107.4547038901852
 30
0.0
 11
4916.000212441826
 21
99.77470259018526
 31
0.0
  0
LINE
  5
1C7A9
330
1B896
100
AcDbEntity
  8
AM_5
100
AcDbLine
 10
4916.200212241825
 20
107.3347049901852
 30
0.0
 11
4916.200212241825
 21
99.8947024901853
 31
0.0
  0
LINE
  5
1C7AA
330
1B896
100
AcDbEntity
  8
AM_5
100
AcDbLine
 10
4916.400212041825
 20
107.2147050901853
 30
0.0
 11
4916.400212041825
 21
100.0147023901852
 31
0.0
  0
LINE
  5
1C7AB
330
1B896
100
AcDbEntity
  8
AM_5
100
AcDbLine
 10
4922.400216021976
 20
103.6147046283772
 30
0.0
 11
4912.400215941826
 21
109.6147003901853
 31
0.0
  0
LINE
  5
1C7AC
330
1B896
100
AcDbEntity
  8
AM_5
100
AcDbLine
 10
4922.200203631824
 20
103.7347122001853
 30
0.0
 11
4922.200203631824
 21
103.4946971801852
 31
0.0
  0
LINE
  5
1C7AD
330
1B896
100
AcDbEntity
  8
AM_5
100
AcDbLine
 10
4922.400220022798
 20
103.6147067126746
 30
0.0
 11
4912.400216241826
 21
97.61470479018527
 31
0.0
  0
LINE
  5
1C7AE
330
1B896
100
AcDbEntity
  8
AM_5
100
AcDbLine
 10
4922.000206681826
 20
103.8547073201852
 30
0.0
 11
4922.000206681826
 21
103.3746992001852
 31
0.0
  0
LINE
  5
1C7AF
330
1B896
100
AcDbEntity
  8
AM_5
100
AcDbLine
 10
4921.600207071826
 20
104.0947099501852
 30
0.0
 11
4921.600207071826
 21
103.1346994301852
 31
0.0
  0
LINE
  5
1C7B0
330
1B896
100
AcDbEntity
  8
AM_5
100
AcDbLine
 10
4921.800206881826
 20
103.9747072101852
 30
0.0
 11
4921.800206881826
 21
103.2546993101852
 31
0.0
  0
LINE
  5
1C7B1
330
1B896
100
AcDbEntity
  8
AM_5
100
AcDbLine
 10
4921.400207241824
 20
104.2147098401852
 30
0.0
 11
4921.400207241824
 21
103.0146995401852
 31
0.0
  0
LINE
  5
1C7B2
330
1B896
100
AcDbEntity
  8
AM_5
100
AcDbLine
 10
4921.200207441825
 20
104.3347097301853
 30
0.0
 11
4921.200207441825
 21
102.8946996501852
 31
0.0
  0
LINE
  5
1C7B3
330
1B896
100
AcDbEntity
  8
AM_5
100
AcDbLine
 10
4921.000207641826
 20
104.4547086601853
 30
0.0
 11
4921.000207641826
 21
102.7746997701852
 31
0.0
  0
LINE
  5
1C7B4
330
1B896
100
AcDbEntity
  8
AM_5
100
AcDbLine
 10
4920.800207841825
 20
104.5747085401852
 30
0.0
 11
4920.800207841825
 21
102.6546998801852
 31
0.0
  0
LINE
  5
1C7B5
330
1B896
100
AcDbEntity
  8
AM_5
100
AcDbLine
 10
4920.600208041825
 20
104.6947083901852
 30
0.0
 11
4920.600208041825
 21
102.5346999901852
 31
0.0
  0
LINE
  5
1C7B6
330
1B896
100
AcDbEntity
  8
AM_5
100
AcDbLine
 10
4920.200208441825
 20
104.9347081901852
 30
0.0
 11
4920.200208441825
 21
102.2947001901852
 31
0.0
  0
LINE
  5
1C7B7
330
1B896
100
AcDbEntity
  8
AM_5
100
AcDbLine
 10
4920.400208241825
 20
104.8147082901851
 30
0.0
 11
4920.400208241825
 21
102.4147000901851
 31
0.0
  0
LINE
  5
1C7B8
330
1B896
100
AcDbEntity
  8
AM_5
100
AcDbLine
 10
4920.000208641827
 20
105.0547080901853
 30
0.0
 11
4920.000208641827
 21
102.1747003901851
 31
0.0
  0
LINE
  5
1C7B9
330
1B896
100
AcDbEntity
  8
AM_5
100
AcDbLine
 10
4919.800208741826
 20
105.1747079901852
 30
0.0
 11
4919.800208741826
 21
102.0547004901852
 31
0.0
  0
LINE
  5
1C7BA
330
1B896
100
AcDbEntity
  8
AM_5
100
AcDbLine
 10
4919.600208941826
 20
105.2947078901852
 30
0.0
 11
4919.600208941826
 21
101.9347005901852
 31
0.0
  0
LINE
  5
1C7BB
330
1B896
100
AcDbEntity
  8
AM_5
100
AcDbLine
 10
4919.400209141826
 20
105.4147077901852
 30
0.0
 11
4919.400209141826
 21
101.8147006901853
 31
0.0
  0
LINE
  5
1C7BC
330
1B896
100
AcDbEntity
  8
AM_5
100
AcDbLine
 10
4919.200209341825
 20
105.5347075901852
 30
0.0
 11
4919.200209341825
 21
101.6947007901852
 31
0.0
  0
LINE
  5
1C7BD
330
1B896
100
AcDbEntity
  8
AM_5
100
AcDbLine
 10
4919.000209541826
 20
105.6547074901853
 30
0.0
 11
4919.000209541826
 21
101.5747008901852
 31
0.0
  0
LINE
  5
1C7BE
330
1B896
100
AcDbEntity
  8
AM_5
100
AcDbLine
 10
4918.800209741827
 20
105.7747073901851
 30
0.0
 11
4918.800209741824
 21
101.4547009901852
 31
0.0
  0
LINE
  5
1C7BF
330
1B896
100
AcDbEntity
  8
AM_5
100
AcDbLine
 10
4918.600209941826
 20
105.8947062901852
 30
0.0
 11
4918.600209941826
 21
101.3347011901852
 31
0.0
  0
LINE
  5
1C7C0
330
1B896
100
AcDbEntity
  8
AM_5
100
AcDbLine
 10
4918.400210141824
 20
106.0147061901852
 30
0.0
 11
4918.400210141824
 21
101.2147012901853
 31
0.0
  0
LINE
  5
1C7C1
330
1B896
100
AcDbEntity
  8
AM_5
100
AcDbLine
 10
4918.200210341826
 20
106.1347060901852
 30
0.0
 11
4918.200210341826
 21
101.0947013901852
 31
0.0
  0
LINE
  5
1C7C2
330
1B896
100
AcDbEntity
  8
AM_5
100
AcDbLine
 10
4918.000210541826
 20
106.2547059901852
 30
0.0
 11
4918.000210541826
 21
100.9747014901852
 31
0.0
  0
LINE
  5
1C7C3
330
1B896
100
AcDbEntity
  8
AM_5
100
AcDbLine
 10
4917.800210741825
 20
106.3747058901852
 30
0.0
 11
4917.800210741825
 21
100.8547015901853
 31
0.0
  0
LINE
  5
1C7C4
330
1B896
100
AcDbEntity
  8
AM_5
100
AcDbLine
 10
4917.600210841825
 20
106.4947057901852
 30
0.0
 11
4917.600210841825
 21
100.7347016901852
 31
0.0
  0
LINE
  5
1C7C5
330
1B896
100
AcDbEntity
  8
AM_5
100
AcDbLine
 10
4917.400211041826
 20
106.6147056901852
 30
0.0
 11
4917.400211041826
 21
100.6147017901852
 31
0.0
  0
LINE
  5
1C7C6
330
1B896
100
AcDbEntity
  8
AM_5
100
AcDbLine
 10
4917.200211241825
 20
106.7347054901851
 30
0.0
 11
4917.200211241825
 21
100.4947019901852
 31
0.0
  0
LINE
  5
1C7C7
330
1B896
100
AcDbEntity
  8
AM_5
100
AcDbLine
 10
4917.000211441826
 20
106.8547053901853
 30
0.0
 11
4917.000211441826
 21
100.3747020901852
 31
0.0
  0
LINE
  5
1C7C8
330
1B896
100
AcDbEntity
  8
AM_5
100
AcDbLine
 10
4916.800211641827
 20
106.9747052901852
 30
0.0
 11
4916.800211641827
 21
100.2547021901853
 31
0.0
  0
LINE
  5
1C7C9
330
1B896
100
AcDbEntity
  8
AM_5
100
AcDbLine
 10
4916.600211841825
 20
107.0947041901853
 30
0.0
 11
4916.600211841825
 21
100.1347022901852
 31
0.0
  0
LINE
  5
1C7CA
330
1B896
100
AcDbEntity
  8
AM_5
100
AcDbLine
 10
4915.200213141825
 20
107.9347033901852
 30
0.0
 11
4915.200213141825
 21
99.2947030901853
 31
0.0
  0
LINE
  5
1C7CB
330
1B896
100
AcDbEntity
  8
AM_5
100
AcDbLine
 10
4915.400212941825
 20
107.8147035901852
 30
0.0
 11
4915.400212941825
 21
99.41470299018527
 31
0.0
  0
LINE
  5
1C7CC
330
1B896
100
AcDbEntity
  8
AM_5
100
AcDbLine
 10
4915.000213341826
 20
108.0547032901852
 30
0.0
 11
4915.000213341826
 21
99.17470319018532
 31
0.0
  0
LINE
  5
1C7CD
330
1B896
100
AcDbEntity
  8
AM_5
100
AcDbLine
 10
4914.800213541827
 20
108.1747031901853
 30
0.0
 11
4914.800213541827
 21
99.05470329018527
 31
0.0
  0
LINE
  5
1C7CE
330
1B896
100
AcDbEntity
  8
AM_5
100
AcDbLine
 10
4914.600213741826
 20
108.2947030901852
 30
0.0
 11
4914.600213741826
 21
98.93470339018529
 31
0.0
  0
LINE
  5
1C7CF
330
1B896
100
AcDbEntity
  8
AM_5
100
AcDbLine
 10
4914.400213941824
 20
108.4147029901852
 30
0.0
 11
4914.400213941824
 21
98.81470359018528
 31
0.0
  0
LINE
  5
1C7D0
330
1B896
100
AcDbEntity
  8
AM_5
100
AcDbLine
 10
4914.200214141825
 20
108.5347028901852
 30
0.0
 11
4914.200214141825
 21
98.69470369018529
 31
0.0
  0
LINE
  5
1C7D1
330
1B896
100
AcDbEntity
  8
AM_5
100
AcDbLine
 10
4914.000214341825
 20
108.6547027901852
 30
0.0
 11
4914.000214341825
 21
98.57470379018531
 31
0.0
  0
LINE
  5
1C7D2
330
1B896
100
AcDbEntity
  8
AM_5
100
AcDbLine
 10
4913.800214541825
 20
108.7747025901852
 30
0.0
 11
4913.800214541825
 21
98.45470389018528
 31
0.0
  0
LINE
  5
1C7D3
330
1B896
100
AcDbEntity
  8
AM_5
100
AcDbLine
 10
4913.600214741826
 20
108.8947015901852
 30
0.0
 11
4913.600214741826
 21
98.3347039901853
 31
0.0
  0
LINE
  5
1C7D4
330
1B896
100
AcDbEntity
  8
AM_5
100
AcDbLine
 10
4913.400214841826
 20
109.0147014901853
 30
0.0
 11
4913.400214841826
 21
98.2147040901853
 31
0.0
  0
LINE
  5
1C7D5
330
1B896
100
AcDbEntity
  8
AM_5
100
AcDbLine
 10
4913.200215041825
 20
109.1347012901852
 30
0.0
 11
4913.200215041825
 21
98.09470419018532
 31
0.0
  0
LINE
  5
1C7D6
330
1B896
100
AcDbEntity
  8
AM_5
100
AcDbLine
 10
4913.000215241826
 20
109.2547011901852
 30
0.0
 11
4913.000215241826
 21
97.97470439018532
 31
0.0
  0
LINE
  5
1C7D7
330
1B896
100
AcDbEntity
  8
AM_5
100
AcDbLine
 10
4912.800215441826
 20
109.3747010901852
 30
0.0
 11
4912.800215441826
 21
97.85470449018532
 31
0.0
  0
LINE
  5
1C7D8
330
1B896
100
AcDbEntity
  8
AM_5
100
AcDbLine
 10
4912.600215641825
 20
109.4947009901852
 30
0.0
 11
4912.600215641825
 21
97.73470459018529
 31
0.0
  0
LINE
  5
1C7D9
330
1B896
100
AcDbEntity
  8
AM_5
100
AcDbLine
 10
4912.400215841824
 20
109.6147008901853
 30
0.0
 11
4912.400215841824
 21
97.61470469018531
 31
0.0
  0
LINE
  5
1C7DA
330
1B896
100
AcDbEntity
  8
AM_5
100
AcDbLine
 10
4668.700202949135
 20
99.53470645062033
 30
0.0
 11
4668.700202949135
 21
107.6947072506202
 31
0.0
  0
LINE
  5
1C7DB
330
1B896
100
AcDbEntity
  8
AM_5
100
AcDbLine
 10
4668.500203049135
 20
99.65470635062031
 30
0.0
 11
4668.500203049135
 21
107.5747073506203
 31
0.0
  0
LINE
  5
1C7DC
330
1B896
100
AcDbEntity
  8
AM_5
100
AcDbLine
 10
4668.300203249134
 20
99.77470625062029
 30
0.0
 11
4668.300203249134
 21
107.4547075506202
 31
0.0
  0
LINE
  5
1C7DD
330
1B896
100
AcDbEntity
  8
AM_5
100
AcDbLine
 10
4668.100203449134
 20
99.89470515062032
 30
0.0
 11
4668.100203449134
 21
107.3347076506203
 31
0.0
  0
LINE
  5
1C7DE
330
1B896
100
AcDbEntity
  8
AM_5
100
AcDbLine
 10
4667.900203649135
 20
100.0147050506203
 30
0.0
 11
4667.900203649135
 21
107.2147077506202
 31
0.0
  0
LINE
  5
1C7DF
330
1B896
100
AcDbEntity
  8
AM_5
100
AcDbLine
 10
4661.900199668983
 20
103.6147055124282
 30
0.0
 11
4671.900199749135
 21
97.61470975062032
 31
0.0
  0
LINE
  5
1C7E0
330
1B896
100
AcDbEntity
  8
AM_5
100
AcDbLine
 10
4662.100212059136
 20
103.4946979406203
 30
0.0
 11
4662.100212059136
 21
103.7347129606204
 31
0.0
  0
LINE
  5
1C7E1
330
1B896
100
AcDbEntity
  8
AM_5
100
AcDbLine
 10
4661.900195668161
 20
103.614703428131
 30
0.0
 11
4671.900199449134
 21
109.6147053506202
 31
0.0
  0
LINE
  5
1C7E2
330
1B896
100
AcDbEntity
  8
AM_5
100
AcDbLine
 10
4662.300209009134
 20
103.3747028206203
 30
0.0
 11
4662.300209009134
 21
103.8547109406203
 31
0.0
  0
LINE
  5
1C7E3
330
1B896
100
AcDbEntity
  8
AM_5
100
AcDbLine
 10
4662.700208619133
 20
103.1347001906202
 30
0.0
 11
4662.700208619133
 21
104.0947107106201
 31
0.0
  0
LINE
  5
1C7E4
330
1B896
100
AcDbEntity
  8
AM_5
100
AcDbLine
 10
4662.500208809134
 20
103.2547029306202
 30
0.0
 11
4662.500208809134
 21
103.9747108306203
 31
0.0
  0
LINE
  5
1C7E5
330
1B896
100
AcDbEntity
  8
AM_5
100
AcDbLine
 10
4662.900208449136
 20
103.0147003006201
 30
0.0
 11
4662.900208449136
 21
104.2147106006202
 31
0.0
  0
LINE
  5
1C7E6
330
1B896
100
AcDbEntity
  8
AM_5
100
AcDbLine
 10
4663.100208249135
 20
102.8947004106203
 30
0.0
 11
4663.100208249135
 21
104.3347104906204
 31
0.0
  0
LINE
  5
1C7E7
330
1B896
100
AcDbEntity
  8
AM_5
100
AcDbLine
 10
4663.300208049133
 20
102.7747014806203
 30
0.0
 11
4663.300208049133
 21
104.4547103706203
 31
0.0
  0
LINE
  5
1C7E8
330
1B896
100
AcDbEntity
  8
AM_5
100
AcDbLine
 10
4663.500207849136
 20
102.6547016006201
 30
0.0
 11
4663.500207849136
 21
104.5747102606201
 31
0.0
  0
LINE
  5
1C7E9
330
1B896
100
AcDbEntity
  8
AM_5
100
AcDbLine
 10
4663.700207649134
 20
102.5347017506201
 30
0.0
 11
4663.700207649134
 21
104.6947101506202
 31
0.0
  0
LINE
  5
1C7EA
330
1B896
100
AcDbEntity
  8
AM_5
100
AcDbLine
 10
4664.100207249134
 20
102.2947019506202
 30
0.0
 11
4664.100207249134
 21
104.9347099506201
 31
0.0
  0
LINE
  5
1C7EB
330
1B896
100
AcDbEntity
  8
AM_5
100
AcDbLine
 10
4663.900207449136
 20
102.4147018506204
 30
0.0
 11
4663.900207449136
 21
104.8147100506204
 31
0.0
  0
LINE
  5
1C7EC
330
1B896
100
AcDbEntity
  8
AM_5
100
AcDbLine
 10
4664.300207049134
 20
102.1747020506202
 30
0.0
 11
4664.300207049134
 21
105.0547097506204
 31
0.0
  0
LINE
  5
1C7ED
330
1B896
100
AcDbEntity
  8
AM_5
100
AcDbLine
 10
4664.500206949134
 20
102.0547021506204
 30
0.0
 11
4664.500206949134
 21
105.1747096506201
 31
0.0
  0
LINE
  5
1C7EE
330
1B896
100
AcDbEntity
  8
AM_5
100
AcDbLine
 10
4664.700206749134
 20
101.9347022506202
 30
0.0
 11
4664.700206749134
 21
105.2947095506202
 31
0.0
  0
LINE
  5
1C7EF
330
1B896
100
AcDbEntity
  8
AM_5
100
AcDbLine
 10
4664.900206549136
 20
101.8147023506202
 30
0.0
 11
4664.900206549136
 21
105.4147094506203
 31
0.0
  0
LINE
  5
1C7F0
330
1B896
100
AcDbEntity
  8
AM_5
100
AcDbLine
 10
4665.100206349135
 20
101.6947025506202
 30
0.0
 11
4665.100206349135
 21
105.5347093506201
 31
0.0
  0
LINE
  5
1C7F1
330
1B896
100
AcDbEntity
  8
AM_5
100
AcDbLine
 10
4665.300206149134
 20
101.5747026506202
 30
0.0
 11
4665.300206149134
 21
105.6547092506202
 31
0.0
  0
LINE
  5
1C7F2
330
1B896
100
AcDbEntity
  8
AM_5
100
AcDbLine
 10
4665.500205949133
 20
101.4547027506204
 30
0.0
 11
4665.500205949135
 21
105.7747091506203
 31
0.0
  0
LINE
  5
1C7F3
330
1B896
100
AcDbEntity
  8
AM_5
100
AcDbLine
 10
4665.700205749135
 20
101.3347038506202
 30
0.0
 11
4665.700205749135
 21
105.8947089506202
 31
0.0
  0
LINE
  5
1C7F4
330
1B896
100
AcDbEntity
  8
AM_5
100
AcDbLine
 10
4665.900205549135
 20
101.2147039506202
 30
0.0
 11
4665.900205549135
 21
106.0147088506203
 31
0.0
  0
LINE
  5
1C7F5
330
1B896
100
AcDbEntity
  8
AM_5
100
AcDbLine
 10
4666.100205349135
 20
101.0947040506203
 30
0.0
 11
4666.100205349135
 21
106.1347087506201
 31
0.0
  0
LINE
  5
1C7F6
330
1B896
100
AcDbEntity
  8
AM_5
100
AcDbLine
 10
4666.300205149133
 20
100.9747041506203
 30
0.0
 11
4666.300205149133
 21
106.2547086506202
 31
0.0
  0
LINE
  5
1C7F7
330
1B896
100
AcDbEntity
  8
AM_5
100
AcDbLine
 10
4666.500204949135
 20
100.8547042506202
 30
0.0
 11
4666.500204949135
 21
106.3747085506203
 31
0.0
  0
LINE
  5
1C7F8
330
1B896
100
AcDbEntity
  8
AM_5
100
AcDbLine
 10
4666.700204849134
 20
100.7347043506203
 30
0.0
 11
4666.700204849134
 21
106.4947084506201
 31
0.0
  0
LINE
  5
1C7F9
330
1B896
100
AcDbEntity
  8
AM_5
100
AcDbLine
 10
4666.900204649134
 20
100.6147044506203
 30
0.0
 11
4666.900204649134
 21
106.6147083506202
 31
0.0
  0
LINE
  5
1C7FA
330
1B896
100
AcDbEntity
  8
AM_5
100
AcDbLine
 10
4667.100204449135
 20
100.4947046506204
 30
0.0
 11
4667.100204449135
 21
106.7347081506201
 31
0.0
  0
LINE
  5
1C7FB
330
1B896
100
AcDbEntity
  8
AM_5
100
AcDbLine
 10
4667.300204249134
 20
100.3747047506203
 30
0.0
 11
4667.300204249134
 21
106.8547080506202
 31
0.0
  0
LINE
  5
1C7FC
330
1B896
100
AcDbEntity
  8
AM_5
100
AcDbLine
 10
4667.500204049133
 20
100.2547048506202
 30
0.0
 11
4667.500204049133
 21
106.9747079506203
 31
0.0
  0
LINE
  5
1C7FD
330
1B896
100
AcDbEntity
  8
AM_5
100
AcDbLine
 10
4667.700203849134
 20
100.1347059506202
 30
0.0
 11
4667.700203849134
 21
107.0947078506201
 31
0.0
  0
LINE
  5
1C7FE
330
1B896
100
AcDbEntity
  8
AM_5
100
AcDbLine
 10
4669.100202549136
 20
99.29470675062033
 30
0.0
 11
4669.100202549136
 21
107.9347070506203
 31
0.0
  0
LINE
  5
1C7FF
330
1B896
100
AcDbEntity
  8
AM_5
100
AcDbLine
 10
4668.900202749135
 20
99.41470655062028
 30
0.0
 11
4668.900202749136
 21
107.8147071506202
 31
0.0
  0
LINE
  5
1C800
330
1B896
100
AcDbEntity
  8
AM_5
100
AcDbLine
 10
4669.300202349134
 20
99.17470685062028
 30
0.0
 11
4669.300202349134
 21
108.0547069506202
 31
0.0
  0
LINE
  5
1C801
330
1B896
100
AcDbEntity
  8
AM_5
100
AcDbLine
 10
4669.500202149134
 20
99.0547069506203
 30
0.0
 11
4669.500202149134
 21
108.1747068506202
 31
0.0
  0
LINE
  5
1C802
330
1B896
100
AcDbEntity
  8
AM_5
100
AcDbLine
 10
4669.700201949135
 20
98.93470705062032
 30
0.0
 11
4669.700201949135
 21
108.2947067506203
 31
0.0
  0
LINE
  5
1C803
330
1B896
100
AcDbEntity
  8
AM_5
100
AcDbLine
 10
4669.900201749135
 20
98.81470715062029
 30
0.0
 11
4669.900201749135
 21
108.4147065506202
 31
0.0
  0
LINE
  5
1C804
330
1B896
100
AcDbEntity
  8
AM_5
100
AcDbLine
 10
4670.100201549135
 20
98.69470725062019
 30
0.0
 11
4670.100201549135
 21
108.5347064506203
 31
0.0
  0
LINE
  5
1C805
330
1B896
100
AcDbEntity
  8
AM_5
100
AcDbLine
 10
4670.300201349134
 20
98.57470735062031
 30
0.0
 11
4670.300201349134
 21
108.6547063506203
 31
0.0
  0
LINE
  5
1C806
330
1B896
100
AcDbEntity
  8
AM_5
100
AcDbLine
 10
4670.500201149135
 20
98.45470755062018
 30
0.0
 11
4670.500201149135
 21
108.7747062506202
 31
0.0
  0
LINE
  5
1C807
330
1B896
100
AcDbEntity
  8
AM_5
100
AcDbLine
 10
4670.700200949134
 20
98.33470855062017
 30
0.0
 11
4670.700200949134
 21
108.8947061506203
 31
0.0
  0
LINE
  5
1C808
330
1B896
100
AcDbEntity
  8
AM_5
100
AcDbLine
 10
4670.900200849135
 20
98.21470865062032
 30
0.0
 11
4670.900200849135
 21
109.0147060506203
 31
0.0
  0
LINE
  5
1C809
330
1B896
100
AcDbEntity
  8
AM_5
100
AcDbLine
 10
4671.100200649135
 20
98.09470885062019
 30
0.0
 11
4671.100200649135
 21
109.1347059506202
 31
0.0
  0
LINE
  5
1C80A
330
1B896
100
AcDbEntity
  8
AM_5
100
AcDbLine
 10
4671.300200449134
 20
97.97470895062032
 30
0.0
 11
4671.300200449134
 21
109.2547057506203
 31
0.0
  0
LINE
  5
1C80B
330
1B896
100
AcDbEntity
  8
AM_5
100
AcDbLine
 10
4671.500200249133
 20
97.85470905062027
 30
0.0
 11
4671.500200249133
 21
109.3747056506202
 31
0.0
  0
LINE
  5
1C80C
330
1B896
100
AcDbEntity
  8
AM_5
100
AcDbLine
 10
4671.700200049134
 20
97.73470915062018
 30
0.0
 11
4671.700200049134
 21
109.4947055506203
 31
0.0
  0
LINE
  5
1C80D
330
1B896
100
AcDbEntity
  8
AM_5
100
AcDbLine
 10
4671.900199849136
 20
97.61470925062031
 30
0.0
 11
4671.900199849136
 21
109.6147054506203
 31
0.0
  0
TEXT
  5
1C80E
330
1B896
100
AcDbEntity
  8
AM_5
100
AcDbText
 10
4483.200622161239
 20
120.9112557059311
 30
0.0
 40
10.0
  1
H
 50
90.0
  7
SIMPLEX
100
AcDbText
1001
ACAD_DSTYLE_DIMINSPECT
1070
   393
1070
     0
1001
ACAD
1000
DSTYLE
1002
{
1070
   140
1040
5.0
1070
    72
1070
     0
1070
    71
1070
     0
1002
}
  0
TEXT
  5
1C80F
330
1B896
100
AcDbEntity
  8
AM_5
100
AcDbText
 10
4787.388302215117
 20
105.6147044702796
 30
0.0
 40
10.0
  1
W
  7
SIMPLEX
100
AcDbText
1001
ACAD_DSTYLE_DIMINSPECT
1070
   393
1070
     0
1001
ACAD
1000
DSTYLE
1002
{
1070
   140
1040
5.0
1070
    72
1070
     0
1070
    71
1070
     0
1002
}
  0
LINE
  5
1C810
330
1B896
100
AcDbEntity
  8
AM_5
100
AcDbLine
 10
4949.900216285473
 20
153.7294950051293
 30
0.0
 11
4949.900216285473
 21
82.61470447027955
 31
0.0
1001
ACAD_DSTYLE_DIMINSPECT
1070
   393
1070
     0
1001
ACAD
1000
DSTYLE
1002
{
1070
    72
1070
     0
1070
    71
1070
     0
1002
}
  0
LINE
  5
1C811
330
1B896
100
AcDbEntity
  8
AM_5
100
AcDbLine
 10
4634.400197668573
 20
151.2294950051293
 30
0.0
 11
4634.400197668573
 21
82.6147044702796
 31
0.0
1001
ACAD_DSTYLE_DIMINSPECT
1070
   393
1070
     0
1001
ACAD
1000
DSTYLE
1002
{
1070
    72
1070
     0
1070
    71
1070
     0
1002
}
  0
LINE
  5
1C812
330
1B896
100
AcDbEntity
  8
AM_5
100
AcDbLine
 10
4949.900216285473
 20
84.61470447027954
 30
0.0
 11
4634.400197668573
 21
84.61470447027961
 31
0.0
1001
ACAD_DSTYLE_DIMINSPECT
1070
   393
1070
     0
1001
ACAD
1000
DSTYLE
1002
{
1070
    72
1070
     0
1070
    71
1070
     0
1002
}
  0
LINE
  5
1C813
330
1B896
100
AcDbEntity
  8
AM_5
100
AcDbLine
 10
4661.900197668573
 20
169.2294950051293
 30
0.0
 11
4661.900197668573
 21
101.6147044702796
 31
0.0
1001
ACAD_DSTYLE_DIMINSPECT
1070
   393
1070
     0
1001
ACAD
1000
DSTYLE
1002
{
1070
   173
1070
     1
1070
   174
1070
     1
1070
    40
1040
2.0
1002
}
  0
LINE
  5
1C814
330
1B896
100
AcDbEntity
  8
AM_5
100
AcDbLine
 10
4634.400197668573
 20
151.2294950051293
 30
0.0
 11
4634.400197668573
 21
101.6147044702796
 31
0.0
1001
ACAD_DSTYLE_DIMINSPECT
1070
   393
1070
     0
1001
ACAD
1000
DSTYLE
1002
{
1070
   173
1070
     1
1070
   174
1070
     1
1070
    40
1040
2.0
1002
}
  0
LINE
  5
1C815
330
1B896
100
AcDbEntity
  8
AM_5
100
AcDbLine
 10
4661.900197668573
 20
103.6147044702796
 30
0.0
 11
4634.400197668573
 21
103.6147044702796
 31
0.0
1001
ACAD_DSTYLE_DIMINSPECT
1070
   393
1070
     0
1001
ACAD
1000
DSTYLE
1002
{
1070
   173
1070
     1
1070
   174
1070
     1
1070
    40
1040
2.0
1002
}
  0
LINE
  5
1C816
330
1B896
100
AcDbEntity
  8
AM_5
100
AcDbLine
 10
4922.400216285473
 20
169.2294950051293
 30
0.0
 11
4922.400216285473
 21
101.6147044702796
 31
0.0
1001
ACAD_DSTYLE_DIMINSPECT
1070
   393
1070
     0
1001
ACAD
1000
DSTYLE
1002
{
1070
   173
1070
     1
1070
   174
1070
     1
1070
    40
1040
2.0
1002
}
  0
LINE
  5
1C817
330
1B896
100
AcDbEntity
  8
AM_5
100
AcDbLine
 10
4949.900216285473
 20
158.7294950051293
 30
0.0
 11
4949.900216285473
 21
101.6147044702796
 31
0.0
1001
ACAD_DSTYLE_DIMINSPECT
1070
   393
1070
     0
1001
ACAD
1000
DSTYLE
1002
{
1070
   173
1070
     1
1070
   174
1070
     1
1070
    40
1040
2.0
1002
}
  0
LINE
  5
1C818
330
1B896
100
AcDbEntity
  8
AM_5
100
AcDbLine
 10
4922.400216285473
 20
103.6147044702796
 30
0.0
 11
4949.900216285473
 21
103.6147044702796
 31
0.0
1001
ACAD_DSTYLE_DIMINSPECT
1070
   393
1070
     0
1001
ACAD
1000
DSTYLE
1002
{
1070
   173
1070
     1
1070
   174
1070
     1
1070
    40
1040
2.0
1002
}
  0
LINE
  5
1C819
330
1B896
100
AcDbEntity
  8
AM_5
100
AcDbLine
 10
4918.400197668574
 20
179.7294950051293
 30
0.0
 11
4918.400197668574
 21
120.6147044702795
 31
0.0
1001
ACAD_DSTYLE_DIMINSPECT
1070
   393
1070
     0
1001
ACAD
1000
DSTYLE
1002
{
1070
   174
1070
     1
1070
    40
1040
2.0
1002
}
  0
LINE
  5
1C81A
330
1B896
100
AcDbEntity
  8
AM_5
100
AcDbLine
 10
4922.400216285473
 20
174.2294950051293
 30
0.0
 11
4922.400216285473
 21
120.6147044702795
 31
0.0
1001
ACAD_DSTYLE_DIMINSPECT
1070
   393
1070
     0
1001
ACAD
1000
DSTYLE
1002
{
1070
   174
1070
     1
1070
    40
1040
2.0
1002
}
  0
LINE
  5
1C81B
330
1B896
100
AcDbEntity
  8
AM_5
100
AcDbLine
 10
4918.400197668574
 20
122.6147044702796
 30
0.0
 11
4906.676428976765
 21
122.6147044702796
 31
0.0
1001
ACAD_DSTYLE_DIMINSPECT
1070
   393
1070
     0
1001
ACAD
1000
DSTYLE
1002
{
1070
   174
1070
     1
1070
    40
1040
2.0
1002
}
  0
LINE
  5
1C81C
330
1B896
100
AcDbEntity
  8
AM_5
100
AcDbLine
 10
4918.400197668574
 20
122.6147044702796
 30
0.0
 11
4922.400216285473
 21
122.6147044702796
 31
0.0
1001
ACAD_DSTYLE_DIMINSPECT
1070
   393
1070
     0
1001
ACAD
1000
DSTYLE
1002
{
1070
   174
1070
     1
1070
    40
1040
2.0
1002
}
  0
LINE
  5
1C81D
330
1B896
100
AcDbEntity
  8
AM_5
100
AcDbLine
 10
4665.900197668572
 20
179.7294950051293
 30
0.0
 11
4665.900197668572
 21
120.6147044702795
 31
0.0
1001
ACAD_DSTYLE_DIMINSPECT
1070
   393
1070
     0
1001
ACAD
1000
DSTYLE
1002
{
1070
   174
1070
     1
1070
    40
1040
2.0
1002
}
  0
LINE
  5
1C81E
330
1B896
100
AcDbEntity
  8
AM_5
100
AcDbLine
 10
4661.900197668573
 20
174.2294950051293
 30
0.0
 11
4661.900197668573
 21
120.6147044702795
 31
0.0
1001
ACAD_DSTYLE_DIMINSPECT
1070
   393
1070
     0
1001
ACAD
1000
DSTYLE
1002
{
1070
   174
1070
     1
1070
    40
1040
2.0
1002
}
  0
LINE
  5
1C81F
330
1B896
100
AcDbEntity
  8
AM_5
100
AcDbLine
 10
4665.900197668572
 20
122.6147044702796
 30
0.0
 11
4676.996667759358
 21
122.6147044702796
 31
0.0
1001
ACAD_DSTYLE_DIMINSPECT
1070
   393
1070
     0
1001
ACAD
1000
DSTYLE
1002
{
1070
   174
1070
     1
1070
    40
1040
2.0
1002
}
  0
LINE
  5
1C820
330
1B896
100
AcDbEntity
  8
AM_5
100
AcDbLine
 10
4665.900197668572
 20
122.6147044702796
 30
0.0
 11
4661.900197668573
 21
122.6147044702796
 31
0.0
1001
ACAD_DSTYLE_DIMINSPECT
1070
   393
1070
     0
1001
ACAD
1000
DSTYLE
1002
{
1070
   174
1070
     1
1070
    40
1040
2.0
1002
}
  0
LINE
  5
1C821
330
1B896
100
AcDbEntity
  8
AM_5
100
AcDbLine
 10
4918.400197668574
 20
179.7294950051293
 30
0.0
 11
4918.400197668574
 21
120.6147044702795
 31
0.0
1001
ACAD_DSTYLE_DIMINSPECT
1070
   393
1070
     0
1001
ACAD
1000
DSTYLE
1002
{
1070
    72
1070
     0
1070
    71
1070
     0
1002
}
  0
LINE
  5
1C822
330
1B896
100
AcDbEntity
  8
AM_5
100
AcDbLine
 10
4665.900197668572
 20
179.7294950051293
 30
0.0
 11
4665.900197668572
 21
120.6147044702795
 31
0.0
1001
ACAD_DSTYLE_DIMINSPECT
1070
   393
1070
     0
1001
ACAD
1000
DSTYLE
1002
{
1070
    72
1070
     0
1070
    71
1070
     0
1002
}
  0
LINE
  5
1C823
330
1B896
100
AcDbEntity
  8
AM_5
100
AcDbLine
 10
4918.400197668574
 20
122.6147044702796
 30
0.0
 11
4665.900197668572
 21
122.6147044702796
 31
0.0
1001
ACAD_DSTYLE_DIMINSPECT
1070
   393
1070
     0
1001
ACAD
1000
DSTYLE
1002
{
1070
    72
1070
     0
1070
    71
1070
     0
1002
}
  0
LINE
  5
1C824
330
1B896
100
AcDbEntity
  8
AM_5
100
AcDbLine
 10
4667.900197668573
 20
181.7294950051293
 30
0.0
 11
4733.538835367878
 21
181.7294950051293
 31
0.0
1001
ACAD_DSTYLE_DIMINSPECT
1070
   393
1070
     0
1001
ACAD
1000
DSTYLE
1002
{
1070
   174
1070
     1
1070
    40
1040
2.0
1002
}
  0
LINE
  5
1C825
330
1B896
100
AcDbEntity
  8
AM_5
100
AcDbLine
 10
4661.900197668573
 20
174.2294950051293
 30
0.0
 11
4733.538835367878
 21
174.2294950051293
 31
0.0
1001
ACAD_DSTYLE_DIMINSPECT
1070
   393
1070
     0
1001
ACAD
1000
DSTYLE
1002
{
1070
   174
1070
     1
1070
    40
1040
2.0
1002
}
  0
LINE
  5
1C826
330
1B896
100
AcDbEntity
  8
AM_5
100
AcDbLine
 10
4731.538835367878
 20
174.2294950051293
 30
0.0
 11
4731.538835367878
 21
154.0776358223273
 31
0.0
1001
ACAD_DSTYLE_DIMINSPECT
1070
   393
1070
     0
1001
ACAD
1000
DSTYLE
1002
{
1070
   174
1070
     1
1070
    40
1040
2.0
1002
}
  0
LINE
  5
1C827
330
1B896
100
AcDbEntity
  8
AM_5
100
AcDbLine
 10
4731.538835367878
 20
181.7294950051293
 30
0.0
 11
4731.538835367878
 21
174.2294950051293
 31
0.0
1001
ACAD_DSTYLE_DIMINSPECT
1070
   393
1070
     0
1001
ACAD
1000
DSTYLE
1002
{
1070
   174
1070
     1
1070
    40
1040
2.0
1002
}
  0
LINE
  5
1C828
330
1B896
100
AcDbEntity
  8
AM_5
100
AcDbLine
 10
4667.900197668573
 20
214.7294950051293
 30
0.0
 11
4733.538835367878
 21
214.7294950051293
 31
0.0
1001
ACAD_DSTYLE_DIMINSPECT
1070
   393
1070
     0
1001
ACAD
1000
DSTYLE
1002
{
1070
   174
1070
     1
1070
    40
1040
2.0
1002
}
  0
LINE
  5
1C829
330
1B896
100
AcDbEntity
  8
AM_5
100
AcDbLine
 10
4667.900197668573
 20
181.7294950051293
 30
0.0
 11
4733.538835367878
 21
181.7294950051293
 31
0.0
1001
ACAD_DSTYLE_DIMINSPECT
1070
   393
1070
     0
1001
ACAD
1000
DSTYLE
1002
{
1070
   174
1070
     1
1070
    40
1040
2.0
1002
}
  0
LINE
  5
1C82A
330
1B896
100
AcDbEntity
  8
AM_5
100
AcDbLine
 10
4731.538835367878
 20
214.7294950051293
 30
0.0
 11
4731.538835367878
 21
181.7294950051293
 31
0.0
1001
ACAD_DSTYLE_DIMINSPECT
1070
   393
1070
     0
1001
ACAD
1000
DSTYLE
1002
{
1070
   174
1070
     1
1070
    40
1040
2.0
1002
}
  0
LINE
  5
1C82E
330
1B896
100
AcDbEntity
  8
AM_5
100
AcDbLine
 10
4667.900197668573
 20
214.7294950051293
 30
0.0
 11
4733.538835367878
 21
214.7294950051293
 31
0.0
1001
ACAD_DSTYLE_DIMINSPECT
1070
   393
1070
     0
1001
ACAD
1000
DSTYLE
1002
{
1070
   174
1070
     1
1070
    40
1040
2.0
1002
}
  0
LINE
  5
1C831
330
1B896
100
AcDbEntity
  8
AM_5
100
AcDbLine
 10
4731.538835367878
 20
214.7294950051293
 30
0.0
 11
4731.538835367878
 21
212.7294950051293
 31
0.0
1001
ACAD_DSTYLE_DIMINSPECT
1070
   393
1070
     0
1001
ACAD
1000
DSTYLE
1002
{
1070
   174
1070
     1
1070
    40
1040
2.0
1002
}
  0
LINE
  5
1C835
330
1B896
100
AcDbEntity
  8
AM_5
100
AcDbLine
 10
4632.400197668572
 20
174.2294950051293
 30
0.0
 11
4593.17794114208
 21
174.2294950051293
 31
0.0
1001
ACAD_DSTYLE_DIMINSPECT
1070
   393
1070
     0
1001
ACAD
1000
DSTYLE
1002
{
1070
   174
1070
     1
1070
    40
1040
2.0
1002
}
  0
LINE
  5
1C836
330
1B896
100
AcDbEntity
  8
AM_5
100
AcDbLine
 10
4632.400197668572
 20
153.2294950051293
 30
0.0
 11
4593.17794114208
 21
153.2294950051293
 31
0.0
1001
ACAD_DSTYLE_DIMINSPECT
1070
   393
1070
     0
1001
ACAD
1000
DSTYLE
1002
{
1070
   174
1070
     1
1070
    40
1040
2.0
1002
}
  0
LINE
  5
1C837
330
1B896
100
AcDbEntity
  8
AM_5
100
AcDbLine
 10
4595.17794114208
 20
174.2294950051293
 30
0.0
 11
4595.17794114208
 21
153.2294950051293
 31
0.0
1001
ACAD_DSTYLE_DIMINSPECT
1070
   393
1070
     0
1001
ACAD
1000
DSTYLE
1002
{
1070
   174
1070
     1
1070
    40
1040
2.0
1002
}
  0
LINE
  5
1C838
330
1B896
100
AcDbEntity
  8
AM_5
100
AcDbLine
 10
4632.400197668572
 20
249.2294950051293
 30
0.0
 11
4593.17794114208
 21
249.2294950051293
 31
0.0
1001
ACAD_DSTYLE_DIMINSPECT
1070
   393
1070
     0
1001
ACAD
1000
DSTYLE
1002
{
1070
   174
1070
     1
1002
}
  0
LINE
  5
1C839
330
1B896
100
AcDbEntity
  8
AM_5
100
AcDbLine
 10
4632.400197668572
 20
174.2294950051293
 30
0.0
 11
4593.17794114208
 21
174.2294950051293
 31
0.0
1001
ACAD_DSTYLE_DIMINSPECT
1070
   393
1070
     0
1001
ACAD
1000
DSTYLE
1002
{
1070
   174
1070
     1
1002
}
  0
LINE
  5
1C83A
330
1B896
100
AcDbEntity
  8
AM_5
100
AcDbLine
 10
4595.17794114208
 20
249.2294950051293
 30
0.0
 11
4595.17794114208
 21
174.2294950051293
 31
0.0
1001
ACAD_DSTYLE_DIMINSPECT
1070
   393
1070
     0
1001
ACAD
1000
DSTYLE
1002
{
1070
   174
1070
     1
1002
}
  0
LINE
  5
1C83B
330
1B896
100
AcDbEntity
  8
AM_5
100
AcDbLine
 10
4632.400197668572
 20
249.2294950051293
 30
0.0
 11
4608.400197668573
 21
249.2294950051293
 31
0.0
1001
ACAD_DSTYLE_DIMINSPECT
1070
   393
1070
     0
  0
LINE
  5
1C83C
330
1B896
100
AcDbEntity
  8
AM_5
100
AcDbLine
 10
4609.769553809798
 20
226.7294950051294
 30
0.0
 11
4612.400197668573
 21
226.7294950051294
 31
0.0
1001
ACAD_DSTYLE_DIMINSPECT
1070
   393
1070
     0
  0
LINE
  5
1C83D
330
1B896
100
AcDbEntity
  8
AM_5
100
AcDbLine
 10
4610.400197668573
 20
226.7294950051294
 30
0.0
 11
4610.400197668573
 21
202.3705956703473
 31
0.0
1001
ACAD_DSTYLE_DIMINSPECT
1070
   393
1070
     0
  0
LINE
  5
1C83E
330
1B896
100
AcDbEntity
  8
AM_5
100
AcDbLine
 10
4610.400197668573
 20
249.2294950051293
 30
0.0
 11
4610.400197668573
 21
226.7294950051294
 31
0.0
1001
ACAD_DSTYLE_DIMINSPECT
1070
   393
1070
     0
  0
LINE
  5
1C83F
330
1B896
100
AcDbEntity
  8
AM_5
100
AcDbLine
 10
4482.234077904334
 20
289.244589039314
 30
0.0
 11
4506.200622161239
 21
289.244589039314
 31
0.0
1001
ACAD_DSTYLE_DIMINSPECT
1070
   393
1070
     0
1001
ACAD
1000
DSTYLE
1002
{
1070
    76
1070
     1
1070
   174
1070
     1
1070
    40
1040
2.0
1002
}
  0
LINE
  5
1C840
330
1B896
100
AcDbEntity
  8
AM_5
100
AcDbLine
 10
4504.200622161238
 20
289.7445890393139
 30
0.0
 11
4504.200622161238
 21
311.0911070829171
 31
0.0
1001
ACAD_DSTYLE_DIMINSPECT
1070
   393
1070
     0
1001
ACAD
1000
DSTYLE
1002
{
1070
    76
1070
     1
1070
   174
1070
     1
1070
    40
1040
2.0
1002
}
  0
LINE
  5
1C841
330
1B896
100
AcDbEntity
  8
AM_5
100
AcDbLine
 10
4504.200622161238
 20
289.244589039314
 30
0.0
 11
4504.200622161238
 21
289.7445890393139
 31
0.0
1001
ACAD_DSTYLE_DIMINSPECT
1070
   393
1070
     0
1001
ACAD
1000
DSTYLE
1002
{
1070
    76
1070
     1
1070
   174
1070
     1
1070
    40
1040
2.0
1002
}
  0
LINE
  5
1C842
330
1B896
100
AcDbEntity
  8
AM_5
100
AcDbLine
 10
4504.200622161238
 20
289.244589039314
 30
0.0
 11
4504.200622161238
 21
287.2445890393139
 31
0.0
1001
ACAD_DSTYLE_DIMINSPECT
1070
   393
1070
     0
1001
ACAD
1000
DSTYLE
1002
{
1070
    76
1070
     1
1070
   174
1070
     1
1070
    40
1040
2.0
1002
}
  0
LINE
  5
1C843
330
1B896
100
AcDbEntity
  8
AM_5
100
AcDbLine
 10
4493.817458561379
 20
-15.75541096068593
 30
0.0
 11
4506.200622161239
 21
-15.75541096068593
 31
0.0
1001
ACAD_DSTYLE_DIMINSPECT
1070
   393
1070
     0
1001
ACAD
1000
DSTYLE
1002
{
1070
    72
1070
     0
1070
    71
1070
     0
1002
}
  0
LINE
  5
1C844
330
1B896
100
AcDbEntity
  8
AM_5
100
AcDbLine
 10
4418.700622161259
 20
289.244589039314
 30
0.0
 11
4506.200622161239
 21
289.244589039314
 31
0.0
1001
ACAD_DSTYLE_DIMINSPECT
1070
   393
1070
     0
1001
ACAD
1000
DSTYLE
1002
{
1070
    72
1070
     0
1070
    71
1070
     0
1002
}
  0
LINE
  5
1C845
330
1B896
100
AcDbEntity
  8
AM_5
100
AcDbLine
 10
4504.200622161238
 20
-15.75541096068593
 30
0.0
 11
4504.200622161238
 21
289.244589039314
 31
0.0
1001
ACAD_DSTYLE_DIMINSPECT
1070
   393
1070
     0
1001
ACAD
1000
DSTYLE
1002
{
1070
    72
1070
     0
1070
    71
1070
     0
1002
}
  0
LINE
  5
1C846
330
1B896
100
AcDbEntity
  8
AM_5
100
AcDbLine
 10
4421.837113834347
 20
264.244589039214
 30
0.0
 11
4487.200622161239
 21
264.244589039214
 31
0.0
1001
ACAD_DSTYLE_DIMINSPECT
1070
   393
1070
     0
1001
ACAD
1000
DSTYLE
1002
{
1070
   173
1070
     1
1002
}
  0
LINE
  5
1C847
330
1B896
100
AcDbEntity
  8
AM_5
100
AcDbLine
 10
4418.700622161259
 20
289.244589039314
 30
0.0
 11
4487.200622161239
 21
289.244589039314
 31
0.0
1001
ACAD_DSTYLE_DIMINSPECT
1070
   393
1070
     0
1001
ACAD
1000
DSTYLE
1002
{
1070
   173
1070
     1
1002
}
  0
LINE
  5
1C848
330
1B896
100
AcDbEntity
  8
AM_5
100
AcDbLine
 10
4485.200622161239
 20
264.244589039214
 30
0.0
 11
4485.200622161239
 21
289.244589039314
 31
0.0
1001
ACAD_DSTYLE_DIMINSPECT
1070
   393
1070
     0
1001
ACAD
1000
DSTYLE
1002
{
1070
   173
1070
     1
1002
}
  0
LINE
  5
1C849
330
1B896
100
AcDbEntity
  8
AM_5
100
AcDbLine
 10
4414.200622161248
 20
261.244589039314
 30
0.0
 11
4468.200622161239
 21
261.244589039314
 31
0.0
1001
ACAD_DSTYLE_DIMINSPECT
1070
   393
1070
     0
1001
ACAD
1000
DSTYLE
1002
{
1070
   174
1070
     1
1070
    40
1040
2.0
1002
}
  0
LINE
  5
1C84A
330
1B896
100
AcDbEntity
  8
AM_5
100
AcDbLine
 10
4416.837113834347
 20
264.244589039214
 30
0.0
 11
4468.200622161239
 21
264.244589039214
 31
0.0
1001
ACAD_DSTYLE_DIMINSPECT
1070
   393
1070
     0
1001
ACAD
1000
DSTYLE
1002
{
1070
   174
1070
     1
1070
    40
1040
2.0
1002
}
  0
LINE
  5
1C84B
330
1B896
100
AcDbEntity
  8
AM_5
100
AcDbLine
 10
4466.200622161239
 20
261.244589039314
 30
0.0
 11
4466.200622161239
 21
250.1361587702837
 31
0.0
1001
ACAD_DSTYLE_DIMINSPECT
1070
   393
1070
     0
1001
ACAD
1000
DSTYLE
1002
{
1070
   174
1070
     1
1070
    40
1040
2.0
1002
}
  0
LINE
  5
1C84C
330
1B896
100
AcDbEntity
  8
AM_5
100
AcDbLine
 10
4466.200622161239
 20
261.244589039314
 30
0.0
 11
4466.200622161239
 21
264.244589039214
 31
0.0
1001
ACAD_DSTYLE_DIMINSPECT
1070
   393
1070
     0
1001
ACAD
1000
DSTYLE
1002
{
1070
   174
1070
     1
1070
    40
1040
2.0
1002
}
  0
LINE
  5
1C84D
330
1B896
100
AcDbEntity
  8
AM_5
100
AcDbLine
 10
4466.200622161239
 20
264.244589039214
 30
0.0
 11
4466.200622161239
 21
266.244589039214
 31
0.0
1001
ACAD_DSTYLE_DIMINSPECT
1070
   393
1070
     0
1001
ACAD
1000
DSTYLE
1002
{
1070
   174
1070
     1
1070
    40
1040
2.0
1002
}
  0
LINE
  5
1C84E
330
1B896
100
AcDbEntity
  8
AM_5
100
AcDbLine
 10
4414.200622161248
 20
-3.755410960685935
 30
0.0
 11
4468.200622161239
 21
-3.755410960685935
 31
0.0
1001
ACAD_DSTYLE_DIMINSPECT
1070
   393
1070
     0
1001
ACAD
1000
DSTYLE
1002
{
1070
    72
1070
     0
1070
    71
1070
     0
1002
}
  0
LINE
  5
1C84F
330
1B896
100
AcDbEntity
  8
AM_5
100
AcDbLine
 10
4414.200622161248
 20
261.244589039314
 30
0.0
 11
4468.200622161239
 21
261.244589039314
 31
0.0
1001
ACAD_DSTYLE_DIMINSPECT
1070
   393
1070
     0
1001
ACAD
1000
DSTYLE
1002
{
1070
    72
1070
     0
1070
    71
1070
     0
1002
}
  0
LINE
  5
1C850
330
1B896
100
AcDbEntity
  8
AM_5
100
AcDbLine
 10
4466.200622161239
 20
-3.755410960685935
 30
0.0
 11
4466.200622161239
 21
261.244589039314
 31
0.0
1001
ACAD_DSTYLE_DIMINSPECT
1070
   393
1070
     0
1001
ACAD
1000
DSTYLE
1002
{
1070
    72
1070
     0
1070
    71
1070
     0
1002
}
  0
LINE
  5
1C851
330
1B896
100
AcDbEntity
  8
AM_5
100
AcDbLine
 10
4444.200622161239
 20
-15.75541096068593
 30
0.0
 11
4468.200622161239
 21
-15.75541096068593
 31
0.0
1001
ACAD_DSTYLE_DIMINSPECT
1070
   393
1070
     0
1001
ACAD
1000
DSTYLE
1002
{
1070
   174
1070
     1
1002
}
  0
LINE
  5
1C852
330
1B896
100
AcDbEntity
  8
AM_5
100
AcDbLine
 10
4414.200622161248
 20
-3.755410960685935
 30
0.0
 11
4468.200622161239
 21
-3.755410960686049
 31
0.0
1001
ACAD_DSTYLE_DIMINSPECT
1070
   393
1070
     0
1001
ACAD
1000
DSTYLE
1002
{
1070
   174
1070
     1
1002
}
  0
LINE
  5
1C853
330
1B896
100
AcDbEntity
  8
AM_5
100
AcDbLine
 10
4466.200622161239
 20
-15.75541096068593
 30
0.0
 11
4466.200622161239
 21
-3.755410960686049
 31
0.0
1001
ACAD_DSTYLE_DIMINSPECT
1070
   393
1070
     0
1001
ACAD
1000
DSTYLE
1002
{
1070
   174
1070
     1
1002
}
  0
LINE
  5
1C855
330
1B896
100
AcDbEntity
  8
AM_5
100
AcDbLine
 10
4466.200622161239
 20
-3.755410960686049
 30
0.0
 11
4466.200622161239
 21
-1.755410960686049
 31
0.0
1001
ACAD_DSTYLE_DIMINSPECT
1070
   393
1070
     0
1001
ACAD
1000
DSTYLE
1002
{
1070
   174
1070
     1
1002
}
  0
LINE
  5
1C856
330
1B896
100
AcDbEntity
  8
AM_5
100
AcDbLine
 10
4347.700622161259
 20
264.244589039314
 30
0.0
 11
4347.700622161259
 21
143.6933495228121
 31
0.0
1001
ACAD_DSTYLE_DIMINSPECT
1070
   393
1070
     0
1001
ACAD
1000
DSTYLE
1002
{
1070
   174
1070
     1
1070
    40
1040
2.0
1002
}
  0
LINE
  5
1C857
330
1B896
100
AcDbEntity
  8
AM_5
100
AcDbLine
 10
4344.700622161258
 20
138.4945890393139
 30
0.0
 11
4344.700622161258
 21
147.6933495228121
 31
0.0
1001
ACAD_DSTYLE_DIMINSPECT
1070
   393
1070
     0
1001
ACAD
1000
DSTYLE
1002
{
1070
   174
1070
     1
1070
    40
1040
2.0
1002
}
  0
LINE
  5
1C858
330
1B896
100
AcDbEntity
  8
AM_5
100
AcDbLine
 10
4344.700622161258
 20
145.6933495228121
 30
0.0
 11
4332.359888900423
 21
145.6933495228121
 31
0.0
1001
ACAD_DSTYLE_DIMINSPECT
1070
   393
1070
     0
1001
ACAD
1000
DSTYLE
1002
{
1070
   174
1070
     1
1070
    40
1040
2.0
1002
}
  0
LINE
  5
1C859
330
1B896
100
AcDbEntity
  8
AM_5
100
AcDbLine
 10
4347.700622161259
 20
145.6933495228121
 30
0.0
 11
4344.700622161258
 21
145.6933495228121
 31
0.0
1001
ACAD_DSTYLE_DIMINSPECT
1070
   393
1070
     0
1001
ACAD
1000
DSTYLE
1002
{
1070
   174
1070
     1
1070
    40
1040
2.0
1002
}
  0
LINE
  5
1C85A
330
1B896
100
AcDbEntity
  8
AM_5
100
AcDbLine
 10
4347.700622161259
 20
145.6933495228121
 30
0.0
 11
4349.700622161259
 21
145.6933495228121
 31
0.0
1001
ACAD_DSTYLE_DIMINSPECT
1070
   393
1070
     0
1001
ACAD
1000
DSTYLE
1002
{
1070
   174
1070
     1
1070
    40
1040
2.0
1002
}
  0
LINE
  5
1C85B
330
1B896
100
AcDbEntity
  8
AM_5
100
AcDbLine
 10
4358.200622161259
 20
144.629111233163
 30
0.0
 11
4358.200622161259
 21
147.6933495228121
 31
0.0
1001
ACAD_DSTYLE_DIMINSPECT
1070
   393
1070
     0
1001
ACAD
1000
DSTYLE
1002
{
1070
   174
1070
     1
1070
    40
1040
2.0
1002
}
  0
LINE
  5
1C85C
330
1B896
100
AcDbEntity
  8
AM_5
100
AcDbLine
 10
4347.700622161259
 20
264.244589039314
 30
0.0
 11
4347.700622161259
 21
143.6933495228121
 31
0.0
1001
ACAD_DSTYLE_DIMINSPECT
1070
   393
1070
     0
1001
ACAD
1000
DSTYLE
1002
{
1070
   174
1070
     1
1070
    40
1040
2.0
1002
}
  0
LINE
  5
1C85D
330
1B896
100
AcDbEntity
  8
AM_5
100
AcDbLine
 10
4358.200622161259
 20
145.6933495228121
 30
0.0
 11
4347.700622161259
 21
145.6933495228121
 31
0.0
1001
ACAD_DSTYLE_DIMINSPECT
1070
   393
1070
     0
1001
ACAD
1000
DSTYLE
1002
{
1070
   174
1070
     1
1070
    40
1040
2.0
1002
}
  0
LINE
  5
1C85E
330
1B896
100
AcDbEntity
  8
AM_5
100
AcDbLine
 10
4376.200622161259
 20
120.4945890393138
 30
0.0
 11
4376.200622161259
 21
147.6933495228121
 31
0.0
1001
ACAD_DSTYLE_DIMINSPECT
1070
   393
1070
     0
1001
ACAD
1000
DSTYLE
1002
{
1070
   174
1070
     1
1070
    40
1040
2.0
1002
}
  0
LINE
  5
1C85F
330
1B896
100
AcDbEntity
  8
AM_5
100
AcDbLine
 10
4358.200622161259
 20
144.629111233163
 30
0.0
 11
4358.200622161259
 21
147.6933495228121
 31
0.0
1001
ACAD_DSTYLE_DIMINSPECT
1070
   393
1070
     0
1001
ACAD
1000
DSTYLE
1002
{
1070
   174
1070
     1
1070
    40
1040
2.0
1002
}
  0
LINE
  5
1C860
330
1B896
100
AcDbEntity
  8
AM_5
100
AcDbLine
 10
4376.200622161259
 20
145.6933495228121
 30
0.0
 11
4358.200622161259
 21
145.6933495228121
 31
0.0
1001
ACAD_DSTYLE_DIMINSPECT
1070
   393
1070
     0
1001
ACAD
1000
DSTYLE
1002
{
1070
   174
1070
     1
1070
    40
1040
2.0
1002
}
  0
LINE
  5
1C861
330
1B896
100
AcDbEntity
  8
AM_5
100
AcDbLine
 10
4389.944629031343
 20
159.1528198516655
 30
0.0
 11
4381.944629031343
 21
159.1528198516655
 31
0.0
1001
ACAD_DSTYLE_DIMINSPECT
1070
   393
1070
     0
1001
ACAD
1000
DSTYLE
1002
{
1070
   174
1070
     1
1070
    40
1040
2.0
1002
}
  0
LINE
  5
1C862
330
1B896
100
AcDbEntity
  8
AM_5
100
AcDbLine
 10
4381.944629031343
 20
159.1528198516655
 30
0.0
 11
4377.700622161259
 21
145.6933495228121
 31
0.0
1001
ACAD_DSTYLE_DIMINSPECT
1070
   393
1070
     0
1001
ACAD
1000
DSTYLE
1002
{
1070
   174
1070
     1
1070
    40
1040
2.0
1002
}
  0
LINE
  5
1C863
330
1B896
100
AcDbEntity
  8
AM_5
100
AcDbLine
 10
4379.200622161259
 20
259.244589039314
 30
0.0
 11
4379.200622161259
 21
143.6933495228121
 31
0.0
1001
ACAD_DSTYLE_DIMINSPECT
1070
   393
1070
     0
1001
ACAD
1000
DSTYLE
1002
{
1070
   174
1070
     1
1070
    40
1040
2.0
1002
}
  0
LINE
  5
1C864
330
1B896
100
AcDbEntity
  8
AM_5
100
AcDbLine
 10
4376.200622161259
 20
120.4945890393138
 30
0.0
 11
4376.200622161259
 21
147.6933495228121
 31
0.0
1001
ACAD_DSTYLE_DIMINSPECT
1070
   393
1070
     0
1001
ACAD
1000
DSTYLE
1002
{
1070
   174
1070
     1
1070
    40
1040
2.0
1002
}
  0
LINE
  5
1C865
330
1B896
100
AcDbEntity
  8
AM_5
100
AcDbLine
 10
4379.200622161259
 20
145.6933495228121
 30
0.0
 11
4376.200622161259
 21
145.6933495228121
 31
0.0
1001
ACAD_DSTYLE_DIMINSPECT
1070
   393
1070
     0
1001
ACAD
1000
DSTYLE
1002
{
1070
   174
1070
     1
1070
    40
1040
2.0
1002
}
  0
LINE
  5
1C866
330
1B896
100
AcDbEntity
  8
AM_5
100
AcDbLine
 10
4379.200622161259
 20
145.6933495228121
 30
0.0
 11
4381.200622161259
 21
145.6933495228121
 31
0.0
1001
ACAD_DSTYLE_DIMINSPECT
1070
   393
1070
     0
1001
ACAD
1000
DSTYLE
1002
{
1070
   174
1070
     1
1070
    40
1040
2.0
1002
}
  0
LINE
  5
1C867
330
1B896
100
AcDbEntity
  8
AM_5
100
AcDbLine
 10
4376.200622161259
 20
145.6933495228121
 30
0.0
 11
4374.200622161259
 21
145.6933495228121
 31
0.0
1001
ACAD_DSTYLE_DIMINSPECT
1070
   393
1070
     0
1001
ACAD
1000
DSTYLE
1002
{
1070
   174
1070
     1
1070
    40
1040
2.0
1002
}
  0
LINE
  5
1C868
330
1B896
100
AcDbEntity
  8
AM_5
100
AcDbLine
 10
4412.200622161249
 20
259.244589039314
 30
0.0
 11
4412.200622161249
 21
143.6933495228121
 31
0.0
1001
ACAD_DSTYLE_DIMINSPECT
1070
   393
1070
     0
1001
ACAD
1000
DSTYLE
1002
{
1070
   174
1070
     1
1070
    40
1040
2.0
1002
}
  0
LINE
  5
1C869
330
1B896
100
AcDbEntity
  8
AM_5
100
AcDbLine
 10
4416.700622256159
 20
264.244589134214
 30
0.0
 11
4416.700622256159
 21
143.6933495228121
 31
0.0
1001
ACAD_DSTYLE_DIMINSPECT
1070
   393
1070
     0
1001
ACAD
1000
DSTYLE
1002
{
1070
   174
1070
     1
1070
    40
1040
2.0
1002
}
  0
LINE
  5
1C86A
330
1B896
100
AcDbEntity
  8
AM_5
100
AcDbLine
 10
4416.700622256159
 20
145.6933495228121
 30
0.0
 11
4436.638349483373
 21
145.6933495228121
 31
0.0
1001
ACAD_DSTYLE_DIMINSPECT
1070
   393
1070
     0
1001
ACAD
1000
DSTYLE
1002
{
1070
   174
1070
     1
1070
    40
1040
2.0
1002
}
  0
LINE
  5
1C86B
330
1B896
100
AcDbEntity
  8
AM_5
100
AcDbLine
 10
4412.200622161249
 20
145.6933495228121
 30
0.0
 11
4416.700622256159
 21
145.6933495228121
 31
0.0
1001
ACAD_DSTYLE_DIMINSPECT
1070
   393
1070
     0
1001
ACAD
1000
DSTYLE
1002
{
1070
   174
1070
     1
1070
    40
1040
2.0
1002
}
  0
LINE
  5
1C86C
330
1B896
100
AcDbEntity
  8
AM_5
100
AcDbLine
 10
4412.200622161249
 20
259.244589039314
 30
0.0
 11
4412.200622161249
 21
143.6933495228121
 31
0.0
1001
ACAD_DSTYLE_DIMINSPECT
1070
   393
1070
     0
1001
ACAD
1000
DSTYLE
1002
{
1070
   174
1070
     1
1002
}
  0
LINE
  5
1C86D
330
1B896
100
AcDbEntity
  8
AM_5
100
AcDbLine
 10
4379.200622161259
 20
259.244589039314
 30
0.0
 11
4379.200622161259
 21
143.6933495228121
 31
0.0
1001
ACAD_DSTYLE_DIMINSPECT
1070
   393
1070
     0
1001
ACAD
1000
DSTYLE
1002
{
1070
   174
1070
     1
1002
}
  0
LINE
  5
1C86E
330
1B896
100
AcDbEntity
  8
AM_5
100
AcDbLine
 10
4412.200622161249
 20
145.6933495228121
 30
0.0
 11
4379.200622161259
 21
145.6933495228121
 31
0.0
1001
ACAD_DSTYLE_DIMINSPECT
1070
   393
1070
     0
1001
ACAD
1000
DSTYLE
1002
{
1070
   174
1070
     1
1002
}
  0
LINE
  5
1C86F
330
1B896
100
AcDbEntity
  8
AM_5
100
AcDbLine
 10
4286.748706047389
 20
277.2445890393139
 30
0.0
 11
4286.748706047389
 21
-15.75541096068593
 31
0.0
1001
ACAD_DSTYLE_DIMINSPECT
1070
   393
1070
     0
1001
ACAD
1000
DSTYLE
1002
{
1070
    76
1070
     1
1070
    75
1070
     1
1070
    72
1070
     0
1070
    71
1070
     0
1002
}
  0
LINE
  5
1C870
330
1B896
100
AcDbEntity
  8
AM_5
100
AcDbLine
 10
4286.748706047389
 20
289.7445890393139
 30
0.0
 11
4286.748706047389
 21
336.2606840236348
 31
0.0
1001
ACAD_DSTYLE_DIMINSPECT
1070
   393
1070
     0
1001
ACAD
1000
DSTYLE
1002
{
1070
    76
1070
     1
1070
    75
1070
     1
1070
   174
1070
     1
1070
   170
1070
     0
1070
    72
1070
     0
1070
    71
1070
     0
1002
}
  0
LINE
  5
1C871
330
1B896
100
AcDbEntity
  8
AM_5
100
AcDbLine
 10
4286.748706047389
 20
277.2445890393139
 30
0.0
 11
4286.748706047389
 21
289.7445890393139
 31
0.0
1001
ACAD_DSTYLE_DIMINSPECT
1070
   393
1070
     0
1001
ACAD
1000
DSTYLE
1002
{
1070
    76
1070
     1
1070
    75
1070
     1
1070
   174
1070
     1
1070
   170
1070
     0
1070
    72
1070
     0
1070
    71
1070
     0
1002
}
  0
LINE
  5
1C872
330
1B896
100
AcDbEntity
  8
AM_5
100
AcDbLine
 10
4356.700622161257
 20
252.2445890393139
 30
0.0
 11
4332.700622161257
 21
252.2445890393139
 31
0.0
1001
ACAD_DSTYLE_DIMINSPECT
1070
   393
1070
     0
  0
LINE
  5
1C873
330
1B896
100
AcDbEntity
  8
AM_5
100
AcDbLine
 10
4347.700622161259
 20
264.244589039314
 30
0.0
 11
4332.700622161257
 21
264.244589039314
 31
0.0
1001
ACAD_DSTYLE_DIMINSPECT
1070
   393
1070
     0
  0
LINE
  5
1C874
330
1B896
100
AcDbEntity
  8
AM_5
100
AcDbLine
 10
4334.700622161257
 20
252.2445890393139
 30
0.0
 11
4334.700622161257
 21
264.244589039314
 31
0.0
1001
ACAD_DSTYLE_DIMINSPECT
1070
   393
1070
     0
  0
LINE
  5
1C877
330
1B896
100
AcDbEntity
  8
AM_5
100
AcDbLine
 10
4416.700622161259
 20
291.244589039314
 30
0.0
 11
4416.700622161259
 21
333.6661382780361
 31
0.0
1001
ACAD_DSTYLE_DIMINSPECT
1070
   393
1070
     0
1001
ACAD
1000
DSTYLE
1002
{
1070
   174
1070
     1
1070
    40
1040
2.0
1002
}
  0
LINE
  5
1C878
330
1B896
100
AcDbEntity
  8
AM_5
100
AcDbLine
 10
4440.700622161259
 20
291.7445890393139
 30
0.0
 11
4440.700622161259
 21
333.6661382780361
 31
0.0
1001
ACAD_DSTYLE_DIMINSPECT
1070
   393
1070
     0
1001
ACAD
1000
DSTYLE
1002
{
1070
   174
1070
     1
1070
    40
1040
2.0
1002
}
  0
LINE
  5
1C879
330
1B896
100
AcDbEntity
  8
AM_5
100
AcDbLine
 10
4416.700622161259
 20
331.6661382780361
 30
0.0
 11
4440.700622161259
 21
331.6661382780361
 31
0.0
1001
ACAD_DSTYLE_DIMINSPECT
1070
   393
1070
     0
1001
ACAD
1000
DSTYLE
1002
{
1070
   174
1070
     1
1070
    40
1040
2.0
1002
}
  0
LINE
  5
1C87A
330
1B896
100
AcDbEntity
  8
AM_5
100
AcDbLine
 10
4347.700622161259
 20
291.244589039314
 30
0.0
 11
4347.700622161259
 21
333.6661382780361
 31
0.0
1001
ACAD_DSTYLE_DIMINSPECT
1070
   393
1070
     0
1001
ACAD
1000
DSTYLE
1002
{
1070
   174
1070
     1
1002
}
  0
LINE
  5
1C87B
330
1B896
100
AcDbEntity
  8
AM_5
100
AcDbLine
 10
4416.700622161259
 20
291.244589039314
 30
0.0
 11
4416.700622161259
 21
333.6661382780361
 31
0.0
1001
ACAD_DSTYLE_DIMINSPECT
1070
   393
1070
     0
1001
ACAD
1000
DSTYLE
1002
{
1070
   174
1070
     1
1002
}
  0
LINE
  5
1C87C
330
1B896
100
AcDbEntity
  8
AM_5
100
AcDbLine
 10
4347.700622161259
 20
331.6661382780361
 30
0.0
 11
4416.700622161259
 21
331.6661382780361
 31
0.0
1001
ACAD_DSTYLE_DIMINSPECT
1070
   393
1070
     0
1001
ACAD
1000
DSTYLE
1002
{
1070
   174
1070
     1
1002
}
  0
LINE
  5
1C87D
330
1B896
100
AcDbEntity
  8
AM_5
100
AcDbLine
 10
4347.700622161259
 20
290.744589039314
 30
0.0
 11
4347.700622161259
 21
315.244589039314
 31
0.0
1001
ACAD_DSTYLE_DIMINSPECT
1070
   393
1070
     0
  0
LINE
  5
1C87E
330
1B896
100
AcDbEntity
  8
AM_5
100
AcDbLine
 10
4367.200622161258
 20
312.1422768297093
 30
0.0
 11
4367.200622161258
 21
311.244589039314
 31
0.0
1001
ACAD_DSTYLE_DIMINSPECT
1070
   393
1070
     0
  0
LINE
  5
1C87F
330
1B896
100
AcDbEntity
  8
AM_5
100
AcDbLine
 10
4347.700622161259
 20
313.244589039314
 30
0.0
 11
4367.200622161258
 21
313.244589039314
 31
0.0
1001
ACAD_DSTYLE_DIMINSPECT
1070
   393
1070
     0
  0
LINE
  5
1C882
330
1B896
100
AcDbEntity
  8
CONT_S_2
100
AcDbLine
 10
4922.400216285473
 20
240.3646965782894
 30
0.0
 11
4931.265014712312
 21
249.2294950051293
 31
0.0
1001
GENIUS_GENOBJ-N-HTC_13
1002
{
1000
OWNER
1000
GEN
1002
}
1001
GENIUS_GENODEF_13
1002
{
1000
HIER
1070
     0
1002
}
1002
{
1000
MANEDIT
1070
     0
1002
}
1002
{
1000
NOSEL
1070
     0
1002
}
1002
{
1000
BEHIND
1070
     0
1002
}
1002
{
1000
OTHER
1070
     0
1002
}
1002
{
1000
REACTOR
1002
}
1001
GENIUS_GENHATCH_13
1002
{
1000
DATA
1040
45.0
1042
2.5
1000
_U
1070
     0
1011
4943.476175499078
1021
211.4465070483918
1031
0.0
1002
}
1002
{
1000
UCS
1010
0.0
1020
0.0
1030
0.0
1010
1.0
1020
0.0
1030
0.0
1010
0.0
1020
1.0
1030
0.0
1002
}
1001
HATCHBACKGROUNDCOLOR
1071
-939524096
1000

1000

  0
LINE
  5
1C883
330
1B896
100
AcDbEntity
  8
CONT_S_2
100
AcDbLine
 10
4925.250295086552
 20
234.7294940051304
 30
0.0
 11
4939.750296086551
 21
249.2294950051293
 31
0.0
1001
GENIUS_GENOBJ-N-HTC_13
1002
{
1000
OWNER
1000
GEN
1002
}
1001
GENIUS_GENODEF_13
1002
{
1000
HIER
1070
     0
1002
}
1002
{
1000
MANEDIT
1070
     0
1002
}
1002
{
1000
NOSEL
1070
     0
1002
}
1002
{
1000
BEHIND
1070
     0
1002
}
1002
{
1000
OTHER
1070
     0
1002
}
1002
{
1000
REACTOR
1002
}
1001
GENIUS_GENHATCH_13
1002
{
1000
DATA
1040
45.0
1042
2.5
1000
_U
1070
     0
1011
4943.476175499078
1021
211.4465070483918
1031
0.0
1002
}
1002
{
1000
UCS
1010
0.0
1020
0.0
1030
0.0
1010
1.0
1020
0.0
1030
0.0
1010
0.0
1020
1.0
1030
0.0
1002
}
1001
HATCHBACKGROUNDCOLOR
1071
-939524096
1000

1000

  0
LINE
  5
1C884
330
1B896
100
AcDbEntity
  8
CONT_S_2
100
AcDbLine
 10
4922.400216285473
 20
223.3941338298123
 30
0.0
 11
4930.33557746079
 21
231.3294950051294
 31
0.0
1001
GENIUS_GENOBJ-N-HTC_13
1002
{
1000
OWNER
1000
GEN
1002
}
1001
GENIUS_GENODEF_13
1002
{
1000
HIER
1070
     0
1002
}
1002
{
1000
MANEDIT
1070
     0
1002
}
1002
{
1000
NOSEL
1070
     0
1002
}
1002
{
1000
BEHIND
1070
     0
1002
}
1002
{
1000
OTHER
1070
     0
1002
}
1002
{
1000
REACTOR
1002
}
1001
GENIUS_GENHATCH_13
1002
{
1000
DATA
1040
45.0
1042
2.5
1000
_U
1070
     0
1011
4943.476175499078
1021
211.4465070483918
1031
0.0
1002
}
1002
{
1000
UCS
1010
0.0
1020
0.0
1030
0.0
1010
1.0
1020
0.0
1030
0.0
1010
0.0
1020
1.0
1030
0.0
1002
}
1001
HATCHBACKGROUNDCOLOR
1071
-939524096
1000

1000

  0
LINE
  5
1C885
330
1B896
100
AcDbEntity
  8
CONT_S_2
100
AcDbLine
 10
4930.400216285471
 20
231.3941338298113
 30
0.0
 11
4948.23557746079
 21
249.2294950051293
 31
0.0
1001
GENIUS_GENOBJ-N-HTC_13
1002
{
1000
OWNER
1000
GEN
1002
}
1001
GENIUS_GENODEF_13
1002
{
1000
HIER
1070
     0
1002
}
1002
{
1000
MANEDIT
1070
     0
1002
}
1002
{
1000
NOSEL
1070
     0
1002
}
1002
{
1000
BEHIND
1070
     0
1002
}
1002
{
1000
OTHER
1070
     0
1002
}
1002
{
1000
REACTOR
1002
}
1001
GENIUS_GENHATCH_13
1002
{
1000
DATA
1040
45.0
1042
2.5
1000
_U
1070
     0
1011
4943.476175499078
1021
211.4465070483918
1031
0.0
1002
}
1002
{
1000
UCS
1010
0.0
1020
0.0
1030
0.0
1010
1.0
1020
0.0
1030
0.0
1010
0.0
1020
1.0
1030
0.0
1002
}
1001
HATCHBACKGROUNDCOLOR
1071
-939524096
1000

1000

  0
LINE
  5
1C886
330
1B896
100
AcDbEntity
  8
CONT_S_2
100
AcDbLine
 10
4922.400216285473
 20
214.9088524555737
 30
0.0
 11
4926.220859835029
 21
218.7294960051294
 31
0.0
1001
GENIUS_GENOBJ-N-HTC_13
1002
{
1000
OWNER
1000
GEN
1002
}
1001
GENIUS_GENODEF_13
1002
{
1000
HIER
1070
     0
1002
}
1002
{
1000
MANEDIT
1070
     0
1002
}
1002
{
1000
NOSEL
1070
     0
1002
}
1002
{
1000
BEHIND
1070
     0
1002
}
1002
{
1000
OTHER
1070
     0
1002
}
1002
{
1000
REACTOR
1002
}
1001
GENIUS_GENHATCH_13
1002
{
1000
DATA
1040
45.0
1042
2.5
1000
_U
1070
     0
1011
4943.476175499078
1021
211.4465070483918
1031
0.0
1002
}
1002
{
1000
UCS
1010
0.0
1020
0.0
1030
0.0
1010
1.0
1020
0.0
1030
0.0
1010
0.0
1020
1.0
1030
0.0
1002
}
1001
HATCHBACKGROUNDCOLOR
1071
-939524096
1000

1000

  0
LINE
  5
1C887
330
1B896
100
AcDbEntity
  8
CONT_S_2
100
AcDbLine
 10
4929.620858835029
 20
222.1294950051294
 30
0.0
 11
4949.900216285473
 21
242.4088524555737
 31
0.0
1001
GENIUS_GENOBJ-N-HTC_13
1002
{
1000
OWNER
1000
GEN
1002
}
1001
GENIUS_GENODEF_13
1002
{
1000
HIER
1070
     0
1002
}
1002
{
1000
MANEDIT
1070
     0
1002
}
1002
{
1000
NOSEL
1070
     0
1002
}
1002
{
1000
BEHIND
1070
     0
1002
}
1002
{
1000
OTHER
1070
     0
1002
}
1002
{
1000
REACTOR
1002
}
1001
GENIUS_GENHATCH_13
1002
{
1000
DATA
1040
45.0
1042
2.5
1000
_U
1070
     0
1011
4943.476175499078
1021
211.4465070483918
1031
0.0
1002
}
1002
{
1000
UCS
1010
0.0
1020
0.0
1030
0.0
1010
1.0
1020
0.0
1030
0.0
1010
0.0
1020
1.0
1030
0.0
1002
}
1001
HATCHBACKGROUNDCOLOR
1071
-939524096
1000

1000

  0
LINE
  5
1C888
330
1B896
100
AcDbEntity
  8
CONT_S_2
100
AcDbLine
 10
4922.400216285473
 20
206.4235710813351
 30
0.0
 11
4949.900216285473
 21
233.9235710813351
 31
0.0
1001
GENIUS_GENOBJ-N-HTC_13
1002
{
1000
OWNER
1000
GEN
1002
}
1001
GENIUS_GENODEF_13
1002
{
1000
HIER
1070
     0
1002
}
1002
{
1000
MANEDIT
1070
     0
1002
}
1002
{
1000
NOSEL
1070
     0
1002
}
1002
{
1000
BEHIND
1070
     0
1002
}
1002
{
1000
OTHER
1070
     0
1002
}
1002
{
1000
REACTOR
1002
}
1001
GENIUS_GENHATCH_13
1002
{
1000
DATA
1040
45.0
1042
2.5
1000
_U
1070
     0
1011
4943.476175499078
1021
211.4465070483918
1031
0.0
1002
}
1002
{
1000
UCS
1010
0.0
1020
0.0
1030
0.0
1010
1.0
1020
0.0
1030
0.0
1010
0.0
1020
1.0
1030
0.0
1002
}
1001
HATCHBACKGROUNDCOLOR
1071
-939524096
1000

1000

  0
LINE
  5
1C889
330
1B896
100
AcDbEntity
  8
CONT_S_2
100
AcDbLine
 10
4922.400216285473
 20
197.9382897070966
 30
0.0
 11
4949.900216285473
 21
225.4382897070966
 31
0.0
1001
GENIUS_GENOBJ-N-HTC_13
1002
{
1000
OWNER
1000
GEN
1002
}
1001
GENIUS_GENODEF_13
1002
{
1000
HIER
1070
     0
1002
}
1002
{
1000
MANEDIT
1070
     0
1002
}
1002
{
1000
NOSEL
1070
     0
1002
}
1002
{
1000
BEHIND
1070
     0
1002
}
1002
{
1000
OTHER
1070
     0
1002
}
1002
{
1000
REACTOR
1002
}
1001
GENIUS_GENHATCH_13
1002
{
1000
DATA
1040
45.0
1042
2.5
1000
_U
1070
     0
1011
4943.476175499078
1021
211.4465070483918
1031
0.0
1002
}
1002
{
1000
UCS
1010
0.0
1020
0.0
1030
0.0
1010
1.0
1020
0.0
1030
0.0
1010
0.0
1020
1.0
1030
0.0
1002
}
1001
HATCHBACKGROUNDCOLOR
1071
-939524096
1000

1000

  0
LINE
  5
1C88A
330
1B896
100
AcDbEntity
  8
CONT_S_2
100
AcDbLine
 10
4922.400216285473
 20
189.453008332858
 30
0.0
 11
4949.900216285473
 21
216.9530083328579
 31
0.0
1001
GENIUS_GENOBJ-N-HTC_13
1002
{
1000
OWNER
1000
GEN
1002
}
1001
GENIUS_GENODEF_13
1002
{
1000
HIER
1070
     0
1002
}
1002
{
1000
MANEDIT
1070
     0
1002
}
1002
{
1000
NOSEL
1070
     0
1002
}
1002
{
1000
BEHIND
1070
     0
1002
}
1002
{
1000
OTHER
1070
     0
1002
}
1002
{
1000
REACTOR
1002
}
1001
GENIUS_GENHATCH_13
1002
{
1000
DATA
1040
45.0
1042
2.5
1000
_U
1070
     0
1011
4943.476175499078
1021
211.4465070483918
1031
0.0
1002
}
1002
{
1000
UCS
1010
0.0
1020
0.0
1030
0.0
1010
1.0
1020
0.0
1030
0.0
1010
0.0
1020
1.0
1030
0.0
1002
}
1001
HATCHBACKGROUNDCOLOR
1071
-939524096
1000

1000

  0
LINE
  5
1C88B
330
1B896
100
AcDbEntity
  8
CONT_S_2
100
AcDbLine
 10
4922.400216285473
 20
180.9677269586194
 30
0.0
 11
4949.900216285473
 21
208.4677269586194
 31
0.0
1001
GENIUS_GENOBJ-N-HTC_13
1002
{
1000
OWNER
1000
GEN
1002
}
1001
GENIUS_GENODEF_13
1002
{
1000
HIER
1070
     0
1002
}
1002
{
1000
MANEDIT
1070
     0
1002
}
1002
{
1000
NOSEL
1070
     0
1002
}
1002
{
1000
BEHIND
1070
     0
1002
}
1002
{
1000
OTHER
1070
     0
1002
}
1002
{
1000
REACTOR
1002
}
1001
GENIUS_GENHATCH_13
1002
{
1000
DATA
1040
45.0
1042
2.5
1000
_U
1070
     0
1011
4943.476175499078
1021
211.4465070483918
1031
0.0
1002
}
1002
{
1000
UCS
1010
0.0
1020
0.0
1030
0.0
1010
1.0
1020
0.0
1030
0.0
1010
0.0
1020
1.0
1030
0.0
1002
}
1001
HATCHBACKGROUNDCOLOR
1071
-939524096
1000

1000

  0
LINE
  5
1C88C
330
1B896
100
AcDbEntity
  8
CONT_S_2
100
AcDbLine
 10
4924.273740995848
 20
174.355970294755
 30
0.0
 11
4949.900216285473
 21
199.9824455843809
 31
0.0
1001
GENIUS_GENOBJ-N-HTC_13
1002
{
1000
OWNER
1000
GEN
1002
}
1001
GENIUS_GENODEF_13
1002
{
1000
HIER
1070
     0
1002
}
1002
{
1000
MANEDIT
1070
     0
1002
}
1002
{
1000
NOSEL
1070
     0
1002
}
1002
{
1000
BEHIND
1070
     0
1002
}
1002
{
1000
OTHER
1070
     0
1002
}
1002
{
1000
REACTOR
1002
}
1001
GENIUS_GENHATCH_13
1002
{
1000
DATA
1040
45.0
1042
2.5
1000
_U
1070
     0
1011
4943.476175499078
1021
211.4465070483918
1031
0.0
1002
}
1002
{
1000
UCS
1010
0.0
1020
0.0
1030
0.0
1010
1.0
1020
0.0
1030
0.0
1010
0.0
1020
1.0
1030
0.0
1002
}
1001
HATCHBACKGROUNDCOLOR
1071
-939524096
1000

1000

  0
LINE
  5
1C88D
330
1B896
100
AcDbEntity
  8
CONT_S_2
100
AcDbLine
 10
4932.63254708046
 20
174.2294950051293
 30
0.0
 11
4949.900216285473
 21
191.4971642101422
 31
0.0
1001
GENIUS_GENOBJ-N-HTC_13
1002
{
1000
OWNER
1000
GEN
1002
}
1001
GENIUS_GENODEF_13
1002
{
1000
HIER
1070
     0
1002
}
1002
{
1000
MANEDIT
1070
     0
1002
}
1002
{
1000
NOSEL
1070
     0
1002
}
1002
{
1000
BEHIND
1070
     0
1002
}
1002
{
1000
OTHER
1070
     0
1002
}
1002
{
1000
REACTOR
1002
}
1001
GENIUS_GENHATCH_13
1002
{
1000
DATA
1040
45.0
1042
2.5
1000
_U
1070
     0
1011
4943.476175499078
1021
211.4465070483918
1031
0.0
1002
}
1002
{
1000
UCS
1010
0.0
1020
0.0
1030
0.0
1010
1.0
1020
0.0
1030
0.0
1010
0.0
1020
1.0
1030
0.0
1002
}
1001
HATCHBACKGROUNDCOLOR
1071
-939524096
1000

1000

  0
LINE
  5
1C88E
330
1B896
100
AcDbEntity
  8
CONT_S_2
100
AcDbLine
 10
4941.117828454698
 20
174.2294950051293
 30
0.0
 11
4949.900216285473
 21
183.0118828359037
 31
0.0
1001
GENIUS_GENOBJ-N-HTC_13
1002
{
1000
OWNER
1000
GEN
1002
}
1001
GENIUS_GENODEF_13
1002
{
1000
HIER
1070
     0
1002
}
1002
{
1000
MANEDIT
1070
     0
1002
}
1002
{
1000
NOSEL
1070
     0
1002
}
1002
{
1000
BEHIND
1070
     0
1002
}
1002
{
1000
OTHER
1070
     0
1002
}
1002
{
1000
REACTOR
1002
}
1001
GENIUS_GENHATCH_13
1002
{
1000
DATA
1040
45.0
1042
2.5
1000
_U
1070
     0
1011
4943.476175499078
1021
211.4465070483918
1031
0.0
1002
}
1002
{
1000
UCS
1010
0.0
1020
0.0
1030
0.0
1010
1.0
1020
0.0
1030
0.0
1010
0.0
1020
1.0
1030
0.0
1002
}
1001
HATCHBACKGROUNDCOLOR
1071
-939524096
1000

1000

  0
LINE
  5
1C88F
330
1B896
100
AcDbEntity
  8
CONT_S_2
100
AcDbLine
 10
4949.603109828938
 20
174.2294950051293
 30
0.0
 11
4949.900216285473
 21
174.5266014616651
 31
0.0
1001
GENIUS_GENOBJ-N-HTC_13
1002
{
1000
OWNER
1000
GEN
1002
}
1001
GENIUS_GENODEF_13
1002
{
1000
HIER
1070
     0
1002
}
1002
{
1000
MANEDIT
1070
     0
1002
}
1002
{
1000
NOSEL
1070
     0
1002
}
1002
{
1000
BEHIND
1070
     0
1002
}
1002
{
1000
OTHER
1070
     0
1002
}
1002
{
1000
REACTOR
1002
}
1001
GENIUS_GENHATCH_13
1002
{
1000
DATA
1040
45.0
1042
2.5
1000
_U
1070
     0
1011
4943.476175499078
1021
211.4465070483918
1031
0.0
1002
}
1002
{
1000
UCS
1010
0.0
1020
0.0
1030
0.0
1010
1.0
1020
0.0
1030
0.0
1010
0.0
1020
1.0
1030
0.0
1002
}
1001
HATCHBACKGROUNDCOLOR
1071
-939524096
1000

1000

  0
LINE
  5
1C890
330
1B896
100
AcDbEntity
  8
CONT_S_2
100
AcDbLine
 10
4634.400197668573
 20
240.8642446855012
 30
0.0
 11
4642.7654479882
 21
249.2294950051293
 31
0.0
1001
GENIUS_GENOBJ-N-HTC_13
1002
{
1000
OWNER
1000
GEN
1002
}
1001
GENIUS_GENODEF_13
1002
{
1000
HIER
1070
     0
1002
}
1002
{
1000
MANEDIT
1070
     0
1002
}
1002
{
1000
NOSEL
1070
     0
1002
}
1002
{
1000
BEHIND
1070
     0
1002
}
1002
{
1000
OTHER
1070
     0
1002
}
1002
{
1000
REACTOR
1002
}
1001
GENIUS_GENHATCH_13
1002
{
1000
DATA
1040
45.0
1042
2.5
1000
_U
1070
     0
1011
4654.933465844933
1021
195.9427702455361
1031
0.0
1002
}
1002
{
1000
UCS
1010
0.0
1020
0.0
1030
0.0
1010
1.0
1020
0.0
1030
0.0
1010
0.0
1020
1.0
1030
0.0
1002
}
1001
HATCHBACKGROUNDCOLOR
1071
-939524096
1000

1000

  0
LINE
  5
1C891
330
1B896
100
AcDbEntity
  8
CONT_S_2
100
AcDbLine
 10
4634.400197668573
 20
232.3789633112626
 30
0.0
 11
4651.250729362438
 21
249.2294950051293
 31
0.0
1001
GENIUS_GENOBJ-N-HTC_13
1002
{
1000
OWNER
1000
GEN
1002
}
1001
GENIUS_GENODEF_13
1002
{
1000
HIER
1070
     0
1002
}
1002
{
1000
MANEDIT
1070
     0
1002
}
1002
{
1000
NOSEL
1070
     0
1002
}
1002
{
1000
BEHIND
1070
     0
1002
}
1002
{
1000
OTHER
1070
     0
1002
}
1002
{
1000
REACTOR
1002
}
1001
GENIUS_GENHATCH_13
1002
{
1000
DATA
1040
45.0
1042
2.5
1000
_U
1070
     0
1011
4654.933465844933
1021
195.9427702455361
1031
0.0
1002
}
1002
{
1000
UCS
1010
0.0
1020
0.0
1030
0.0
1010
1.0
1020
0.0
1030
0.0
1010
0.0
1020
1.0
1030
0.0
1002
}
1001
HATCHBACKGROUNDCOLOR
1071
-939524096
1000

1000

  0
LINE
  5
1C892
330
1B896
100
AcDbEntity
  8
CONT_S_2
100
AcDbLine
 10
4634.400197668573
 20
223.8936819370241
 30
0.0
 11
4659.736010736677
 21
249.2294950051293
 31
0.0
1001
GENIUS_GENOBJ-N-HTC_13
1002
{
1000
OWNER
1000
GEN
1002
}
1001
GENIUS_GENODEF_13
1002
{
1000
HIER
1070
     0
1002
}
1002
{
1000
MANEDIT
1070
     0
1002
}
1002
{
1000
NOSEL
1070
     0
1002
}
1002
{
1000
BEHIND
1070
     0
1002
}
1002
{
1000
OTHER
1070
     0
1002
}
1002
{
1000
REACTOR
1002
}
1001
GENIUS_GENHATCH_13
1002
{
1000
DATA
1040
45.0
1042
2.5
1000
_U
1070
     0
1011
4654.933465844933
1021
195.9427702455361
1031
0.0
1002
}
1002
{
1000
UCS
1010
0.0
1020
0.0
1030
0.0
1010
1.0
1020
0.0
1030
0.0
1010
0.0
1020
1.0
1030
0.0
1002
}
1001
HATCHBACKGROUNDCOLOR
1071
-939524096
1000

1000

  0
LINE
  5
1C893
330
1B896
100
AcDbEntity
  8
CONT_S_2
100
AcDbLine
 10
4634.400197668573
 20
215.4084005627855
 30
0.0
 11
4661.900197668573
 21
242.9084005627854
 31
0.0
1001
GENIUS_GENOBJ-N-HTC_13
1002
{
1000
OWNER
1000
GEN
1002
}
1001
GENIUS_GENODEF_13
1002
{
1000
HIER
1070
     0
1002
}
1002
{
1000
MANEDIT
1070
     0
1002
}
1002
{
1000
NOSEL
1070
     0
1002
}
1002
{
1000
BEHIND
1070
     0
1002
}
1002
{
1000
OTHER
1070
     0
1002
}
1002
{
1000
REACTOR
1002
}
1001
GENIUS_GENHATCH_13
1002
{
1000
DATA
1040
45.0
1042
2.5
1000
_U
1070
     0
1011
4654.933465844933
1021
195.9427702455361
1031
0.0
1002
}
1002
{
1000
UCS
1010
0.0
1020
0.0
1030
0.0
1010
1.0
1020
0.0
1030
0.0
1010
0.0
1020
1.0
1030
0.0
1002
}
1001
HATCHBACKGROUNDCOLOR
1071
-939524096
1000

1000

  0
LINE
  5
1C894
330
1B896
100
AcDbEntity
  8
CONT_S_2
100
AcDbLine
 10
4634.400197668573
 20
206.923119188547
 30
0.0
 11
4658.806573485154
 21
231.3294950051294
 31
0.0
1001
GENIUS_GENOBJ-N-HTC_13
1002
{
1000
OWNER
1000
GEN
1002
}
1001
GENIUS_GENODEF_13
1002
{
1000
HIER
1070
     0
1002
}
1002
{
1000
MANEDIT
1070
     0
1002
}
1002
{
1000
NOSEL
1070
     0
1002
}
1002
{
1000
BEHIND
1070
     0
1002
}
1002
{
1000
OTHER
1070
     0
1002
}
1002
{
1000
REACTOR
1002
}
1001
GENIUS_GENHATCH_13
1002
{
1000
DATA
1040
45.0
1042
2.5
1000
_U
1070
     0
1011
4654.933465844933
1021
195.9427702455361
1031
0.0
1002
}
1002
{
1000
UCS
1010
0.0
1020
0.0
1030
0.0
1010
1.0
1020
0.0
1030
0.0
1010
0.0
1020
1.0
1030
0.0
1002
}
1001
HATCHBACKGROUNDCOLOR
1071
-939524096
1000

1000

  0
LINE
  5
1C895
330
1B896
100
AcDbEntity
  8
CONT_S_2
100
AcDbLine
 10
4634.400197668573
 20
198.4378378143084
 30
0.0
 11
4654.691855859393
 21
218.7294960051294
 31
0.0
1001
GENIUS_GENOBJ-N-HTC_13
1002
{
1000
OWNER
1000
GEN
1002
}
1001
GENIUS_GENODEF_13
1002
{
1000
HIER
1070
     0
1002
}
1002
{
1000
MANEDIT
1070
     0
1002
}
1002
{
1000
NOSEL
1070
     0
1002
}
1002
{
1000
BEHIND
1070
     0
1002
}
1002
{
1000
OTHER
1070
     0
1002
}
1002
{
1000
REACTOR
1002
}
1001
GENIUS_GENHATCH_13
1002
{
1000
DATA
1040
45.0
1042
2.5
1000
_U
1070
     0
1011
4654.933465844933
1021
195.9427702455361
1031
0.0
1002
}
1002
{
1000
UCS
1010
0.0
1020
0.0
1030
0.0
1010
1.0
1020
0.0
1030
0.0
1010
0.0
1020
1.0
1030
0.0
1002
}
1001
HATCHBACKGROUNDCOLOR
1071
-939524096
1000

1000

  0
LINE
  5
1C896
330
1B896
100
AcDbEntity
  8
CONT_S_2
100
AcDbLine
 10
4658.091854859393
 20
222.1294950051294
 30
0.0
 11
4661.900197668573
 21
225.9378378143084
 31
0.0
1001
GENIUS_GENOBJ-N-HTC_13
1002
{
1000
OWNER
1000
GEN
1002
}
1001
GENIUS_GENODEF_13
1002
{
1000
HIER
1070
     0
1002
}
1002
{
1000
MANEDIT
1070
     0
1002
}
1002
{
1000
NOSEL
1070
     0
1002
}
1002
{
1000
BEHIND
1070
     0
1002
}
1002
{
1000
OTHER
1070
     0
1002
}
1002
{
1000
REACTOR
1002
}
1001
GENIUS_GENHATCH_13
1002
{
1000
DATA
1040
45.0
1042
2.5
1000
_U
1070
     0
1011
4654.933465844933
1021
195.9427702455361
1031
0.0
1002
}
1002
{
1000
UCS
1010
0.0
1020
0.0
1030
0.0
1010
1.0
1020
0.0
1030
0.0
1010
0.0
1020
1.0
1030
0.0
1002
}
1001
HATCHBACKGROUNDCOLOR
1071
-939524096
1000

1000

  0
LINE
  5
1C897
330
1B896
100
AcDbEntity
  8
CONT_S_2
100
AcDbLine
 10
4634.400197668573
 20
189.9525564400697
 30
0.0
 11
4661.900197668573
 21
217.4525564400697
 31
0.0
1001
GENIUS_GENOBJ-N-HTC_13
1002
{
1000
OWNER
1000
GEN
1002
}
1001
GENIUS_GENODEF_13
1002
{
1000
HIER
1070
     0
1002
}
1002
{
1000
MANEDIT
1070
     0
1002
}
1002
{
1000
NOSEL
1070
     0
1002
}
1002
{
1000
BEHIND
1070
     0
1002
}
1002
{
1000
OTHER
1070
     0
1002
}
1002
{
1000
REACTOR
1002
}
1001
GENIUS_GENHATCH_13
1002
{
1000
DATA
1040
45.0
1042
2.5
1000
_U
1070
     0
1011
4654.933465844933
1021
195.9427702455361
1031
0.0
1002
}
1002
{
1000
UCS
1010
0.0
1020
0.0
1030
0.0
1010
1.0
1020
0.0
1030
0.0
1010
0.0
1020
1.0
1030
0.0
1002
}
1001
HATCHBACKGROUNDCOLOR
1071
-939524096
1000

1000

  0
LINE
  5
1C898
330
1B896
100
AcDbEntity
  8
CONT_S_2
100
AcDbLine
 10
4634.400197668573
 20
181.4672750658312
 30
0.0
 11
4661.900197668573
 21
208.9672750658311
 31
0.0
1001
GENIUS_GENOBJ-N-HTC_13
1002
{
1000
OWNER
1000
GEN
1002
}
1001
GENIUS_GENODEF_13
1002
{
1000
HIER
1070
     0
1002
}
1002
{
1000
MANEDIT
1070
     0
1002
}
1002
{
1000
NOSEL
1070
     0
1002
}
1002
{
1000
BEHIND
1070
     0
1002
}
1002
{
1000
OTHER
1070
     0
1002
}
1002
{
1000
REACTOR
1002
}
1001
GENIUS_GENHATCH_13
1002
{
1000
DATA
1040
45.0
1042
2.5
1000
_U
1070
     0
1011
4654.933465844933
1021
195.9427702455361
1031
0.0
1002
}
1002
{
1000
UCS
1010
0.0
1020
0.0
1030
0.0
1010
1.0
1020
0.0
1030
0.0
1010
0.0
1020
1.0
1030
0.0
1002
}
1001
HATCHBACKGROUNDCOLOR
1071
-939524096
1000

1000

  0
LINE
  5
1C899
330
1B896
100
AcDbEntity
  8
CONT_S_2
100
AcDbLine
 10
4635.647698982108
 20
174.2294950051293
 30
0.0
 11
4661.900197668573
 21
200.4819936915926
 31
0.0
1001
GENIUS_GENOBJ-N-HTC_13
1002
{
1000
OWNER
1000
GEN
1002
}
1001
GENIUS_GENODEF_13
1002
{
1000
HIER
1070
     0
1002
}
1002
{
1000
MANEDIT
1070
     0
1002
}
1002
{
1000
NOSEL
1070
     0
1002
}
1002
{
1000
BEHIND
1070
     0
1002
}
1002
{
1000
OTHER
1070
     0
1002
}
1002
{
1000
REACTOR
1002
}
1001
GENIUS_GENHATCH_13
1002
{
1000
DATA
1040
45.0
1042
2.5
1000
_U
1070
     0
1011
4654.933465844933
1021
195.9427702455361
1031
0.0
1002
}
1002
{
1000
UCS
1010
0.0
1020
0.0
1030
0.0
1010
1.0
1020
0.0
1030
0.0
1010
0.0
1020
1.0
1030
0.0
1002
}
1001
HATCHBACKGROUNDCOLOR
1071
-939524096
1000

1000

  0
LINE
  5
1C89A
330
1B896
100
AcDbEntity
  8
CONT_S_2
100
AcDbLine
 10
4644.132980356348
 20
174.2294950051293
 30
0.0
 11
4661.900197668573
 21
191.996712317354
 31
0.0
1001
GENIUS_GENOBJ-N-HTC_13
1002
{
1000
OWNER
1000
GEN
1002
}
1001
GENIUS_GENODEF_13
1002
{
1000
HIER
1070
     0
1002
}
1002
{
1000
MANEDIT
1070
     0
1002
}
1002
{
1000
NOSEL
1070
     0
1002
}
1002
{
1000
BEHIND
1070
     0
1002
}
1002
{
1000
OTHER
1070
     0
1002
}
1002
{
1000
REACTOR
1002
}
1001
GENIUS_GENHATCH_13
1002
{
1000
DATA
1040
45.0
1042
2.5
1000
_U
1070
     0
1011
4654.933465844933
1021
195.9427702455361
1031
0.0
1002
}
1002
{
1000
UCS
1010
0.0
1020
0.0
1030
0.0
1010
1.0
1020
0.0
1030
0.0
1010
0.0
1020
1.0
1030
0.0
1002
}
1001
HATCHBACKGROUNDCOLOR
1071
-939524096
1000

1000

  0
LINE
  5
1C89B
330
1B896
100
AcDbEntity
  8
CONT_S_2
100
AcDbLine
 10
4652.618261730586
 20
174.2294950051293
 30
0.0
 11
4661.900197668573
 21
183.5114309431155
 31
0.0
1001
GENIUS_GENOBJ-N-HTC_13
1002
{
1000
OWNER
1000
GEN
1002
}
1001
GENIUS_GENODEF_13
1002
{
1000
HIER
1070
     0
1002
}
1002
{
1000
MANEDIT
1070
     0
1002
}
1002
{
1000
NOSEL
1070
     0
1002
}
1002
{
1000
BEHIND
1070
     0
1002
}
1002
{
1000
OTHER
1070
     0
1002
}
1002
{
1000
REACTOR
1002
}
1001
GENIUS_GENHATCH_13
1002
{
1000
DATA
1040
45.0
1042
2.5
1000
_U
1070
     0
1011
4654.933465844933
1021
195.9427702455361
1031
0.0
1002
}
1002
{
1000
UCS
1010
0.0
1020
0.0
1030
0.0
1010
1.0
1020
0.0
1030
0.0
1010
0.0
1020
1.0
1030
0.0
1002
}
1001
HATCHBACKGROUNDCOLOR
1071
-939524096
1000

1000

  0
LINE
  5
1C89C
330
1B896
100
AcDbEntity
  8
CONT_S_2
100
AcDbLine
 10
4347.700622161259
 20
285.0906427734905
 30
0.0
 11
4351.854568427081
 21
289.244589039314
 31
0.0
1001
GENIUS_GENOBJ-N-HTC_13
1002
{
1000
OWNER
1000
GEN
1002
}
1001
GENIUS_GENODEF_13
1002
{
1000
HIER
1070
     0
1002
}
1002
{
1000
MANEDIT
1070
     0
1002
}
1002
{
1000
NOSEL
1070
     0
1002
}
1002
{
1000
BEHIND
1070
     0
1002
}
1002
{
1000
OTHER
1070
     0
1002
}
1002
{
1000
REACTOR
1002
}
1001
GENIUS_GENHATCH_13
1002
{
1000
DATA
1040
45.0
1042
2.5
1000
_U
1070
     0
1011
4404.292914708493
1021
275.0031827700644
1031
0.0
1002
}
1002
{
1000
UCS
1010
0.0
1020
0.0
1030
0.0
1010
1.0
1020
0.0
1030
0.0
1010
0.0
1020
1.0
1030
0.0
1002
}
1001
HATCHBACKGROUNDCOLOR
1071
-939524096
1000

1000

  0
LINE
  5
1C89D
330
1B896
100
AcDbEntity
  8
CONT_S_2
100
AcDbLine
 10
4347.700622161259
 20
276.6053613992518
 30
0.0
 11
4360.33984980132
 21
289.244589039314
 31
0.0
1001
GENIUS_GENOBJ-N-HTC_13
1002
{
1000
OWNER
1000
GEN
1002
}
1001
GENIUS_GENODEF_13
1002
{
1000
HIER
1070
     0
1002
}
1002
{
1000
MANEDIT
1070
     0
1002
}
1002
{
1000
NOSEL
1070
     0
1002
}
1002
{
1000
BEHIND
1070
     0
1002
}
1002
{
1000
OTHER
1070
     0
1002
}
1002
{
1000
REACTOR
1002
}
1001
GENIUS_GENHATCH_13
1002
{
1000
DATA
1040
45.0
1042
2.5
1000
_U
1070
     0
1011
4404.292914708493
1021
275.0031827700644
1031
0.0
1002
}
1002
{
1000
UCS
1010
0.0
1020
0.0
1030
0.0
1010
1.0
1020
0.0
1030
0.0
1010
0.0
1020
1.0
1030
0.0
1002
}
1001
HATCHBACKGROUNDCOLOR
1071
-939524096
1000

1000

  0
LINE
  5
1C89E
330
1B896
100
AcDbEntity
  8
CONT_S_2
100
AcDbLine
 10
4347.700622161259
 20
268.1200800250134
 30
0.0
 11
4368.825131175558
 21
289.244589039314
 31
0.0
1001
GENIUS_GENOBJ-N-HTC_13
1002
{
1000
OWNER
1000
GEN
1002
}
1001
GENIUS_GENODEF_13
1002
{
1000
HIER
1070
     0
1002
}
1002
{
1000
MANEDIT
1070
     0
1002
}
1002
{
1000
NOSEL
1070
     0
1002
}
1002
{
1000
BEHIND
1070
     0
1002
}
1002
{
1000
OTHER
1070
     0
1002
}
1002
{
1000
REACTOR
1002
}
1001
GENIUS_GENHATCH_13
1002
{
1000
DATA
1040
45.0
1042
2.5
1000
_U
1070
     0
1011
4404.292914708493
1021
275.0031827700644
1031
0.0
1002
}
1002
{
1000
UCS
1010
0.0
1020
0.0
1030
0.0
1010
1.0
1020
0.0
1030
0.0
1010
0.0
1020
1.0
1030
0.0
1002
}
1001
HATCHBACKGROUNDCOLOR
1071
-939524096
1000

1000

  0
LINE
  5
1C89F
330
1B896
100
AcDbEntity
  8
CONT_S_2
100
AcDbLine
 10
4352.310412549797
 20
264.244589039314
 30
0.0
 11
4359.200623161256
 21
271.1347996507732
 31
0.0
1001
GENIUS_GENOBJ-N-HTC_13
1002
{
1000
OWNER
1000
GEN
1002
}
1001
GENIUS_GENODEF_13
1002
{
1000
HIER
1070
     0
1002
}
1002
{
1000
MANEDIT
1070
     0
1002
}
1002
{
1000
NOSEL
1070
     0
1002
}
1002
{
1000
BEHIND
1070
     0
1002
}
1002
{
1000
OTHER
1070
     0
1002
}
1002
{
1000
REACTOR
1002
}
1001
GENIUS_GENHATCH_13
1002
{
1000
DATA
1040
45.0
1042
2.5
1000
_U
1070
     0
1011
4404.292914708493
1021
275.0031827700644
1031
0.0
1002
}
1002
{
1000
UCS
1010
0.0
1020
0.0
1030
0.0
1010
1.0
1020
0.0
1030
0.0
1010
0.0
1020
1.0
1030
0.0
1002
}
1001
HATCHBACKGROUNDCOLOR
1071
-939524096
1000

1000

  0
LINE
  5
1C8A0
330
1B896
100
AcDbEntity
  8
CONT_S_2
100
AcDbLine
 10
4360.310412549798
 20
272.244589039314
 30
0.0
 11
4377.310412549797
 21
289.244589039314
 31
0.0
1001
GENIUS_GENOBJ-N-HTC_13
1002
{
1000
OWNER
1000
GEN
1002
}
1001
GENIUS_GENODEF_13
1002
{
1000
HIER
1070
     0
1002
}
1002
{
1000
MANEDIT
1070
     0
1002
}
1002
{
1000
NOSEL
1070
     0
1002
}
1002
{
1000
BEHIND
1070
     0
1002
}
1002
{
1000
OTHER
1070
     0
1002
}
1002
{
1000
REACTOR
1002
}
1001
GENIUS_GENHATCH_13
1002
{
1000
DATA
1040
45.0
1042
2.5
1000
_U
1070
     0
1011
4404.292914708493
1021
275.0031827700644
1031
0.0
1002
}
1002
{
1000
UCS
1010
0.0
1020
0.0
1030
0.0
1010
1.0
1020
0.0
1030
0.0
1010
0.0
1020
1.0
1030
0.0
1002
}
1001
HATCHBACKGROUNDCOLOR
1071
-939524096
1000

1000

  0
LINE
  5
1C8A1
330
1B896
100
AcDbEntity
  8
CONT_S_2
100
AcDbLine
 10
4362.600622161257
 20
266.0495172765349
 30
0.0
 11
4385.795693924036
 21
289.244589039314
 31
0.0
1001
GENIUS_GENOBJ-N-HTC_13
1002
{
1000
OWNER
1000
GEN
1002
}
1001
GENIUS_GENODEF_13
1002
{
1000
HIER
1070
     0
1002
}
1002
{
1000
MANEDIT
1070
     0
1002
}
1002
{
1000
NOSEL
1070
     0
1002
}
1002
{
1000
BEHIND
1070
     0
1002
}
1002
{
1000
OTHER
1070
     0
1002
}
1002
{
1000
REACTOR
1002
}
1001
GENIUS_GENHATCH_13
1002
{
1000
DATA
1040
45.0
1042
2.5
1000
_U
1070
     0
1011
4404.292914708493
1021
275.0031827700644
1031
0.0
1002
}
1002
{
1000
UCS
1010
0.0
1020
0.0
1030
0.0
1010
1.0
1020
0.0
1030
0.0
1010
0.0
1020
1.0
1030
0.0
1002
}
1001
HATCHBACKGROUNDCOLOR
1071
-939524096
1000

1000

  0
LINE
  5
1C8A2
330
1B896
100
AcDbEntity
  8
CONT_S_2
100
AcDbLine
 10
4369.280975298274
 20
264.244589039314
 30
0.0
 11
4371.800622161257
 21
266.7642359022962
 31
0.0
1001
GENIUS_GENOBJ-N-HTC_13
1002
{
1000
OWNER
1000
GEN
1002
}
1001
GENIUS_GENODEF_13
1002
{
1000
HIER
1070
     0
1002
}
1002
{
1000
MANEDIT
1070
     0
1002
}
1002
{
1000
NOSEL
1070
     0
1002
}
1002
{
1000
BEHIND
1070
     0
1002
}
1002
{
1000
OTHER
1070
     0
1002
}
1002
{
1000
REACTOR
1002
}
1001
GENIUS_GENHATCH_13
1002
{
1000
DATA
1040
45.0
1042
2.5
1000
_U
1070
     0
1011
4404.292914708493
1021
275.0031827700644
1031
0.0
1002
}
1002
{
1000
UCS
1010
0.0
1020
0.0
1030
0.0
1010
1.0
1020
0.0
1030
0.0
1010
0.0
1020
1.0
1030
0.0
1002
}
1001
HATCHBACKGROUNDCOLOR
1071
-939524096
1000

1000

  0
LINE
  5
1C8A3
330
1B896
100
AcDbEntity
  8
CONT_S_2
100
AcDbLine
 10
4375.200621161257
 20
270.1642349022972
 30
0.0
 11
4394.280975298275
 21
289.244589039314
 31
0.0
1001
GENIUS_GENOBJ-N-HTC_13
1002
{
1000
OWNER
1000
GEN
1002
}
1001
GENIUS_GENODEF_13
1002
{
1000
HIER
1070
     0
1002
}
1002
{
1000
MANEDIT
1070
     0
1002
}
1002
{
1000
NOSEL
1070
     0
1002
}
1002
{
1000
BEHIND
1070
     0
1002
}
1002
{
1000
OTHER
1070
     0
1002
}
1002
{
1000
REACTOR
1002
}
1001
GENIUS_GENHATCH_13
1002
{
1000
DATA
1040
45.0
1042
2.5
1000
_U
1070
     0
1011
4404.292914708493
1021
275.0031827700644
1031
0.0
1002
}
1002
{
1000
UCS
1010
0.0
1020
0.0
1030
0.0
1010
1.0
1020
0.0
1030
0.0
1010
0.0
1020
1.0
1030
0.0
1002
}
1001
HATCHBACKGROUNDCOLOR
1071
-939524096
1000

1000

  0
LINE
  5
1C8A4
330
1B896
100
AcDbEntity
  8
CONT_S_2
100
AcDbLine
 10
4377.766256672513
 20
264.244589039314
 30
0.0
 11
4402.766256672513
 21
289.244589039314
 31
0.0
1001
GENIUS_GENOBJ-N-HTC_13
1002
{
1000
OWNER
1000
GEN
1002
}
1001
GENIUS_GENODEF_13
1002
{
1000
HIER
1070
     0
1002
}
1002
{
1000
MANEDIT
1070
     0
1002
}
1002
{
1000
NOSEL
1070
     0
1002
}
1002
{
1000
BEHIND
1070
     0
1002
}
1002
{
1000
OTHER
1070
     0
1002
}
1002
{
1000
REACTOR
1002
}
1001
GENIUS_GENHATCH_13
1002
{
1000
DATA
1040
45.0
1042
2.5
1000
_U
1070
     0
1011
4404.292914708493
1021
275.0031827700644
1031
0.0
1002
}
1002
{
1000
UCS
1010
0.0
1020
0.0
1030
0.0
1010
1.0
1020
0.0
1030
0.0
1010
0.0
1020
1.0
1030
0.0
1002
}
1001
HATCHBACKGROUNDCOLOR
1071
-939524096
1000

1000

  0
LINE
  5
1C8A5
330
1B896
100
AcDbEntity
  8
CONT_S_2
100
AcDbLine
 10
4386.251538046752
 20
264.244589039314
 30
0.0
 11
4411.251538046752
 21
289.244589039314
 31
0.0
1001
GENIUS_GENOBJ-N-HTC_13
1002
{
1000
OWNER
1000
GEN
1002
}
1001
GENIUS_GENODEF_13
1002
{
1000
HIER
1070
     0
1002
}
1002
{
1000
MANEDIT
1070
     0
1002
}
1002
{
1000
NOSEL
1070
     0
1002
}
1002
{
1000
BEHIND
1070
     0
1002
}
1002
{
1000
OTHER
1070
     0
1002
}
1002
{
1000
REACTOR
1002
}
1001
GENIUS_GENHATCH_13
1002
{
1000
DATA
1040
45.0
1042
2.5
1000
_U
1070
     0
1011
4404.292914708493
1021
275.0031827700644
1031
0.0
1002
}
1002
{
1000
UCS
1010
0.0
1020
0.0
1030
0.0
1010
1.0
1020
0.0
1030
0.0
1010
0.0
1020
1.0
1030
0.0
1002
}
1001
HATCHBACKGROUNDCOLOR
1071
-939524096
1000

1000

  0
LINE
  5
1C8A6
330
1B896
100
AcDbEntity
  8
CONT_S_2
100
AcDbLine
 10
4394.73681942099
 20
264.244589039314
 30
0.0
 11
4416.700622161259
 21
286.2083917795819
 31
0.0
1001
GENIUS_GENOBJ-N-HTC_13
1002
{
1000
OWNER
1000
GEN
1002
}
1001
GENIUS_GENODEF_13
1002
{
1000
HIER
1070
     0
1002
}
1002
{
1000
MANEDIT
1070
     0
1002
}
1002
{
1000
NOSEL
1070
     0
1002
}
1002
{
1000
BEHIND
1070
     0
1002
}
1002
{
1000
OTHER
1070
     0
1002
}
1002
{
1000
REACTOR
1002
}
1001
GENIUS_GENHATCH_13
1002
{
1000
DATA
1040
45.0
1042
2.5
1000
_U
1070
     0
1011
4404.292914708493
1021
275.0031827700644
1031
0.0
1002
}
1002
{
1000
UCS
1010
0.0
1020
0.0
1030
0.0
1010
1.0
1020
0.0
1030
0.0
1010
0.0
1020
1.0
1030
0.0
1002
}
1001
HATCHBACKGROUNDCOLOR
1071
-939524096
1000

1000

  0
LINE
  5
1C8A7
330
1B896
100
AcDbEntity
  8
CONT_S_2
100
AcDbLine
 10
4403.222100795228
 20
264.244589039314
 30
0.0
 11
4416.700622161259
 21
277.7231104053432
 31
0.0
1001
GENIUS_GENOBJ-N-HTC_13
1002
{
1000
OWNER
1000
GEN
1002
}
1001
GENIUS_GENODEF_13
1002
{
1000
HIER
1070
     0
1002
}
1002
{
1000
MANEDIT
1070
     0
1002
}
1002
{
1000
NOSEL
1070
     0
1002
}
1002
{
1000
BEHIND
1070
     0
1002
}
1002
{
1000
OTHER
1070
     0
1002
}
1002
{
1000
REACTOR
1002
}
1001
GENIUS_GENHATCH_13
1002
{
1000
DATA
1040
45.0
1042
2.5
1000
_U
1070
     0
1011
4404.292914708493
1021
275.0031827700644
1031
0.0
1002
}
1002
{
1000
UCS
1010
0.0
1020
0.0
1030
0.0
1010
1.0
1020
0.0
1030
0.0
1010
0.0
1020
1.0
1030
0.0
1002
}
1001
HATCHBACKGROUNDCOLOR
1071
-939524096
1000

1000

  0
LINE
  5
1C8A8
330
1B896
100
AcDbEntity
  8
CONT_S_2
100
AcDbLine
 10
4411.707382169467
 20
264.244589039314
 30
0.0
 11
4416.700622161259
 21
269.2378290311046
 31
0.0
1001
GENIUS_GENOBJ-N-HTC_13
1002
{
1000
OWNER
1000
GEN
1002
}
1001
GENIUS_GENODEF_13
1002
{
1000
HIER
1070
     0
1002
}
1002
{
1000
MANEDIT
1070
     0
1002
}
1002
{
1000
NOSEL
1070
     0
1002
}
1002
{
1000
BEHIND
1070
     0
1002
}
1002
{
1000
OTHER
1070
     0
1002
}
1002
{
1000
REACTOR
1002
}
1001
GENIUS_GENHATCH_13
1002
{
1000
DATA
1040
45.0
1042
2.5
1000
_U
1070
     0
1011
4404.292914708493
1021
275.0031827700644
1031
0.0
1002
}
1002
{
1000
UCS
1010
0.0
1020
0.0
1030
0.0
1010
1.0
1020
0.0
1030
0.0
1010
0.0
1020
1.0
1030
0.0
1002
}
1001
HATCHBACKGROUNDCOLOR
1071
-939524096
1000

1000

  0
LINE
  5
1C8A9
330
1B896
100
AcDbEntity
  8
CONT_S_2
100
AcDbLine
 10
4347.700622161259
 20
446.3109888840239
 30
0.0
 11
4351.609764219061
 21
450.2201309418262
 31
0.0
1001
GENIUS_GENOBJ-N-HTC_13
1002
{
1000
OWNER
1000
GEN
1002
}
1001
GENIUS_GENODEF_13
1002
{
1000
HIER
1070
     0
1002
}
1002
{
1000
MANEDIT
1070
     0
1002
}
1002
{
1000
NOSEL
1070
     0
1002
}
1002
{
1000
BEHIND
1070
     0
1002
}
1002
{
1000
OTHER
1070
     0
1002
}
1002
{
1000
REACTOR
1002
}
1001
GENIUS_GENHATCH_13
1002
{
1000
DATA
1040
45.0
1042
2.5
1000
_U
1070
     0
1011
4382.771445276719
1021
443.259322573049
1031
0.0
1002
}
1002
{
1000
UCS
1010
0.0
1020
0.0
1030
0.0
1010
1.0
1020
0.0
1030
0.0
1010
0.0
1020
1.0
1030
0.0
1002
}
1001
HATCHBACKGROUNDCOLOR
1071
-939524096
1000

1000

  0
LINE
  5
1C8AA
330
1B896
100
AcDbEntity
  8
CONT_S_2
100
AcDbLine
 10
4347.700622161259
 20
437.8257075097853
 30
0.0
 11
4360.095045593299
 21
450.2201309418262
 31
0.0
1001
GENIUS_GENOBJ-N-HTC_13
1002
{
1000
OWNER
1000
GEN
1002
}
1001
GENIUS_GENODEF_13
1002
{
1000
HIER
1070
     0
1002
}
1002
{
1000
MANEDIT
1070
     0
1002
}
1002
{
1000
NOSEL
1070
     0
1002
}
1002
{
1000
BEHIND
1070
     0
1002
}
1002
{
1000
OTHER
1070
     0
1002
}
1002
{
1000
REACTOR
1002
}
1001
GENIUS_GENHATCH_13
1002
{
1000
DATA
1040
45.0
1042
2.5
1000
_U
1070
     0
1011
4382.771445276719
1021
443.259322573049
1031
0.0
1002
}
1002
{
1000
UCS
1010
0.0
1020
0.0
1030
0.0
1010
1.0
1020
0.0
1030
0.0
1010
0.0
1020
1.0
1030
0.0
1002
}
1001
HATCHBACKGROUNDCOLOR
1071
-939524096
1000

1000

  0
LINE
  5
1C8AB
330
1B896
100
AcDbEntity
  8
CONT_S_2
100
AcDbLine
 10
4347.700622161259
 20
429.3404261355468
 30
0.0
 11
4368.580326967538
 21
450.2201309418262
 31
0.0
1001
GENIUS_GENOBJ-N-HTC_13
1002
{
1000
OWNER
1000
GEN
1002
}
1001
GENIUS_GENODEF_13
1002
{
1000
HIER
1070
     0
1002
}
1002
{
1000
MANEDIT
1070
     0
1002
}
1002
{
1000
NOSEL
1070
     0
1002
}
1002
{
1000
BEHIND
1070
     0
1002
}
1002
{
1000
OTHER
1070
     0
1002
}
1002
{
1000
REACTOR
1002
}
1001
GENIUS_GENHATCH_13
1002
{
1000
DATA
1040
45.0
1042
2.5
1000
_U
1070
     0
1011
4382.771445276719
1021
443.259322573049
1031
0.0
1002
}
1002
{
1000
UCS
1010
0.0
1020
0.0
1030
0.0
1010
1.0
1020
0.0
1030
0.0
1010
0.0
1020
1.0
1030
0.0
1002
}
1001
HATCHBACKGROUNDCOLOR
1071
-939524096
1000

1000

  0
LINE
  5
1C8AC
330
1B896
100
AcDbEntity
  8
CONT_S_2
100
AcDbLine
 10
4353.065608341776
 20
426.2201309418263
 30
0.0
 11
4359.200623161256
 21
432.3551457613068
 31
0.0
1001
GENIUS_GENOBJ-N-HTC_13
1002
{
1000
OWNER
1000
GEN
1002
}
1001
GENIUS_GENODEF_13
1002
{
1000
HIER
1070
     0
1002
}
1002
{
1000
MANEDIT
1070
     0
1002
}
1002
{
1000
NOSEL
1070
     0
1002
}
1002
{
1000
BEHIND
1070
     0
1002
}
1002
{
1000
OTHER
1070
     0
1002
}
1002
{
1000
REACTOR
1002
}
1001
GENIUS_GENHATCH_13
1002
{
1000
DATA
1040
45.0
1042
2.5
1000
_U
1070
     0
1011
4382.771445276719
1021
443.259322573049
1031
0.0
1002
}
1002
{
1000
UCS
1010
0.0
1020
0.0
1030
0.0
1010
1.0
1020
0.0
1030
0.0
1010
0.0
1020
1.0
1030
0.0
1002
}
1001
HATCHBACKGROUNDCOLOR
1071
-939524096
1000

1000

  0
LINE
  5
1C8AD
330
1B896
100
AcDbEntity
  8
CONT_S_2
100
AcDbLine
 10
4361.065608341776
 20
434.2201309418263
 30
0.0
 11
4377.065608341776
 21
450.2201309418262
 31
0.0
1001
GENIUS_GENOBJ-N-HTC_13
1002
{
1000
OWNER
1000
GEN
1002
}
1001
GENIUS_GENODEF_13
1002
{
1000
HIER
1070
     0
1002
}
1002
{
1000
MANEDIT
1070
     0
1002
}
1002
{
1000
NOSEL
1070
     0
1002
}
1002
{
1000
BEHIND
1070
     0
1002
}
1002
{
1000
OTHER
1070
     0
1002
}
1002
{
1000
REACTOR
1002
}
1001
GENIUS_GENHATCH_13
1002
{
1000
DATA
1040
45.0
1042
2.5
1000
_U
1070
     0
1011
4382.771445276719
1021
443.259322573049
1031
0.0
1002
}
1002
{
1000
UCS
1010
0.0
1020
0.0
1030
0.0
1010
1.0
1020
0.0
1030
0.0
1010
0.0
1020
1.0
1030
0.0
1002
}
1001
HATCHBACKGROUNDCOLOR
1071
-939524096
1000

1000

  0
LINE
  5
1C8AE
330
1B896
100
AcDbEntity
  8
CONT_S_2
100
AcDbLine
 10
4362.701633048934
 20
427.370874274745
 30
0.0
 11
4385.550889716015
 21
450.2201309418262
 31
0.0
1001
GENIUS_GENOBJ-N-HTC_13
1002
{
1000
OWNER
1000
GEN
1002
}
1001
GENIUS_GENODEF_13
1002
{
1000
HIER
1070
     0
1002
}
1002
{
1000
MANEDIT
1070
     0
1002
}
1002
{
1000
NOSEL
1070
     0
1002
}
1002
{
1000
BEHIND
1070
     0
1002
}
1002
{
1000
OTHER
1070
     0
1002
}
1002
{
1000
REACTOR
1002
}
1001
GENIUS_GENHATCH_13
1002
{
1000
DATA
1040
45.0
1042
2.5
1000
_U
1070
     0
1011
4382.771445276719
1021
443.259322573049
1031
0.0
1002
}
1002
{
1000
UCS
1010
0.0
1020
0.0
1030
0.0
1010
1.0
1020
0.0
1030
0.0
1010
0.0
1020
1.0
1030
0.0
1002
}
1001
HATCHBACKGROUNDCOLOR
1071
-939524096
1000

1000

  0
LINE
  5
1C8AF
330
1B896
100
AcDbEntity
  8
CONT_S_2
100
AcDbLine
 10
4370.036171090253
 20
426.2201309418263
 30
0.0
 11
4371.800622161257
 21
427.9845820128297
 31
0.0
1001
GENIUS_GENOBJ-N-HTC_13
1002
{
1000
OWNER
1000
GEN
1002
}
1001
GENIUS_GENODEF_13
1002
{
1000
HIER
1070
     0
1002
}
1002
{
1000
MANEDIT
1070
     0
1002
}
1002
{
1000
NOSEL
1070
     0
1002
}
1002
{
1000
BEHIND
1070
     0
1002
}
1002
{
1000
OTHER
1070
     0
1002
}
1002
{
1000
REACTOR
1002
}
1001
GENIUS_GENHATCH_13
1002
{
1000
DATA
1040
45.0
1042
2.5
1000
_U
1070
     0
1011
4382.771445276719
1021
443.259322573049
1031
0.0
1002
}
1002
{
1000
UCS
1010
0.0
1020
0.0
1030
0.0
1010
1.0
1020
0.0
1030
0.0
1010
0.0
1020
1.0
1030
0.0
1002
}
1001
HATCHBACKGROUNDCOLOR
1071
-939524096
1000

1000

  0
LINE
  5
1C8B0
330
1B896
100
AcDbEntity
  8
CONT_S_2
100
AcDbLine
 10
4375.200621161257
 20
431.3845810128308
 30
0.0
 11
4394.036171090253
 21
450.2201309418262
 31
0.0
1001
GENIUS_GENOBJ-N-HTC_13
1002
{
1000
OWNER
1000
GEN
1002
}
1001
GENIUS_GENODEF_13
1002
{
1000
HIER
1070
     0
1002
}
1002
{
1000
MANEDIT
1070
     0
1002
}
1002
{
1000
NOSEL
1070
     0
1002
}
1002
{
1000
BEHIND
1070
     0
1002
}
1002
{
1000
OTHER
1070
     0
1002
}
1002
{
1000
REACTOR
1002
}
1001
GENIUS_GENHATCH_13
1002
{
1000
DATA
1040
45.0
1042
2.5
1000
_U
1070
     0
1011
4382.771445276719
1021
443.259322573049
1031
0.0
1002
}
1002
{
1000
UCS
1010
0.0
1020
0.0
1030
0.0
1010
1.0
1020
0.0
1030
0.0
1010
0.0
1020
1.0
1030
0.0
1002
}
1001
HATCHBACKGROUNDCOLOR
1071
-939524096
1000

1000

  0
LINE
  5
1C8B1
330
1B896
100
AcDbEntity
  8
CONT_S_2
100
AcDbLine
 10
4378.521452464492
 20
426.2201309418263
 30
0.0
 11
4402.521452464491
 21
450.2201309418262
 31
0.0
1001
GENIUS_GENOBJ-N-HTC_13
1002
{
1000
OWNER
1000
GEN
1002
}
1001
GENIUS_GENODEF_13
1002
{
1000
HIER
1070
     0
1002
}
1002
{
1000
MANEDIT
1070
     0
1002
}
1002
{
1000
NOSEL
1070
     0
1002
}
1002
{
1000
BEHIND
1070
     0
1002
}
1002
{
1000
OTHER
1070
     0
1002
}
1002
{
1000
REACTOR
1002
}
1001
GENIUS_GENHATCH_13
1002
{
1000
DATA
1040
45.0
1042
2.5
1000
_U
1070
     0
1011
4382.771445276719
1021
443.259322573049
1031
0.0
1002
}
1002
{
1000
UCS
1010
0.0
1020
0.0
1030
0.0
1010
1.0
1020
0.0
1030
0.0
1010
0.0
1020
1.0
1030
0.0
1002
}
1001
HATCHBACKGROUNDCOLOR
1071
-939524096
1000

1000

  0
LINE
  5
1C8B2
330
1B896
100
AcDbEntity
  8
CONT_S_2
100
AcDbLine
 10
4387.00673383873
 20
426.2201309418263
 30
0.0
 11
4411.006733838731
 21
450.2201309418262
 31
0.0
1001
GENIUS_GENOBJ-N-HTC_13
1002
{
1000
OWNER
1000
GEN
1002
}
1001
GENIUS_GENODEF_13
1002
{
1000
HIER
1070
     0
1002
}
1002
{
1000
MANEDIT
1070
     0
1002
}
1002
{
1000
NOSEL
1070
     0
1002
}
1002
{
1000
BEHIND
1070
     0
1002
}
1002
{
1000
OTHER
1070
     0
1002
}
1002
{
1000
REACTOR
1002
}
1001
GENIUS_GENHATCH_13
1002
{
1000
DATA
1040
45.0
1042
2.5
1000
_U
1070
     0
1011
4382.771445276719
1021
443.259322573049
1031
0.0
1002
}
1002
{
1000
UCS
1010
0.0
1020
0.0
1030
0.0
1010
1.0
1020
0.0
1030
0.0
1010
0.0
1020
1.0
1030
0.0
1002
}
1001
HATCHBACKGROUNDCOLOR
1071
-939524096
1000

1000

  0
LINE
  5
1C8B3
330
1B896
100
AcDbEntity
  8
CONT_S_2
100
AcDbLine
 10
4395.492015212968
 20
426.2201309418263
 30
0.0
 11
4416.700622161259
 21
447.4287378901153
 31
0.0
1001
GENIUS_GENOBJ-N-HTC_13
1002
{
1000
OWNER
1000
GEN
1002
}
1001
GENIUS_GENODEF_13
1002
{
1000
HIER
1070
     0
1002
}
1002
{
1000
MANEDIT
1070
     0
1002
}
1002
{
1000
NOSEL
1070
     0
1002
}
1002
{
1000
BEHIND
1070
     0
1002
}
1002
{
1000
OTHER
1070
     0
1002
}
1002
{
1000
REACTOR
1002
}
1001
GENIUS_GENHATCH_13
1002
{
1000
DATA
1040
45.0
1042
2.5
1000
_U
1070
     0
1011
4382.771445276719
1021
443.259322573049
1031
0.0
1002
}
1002
{
1000
UCS
1010
0.0
1020
0.0
1030
0.0
1010
1.0
1020
0.0
1030
0.0
1010
0.0
1020
1.0
1030
0.0
1002
}
1001
HATCHBACKGROUNDCOLOR
1071
-939524096
1000

1000

  0
LINE
  5
1C8B4
330
1B896
100
AcDbEntity
  8
CONT_S_2
100
AcDbLine
 10
4403.977296587208
 20
426.2201309418263
 30
0.0
 11
4416.700622161259
 21
438.9434565158768
 31
0.0
1001
GENIUS_GENOBJ-N-HTC_13
1002
{
1000
OWNER
1000
GEN
1002
}
1001
GENIUS_GENODEF_13
1002
{
1000
HIER
1070
     0
1002
}
1002
{
1000
MANEDIT
1070
     0
1002
}
1002
{
1000
NOSEL
1070
     0
1002
}
1002
{
1000
BEHIND
1070
     0
1002
}
1002
{
1000
OTHER
1070
     0
1002
}
1002
{
1000
REACTOR
1002
}
1001
GENIUS_GENHATCH_13
1002
{
1000
DATA
1040
45.0
1042
2.5
1000
_U
1070
     0
1011
4382.771445276719
1021
443.259322573049
1031
0.0
1002
}
1002
{
1000
UCS
1010
0.0
1020
0.0
1030
0.0
1010
1.0
1020
0.0
1030
0.0
1010
0.0
1020
1.0
1030
0.0
1002
}
1001
HATCHBACKGROUNDCOLOR
1071
-939524096
1000

1000

  0
LINE
  5
1C8B5
330
1B896
100
AcDbEntity
  8
CONT_S_2
100
AcDbLine
 10
4412.462577961445
 20
426.2201309418263
 30
0.0
 11
4416.700622161259
 21
430.4581751416382
 31
0.0
1001
GENIUS_GENOBJ-N-HTC_13
1002
{
1000
OWNER
1000
GEN
1002
}
1001
GENIUS_GENODEF_13
1002
{
1000
HIER
1070
     0
1002
}
1002
{
1000
MANEDIT
1070
     0
1002
}
1002
{
1000
NOSEL
1070
     0
1002
}
1002
{
1000
BEHIND
1070
     0
1002
}
1002
{
1000
OTHER
1070
     0
1002
}
1002
{
1000
REACTOR
1002
}
1001
GENIUS_GENHATCH_13
1002
{
1000
DATA
1040
45.0
1042
2.5
1000
_U
1070
     0
1011
4382.771445276719
1021
443.259322573049
1031
0.0
1002
}
1002
{
1000
UCS
1010
0.0
1020
0.0
1030
0.0
1010
1.0
1020
0.0
1030
0.0
1010
0.0
1020
1.0
1030
0.0
1002
}
1001
HATCHBACKGROUNDCOLOR
1071
-939524096
1000

1000

  0
TEXT
  5
1C8B6
330
1B896
100
AcDbEntity
  8
AM_5
100
AcDbText
 10
4348.879193589829
 20
315.244589039314
 30
0.0
 40
6.0
  1
19.5
  7
SIMPLEX
100
AcDbText
1001
ACAD_DSTYLE_DIMINSPECT
1070
   393
1070
     0
  0
CIRCLE
  5
1C8B7
330
1B896
100
AcDbEntity
  8
AM_5
100
AcDbCircle
 10
4367.200622161258
 20
313.244589039314
 30
0.0
 40
0.5
  0
CIRCLE
  5
1C8B8
330
1B896
100
AcDbEntity
  8
AM_5
100
AcDbCircle
 10
4347.700622161259
 20
313.244589039314
 30
0.0
 40
0.5
  0
TEXT
  5
1C8B9
330
1B896
100
AcDbEntity
  8
AM_5
100
AcDbText
 10
4377.486336446973
 20
333.6661382780361
 30
0.0
 40
6.0
  1
69
  7
SIMPLEX
100
AcDbText
1001
ACAD_DSTYLE_DIMINSPECT
1070
   393
1070
     0
1001
ACAD
1000
DSTYLE
1002
{
1070
   174
1070
     1
1002
}
  0
CIRCLE
  5
1C8BA
330
1B896
100
AcDbEntity
  8
AM_5
100
AcDbCircle
 10
4416.700622161259
 20
331.6661382780361
 30
0.0
 40
0.5
  0
CIRCLE
  5
1C8BB
330
1B896
100
AcDbEntity
  8
AM_5
100
AcDbCircle
 10
4347.700622161259
 20
331.6661382780361
 30
0.0
 40
0.5
  0
TEXT
  5
1C8BC
330
1B896
100
AcDbEntity
  8
AM_5
100
AcDbText
 10
4423.700622161259
 20
333.6661382780361
 30
0.0
 40
6.0
  1
24
  7
SIMPLEX
100
AcDbText
1001
ACAD_DSTYLE_DIMINSPECT
1070
   393
1070
     0
1001
ACAD
1000
DSTYLE
1002
{
1070
   174
1070
     1
1070
    40
1040
2.0
1002
}
  0
CIRCLE
  5
1C8BD
330
1B896
100
AcDbEntity
  8
AM_5
100
AcDbCircle
 10
4440.700622161259
 20
331.6661382780361
 30
0.0
 40
0.5
  0
CIRCLE
  5
1C8BE
330
1B896
100
AcDbEntity
  8
AM_5
100
AcDbCircle
 10
4416.700622161259
 20
331.6661382780361
 30
0.0
 40
0.5
  0
TEXT
  5
1C8BF
330
1B896
100
AcDbEntity
  8
AM_5
100
AcDbText
 10
4332.700622161257
 20
253.9588747535996
 30
0.0
 40
6.0
  1
12
 50
90.0
  7
SIMPLEX
100
AcDbText
1001
ACAD_DSTYLE_DIMINSPECT
1070
   393
1070
     0
  0
CIRCLE
  5
1C8C0
330
1B896
100
AcDbEntity
  8
AM_5
100
AcDbCircle
 10
4334.700622161257
 20
264.244589039314
 30
0.0
 40
0.5
  0
CIRCLE
  5
1C8C1
330
1B896
100
AcDbEntity
  8
AM_5
100
AcDbCircle
 10
4334.700622161257
 20
252.2445890393139
 30
0.0
 40
0.5
  0
TEXT
  5
1C8C2
330
1B896
100
AcDbEntity
  8
AM_5
100
AcDbText
 10
4282.74870604739
 20
295.1178268807776
 30
0.0
 40
6.0
  1
12.5(9.5)
 50
90.0
  7
SIMPLEX
100
AcDbText
1001
ACAD_DSTYLE_DIMINSPECT
1070
   393
1070
     0
1001
ACAD
1000
DSTYLE
1002
{
1070
    76
1070
     1
1070
    75
1070
     1
1070
   174
1070
     1
1070
   170
1070
     0
1070
    72
1070
     0
1070
    71
1070
     0
1002
}
  0
CIRCLE
  5
1C8C3
330
1B896
100
AcDbEntity
  8
AM_5
100
AcDbCircle
 10
4286.748706047389
 20
289.7445890393139
 30
0.0
 40
0.5
  0
CIRCLE
  5
1C8C4
330
1B896
100
AcDbEntity
  8
AM_5
100
AcDbCircle
 10
4286.748706047389
 20
277.2445890393139
 30
0.0
 40
0.5
  0
TEXT
  5
1C8C5
330
1B896
100
AcDbEntity
  8
AM_5
100
AcDbText
 10
4284.748706047389
 20
119.1445890393139
 30
0.0
 40
6.0
  1
PB下H
 50
90.0
  7
SIMPLEX
100
AcDbText
1001
ACAD_DSTYLE_DIMINSPECT
1070
   393
1070
     0
1001
ACAD
1000
DSTYLE
1002
{
1070
    76
1070
     1
1070
    75
1070
     1
1070
    72
1070
     0
1070
    71
1070
     0
1002
}
  0
CIRCLE
  5
1C8C6
330
1B896
100
AcDbEntity
  8
AM_5
100
AcDbCircle
 10
4286.748706047389
 20
-15.75541096068593
 30
0.0
 40
0.5
  0
CIRCLE
  5
1C8C7
330
1B896
100
AcDbEntity
  8
AM_5
100
AcDbCircle
 10
4286.748706047389
 20
277.2445890393139
 30
0.0
 40
0.5
  0
TEXT
  5
1C8C8
330
1B896
100
AcDbEntity
  8
AM_5
100
AcDbText
 10
4390.843479304109
 20
147.6933495228121
 30
0.0
 40
6.0
  1
33
  7
SIMPLEX
100
AcDbText
1001
ACAD_DSTYLE_DIMINSPECT
1070
   393
1070
     0
1001
ACAD
1000
DSTYLE
1002
{
1070
   174
1070
     1
1002
}
  0
CIRCLE
  5
1C8C9
330
1B896
100
AcDbEntity
  8
AM_5
100
AcDbCircle
 10
4379.200622161259
 20
145.6933495228121
 30
0.0
 40
0.5
  0
CIRCLE
  5
1C8CA
330
1B896
100
AcDbEntity
  8
AM_5
100
AcDbCircle
 10
4412.200622161249
 20
145.6933495228121
 30
0.0
 40
0.5
  0
TEXT
  5
1C8CB
330
1B896
100
AcDbEntity
  8
AM_5
100
AcDbText
 10
4422.066920911944
 20
147.6933495228121
 30
0.0
 40
6.0
  1
4.5
  7
SIMPLEX
100
AcDbText
1001
ACAD_DSTYLE_DIMINSPECT
1070
   393
1070
     0
1001
ACAD
1000
DSTYLE
1002
{
1070
   174
1070
     1
1070
    40
1040
2.0
1002
}
  0
CIRCLE
  5
1C8CC
330
1B896
100
AcDbEntity
  8
AM_5
100
AcDbCircle
 10
4416.700622256159
 20
145.6933495228121
 30
0.0
 40
0.5
  0
CIRCLE
  5
1C8CD
330
1B896
100
AcDbEntity
  8
AM_5
100
AcDbCircle
 10
4412.200622161249
 20
145.6933495228121
 30
0.0
 40
0.5
  0
TEXT
  5
1C8CE
330
1B896
100
AcDbEntity
  8
AM_5
100
AcDbText
 10
4383.944629031343
 20
161.1528198516655
 30
0.0
 40
6.0
  1
3
  7
SIMPLEX
100
AcDbText
1001
ACAD_DSTYLE_DIMINSPECT
1070
   393
1070
     0
1001
ACAD
1000
DSTYLE
1002
{
1070
   174
1070
     1
1070
    40
1040
2.0
1002
}
  0
CIRCLE
  5
1C8CF
330
1B896
100
AcDbEntity
  8
AM_5
100
AcDbCircle
 10
4376.200622161259
 20
145.6933495228121
 30
0.0
 40
0.5
  0
CIRCLE
  5
1C8D0
330
1B896
100
AcDbEntity
  8
AM_5
100
AcDbCircle
 10
4379.200622161259
 20
145.6933495228121
 30
0.0
 40
0.5
  0
TEXT
  5
1C8D1
330
1B896
100
AcDbEntity
  8
AM_5
100
AcDbText
 10
4362.914907875544
 20
147.6933495228121
 30
0.0
 40
6.0
  1
18
  7
SIMPLEX
100
AcDbText
1001
ACAD_DSTYLE_DIMINSPECT
1070
   393
1070
     0
1001
ACAD
1000
DSTYLE
1002
{
1070
   174
1070
     1
1070
    40
1040
2.0
1002
}
  0
CIRCLE
  5
1C8D2
330
1B896
100
AcDbEntity
  8
AM_5
100
AcDbCircle
 10
4358.200622161259
 20
145.6933495228121
 30
0.0
 40
0.5
  0
CIRCLE
  5
1C8D3
330
1B896
100
AcDbEntity
  8
AM_5
100
AcDbCircle
 10
4376.200622161259
 20
145.6933495228121
 30
0.0
 40
0.5
  0
TEXT
  5
1C8D4
330
1B896
100
AcDbEntity
  8
AM_5
100
AcDbText
 10
4346.353102359766
 20
134.7047625719828
 30
0.0
 40
6.0
  1
10.5
  7
SIMPLEX
100
AcDbText
1001
ACAD_DSTYLE_DIMINSPECT
1070
   393
1070
     0
1001
ACAD
1000
DSTYLE
1002
{
1070
   174
1070
     1
1070
    40
1040
2.0
1002
}
  0
CIRCLE
  5
1C8D5
330
1B896
100
AcDbEntity
  8
AM_5
100
AcDbCircle
 10
4347.700622161259
 20
145.6933495228121
 30
0.0
 40
0.5
  0
CIRCLE
  5
1C8D6
330
1B896
100
AcDbEntity
  8
AM_5
100
AcDbCircle
 10
4358.200622161259
 20
145.6933495228121
 30
0.0
 40
0.5
  0
TEXT
  5
1C8D7
330
1B896
100
AcDbEntity
  8
AM_5
100
AcDbText
 10
4334.359888900423
 20
147.6933495228121
 30
0.0
 40
6.0
  1
3
  7
SIMPLEX
100
AcDbText
1001
ACAD_DSTYLE_DIMINSPECT
1070
   393
1070
     0
1001
ACAD
1000
DSTYLE
1002
{
1070
   174
1070
     1
1070
    40
1040
2.0
1002
}
  0
CIRCLE
  5
1C8D8
330
1B896
100
AcDbEntity
  8
AM_5
100
AcDbCircle
 10
4344.700622161258
 20
145.6933495228121
 30
0.0
 40
0.5
  0
CIRCLE
  5
1C8D9
330
1B896
100
AcDbEntity
  8
AM_5
100
AcDbCircle
 10
4347.700622161259
 20
145.6933495228121
 30
0.0
 40
0.5
  0
TEXT
  5
1C8DA
330
1B896
100
AcDbEntity
  8
AM_5
100
AcDbText
 10
4464.200622161238
 20
-14.04112524640038
 30
0.0
 40
6.0
  1
12
 50
90.0
  7
SIMPLEX
100
AcDbText
1001
ACAD_DSTYLE_DIMINSPECT
1070
   393
1070
     0
1001
ACAD
1000
DSTYLE
1002
{
1070
   174
1070
     1
1002
}
  0
CIRCLE
  5
1C8DB
330
1B896
100
AcDbEntity
  8
AM_5
100
AcDbCircle
 10
4466.200622161239
 20
-3.755410960686049
 30
0.0
 40
0.5
  0
CIRCLE
  5
1C8DC
330
1B896
100
AcDbEntity
  8
AM_5
100
AcDbCircle
 10
4466.200622161239
 20
-15.75541096068593
 30
0.0
 40
0.5
  0
TEXT
  5
1C8DD
330
1B896
100
AcDbEntity
  8
AM_5
100
AcDbText
 10
4464.200622161238
 20
89.16601761074309
 30
0.0
 40
6.0
  1
ドアH（DH）＝H-15
 50
90.0
  7
SIMPLEX
100
AcDbText
1001
ACAD_DSTYLE_DIMINSPECT
1070
   393
1070
     0
1001
ACAD
1000
DSTYLE
1002
{
1070
    72
1070
     0
1070
    71
1070
     0
1002
}
  0
CIRCLE
  5
1C8DE
330
1B896
100
AcDbEntity
  8
AM_5
100
AcDbCircle
 10
4466.200622161239
 20
261.244589039314
 30
0.0
 40
0.5
  0
CIRCLE
  5
1C8DF
330
1B896
100
AcDbEntity
  8
AM_5
100
AcDbCircle
 10
4466.200622161239
 20
-3.755410960685935
 30
0.0
 40
0.5
  0
TEXT
  5
1C8E0
330
1B896
100
AcDbEntity
  8
AM_5
100
AcDbText
 10
4464.200622161238
 20
252.1361587702837
 30
0.0
 40
6.0
  1
3
 50
90.0
  7
SIMPLEX
100
AcDbText
1001
ACAD_DSTYLE_DIMINSPECT
1070
   393
1070
     0
1001
ACAD
1000
DSTYLE
1002
{
1070
   174
1070
     1
1070
    40
1040
2.0
1002
}
  0
CIRCLE
  5
1C8E1
330
1B896
100
AcDbEntity
  8
AM_5
100
AcDbCircle
 10
4466.200622161239
 20
264.244589039214
 30
0.0
 40
0.5
  0
CIRCLE
  5
1C8E2
330
1B896
100
AcDbEntity
  8
AM_5
100
AcDbCircle
 10
4466.200622161239
 20
261.244589039314
 30
0.0
 40
0.5
  0
TEXT
  5
1C8E3
330
1B896
100
AcDbEntity
  8
AM_5
100
AcDbText
 10
4483.200622161239
 20
271.8874461821211
 30
0.0
 40
6.0
  1
25
 50
90.0
  7
SIMPLEX
100
AcDbText
1001
ACAD_DSTYLE_DIMINSPECT
1070
   393
1070
     0
1001
ACAD
1000
DSTYLE
1002
{
1070
   173
1070
     1
1002
}
  0
CIRCLE
  5
1C8E4
330
1B896
100
AcDbEntity
  8
AM_5
100
AcDbCircle
 10
4485.200622161239
 20
289.244589039314
 30
0.0
 40
0.5
  0
TEXT
  5
1C8E5
330
1B896
100
AcDbEntity
  8
AM_5
100
AcDbText
 10
4502.200622161239
 20
114.7445890393143
 30
0.0
 40
6.0
  1
WH=H+25
 50
90.0
  7
SIMPLEX
100
AcDbText
1001
ACAD_DSTYLE_DIMINSPECT
1070
   393
1070
     0
1001
ACAD
1000
DSTYLE
1002
{
1070
    72
1070
     0
1070
    71
1070
     0
1002
}
  0
CIRCLE
  5
1C8E6
330
1B896
100
AcDbEntity
  8
AM_5
100
AcDbCircle
 10
4504.200622161238
 20
289.244589039314
 30
0.0
 40
0.5
  0
CIRCLE
  5
1C8E7
330
1B896
100
AcDbEntity
  8
AM_5
100
AcDbCircle
 10
4504.200622161238
 20
-15.75541096068593
 30
0.0
 40
0.5
  0
TEXT
  5
1C8E8
330
1B896
100
AcDbEntity
  8
AM_5
100
AcDbText
 10
4502.200622161239
 20
296.5196785114873
 30
0.0
 40
6.0
  1
0.5
 50
90.0
  7
SIMPLEX
100
AcDbText
1001
ACAD_DSTYLE_DIMINSPECT
1070
   393
1070
     0
1001
ACAD
1000
DSTYLE
1002
{
1070
    76
1070
     1
1070
   174
1070
     1
1070
    40
1040
2.0
1002
}
  0
CIRCLE
  5
1C8E9
330
1B896
100
AcDbEntity
  8
AM_5
100
AcDbCircle
 10
4504.200622161238
 20
289.7445890393139
 30
0.0
 40
0.5
  0
CIRCLE
  5
1C8EA
330
1B896
100
AcDbEntity
  8
AM_5
100
AcDbCircle
 10
4504.200622161238
 20
289.244589039314
 30
0.0
 40
0.5
  0
TEXT
  5
1C8EB
330
1B896
100
AcDbEntity
  8
AM_5
100
AcDbText
 10
4608.400197668573
 20
204.3705956703476
 30
0.0
 40
6.0
  1
22.5
 50
90.0
  7
SIMPLEX
100
AcDbText
1001
ACAD_DSTYLE_DIMINSPECT
1070
   393
1070
     0
  0
CIRCLE
  5
1C8EC
330
1B896
100
AcDbEntity
  8
AM_5
100
AcDbCircle
 10
4610.400197668573
 20
226.7294950051294
 30
0.0
 40
0.5
  0
CIRCLE
  5
1C8ED
330
1B896
100
AcDbEntity
  8
AM_5
100
AcDbCircle
 10
4610.400197668573
 20
249.2294950051293
 30
0.0
 40
0.5
  0
TEXT
  5
1C8EE
330
1B896
100
AcDbEntity
  8
AM_5
100
AcDbText
 10
4593.17794114208
 20
191.99112200609
 30
0.0
 40
6.0
  1
75
 50
90.0
  7
SIMPLEX
100
AcDbText
1001
ACAD_DSTYLE_DIMINSPECT
1070
   393
1070
     0
1001
ACAD
1000
DSTYLE
1002
{
1070
   174
1070
     1
1002
}
  0
CIRCLE
  5
1C8EF
330
1B896
100
AcDbEntity
  8
AM_5
100
AcDbCircle
 10
4595.17794114208
 20
174.2294950051293
 30
0.0
 40
0.5
  0
CIRCLE
  5
1C8F0
330
1B896
100
AcDbEntity
  8
AM_5
100
AcDbCircle
 10
4595.17794114208
 20
249.2294950051293
 30
0.0
 40
0.5
  0
TEXT
  5
1C8F1
330
1B896
100
AcDbEntity
  8
AM_5
100
AcDbText
 10
4593.17794114208
 20
160.1580664337012
 30
0.0
 40
6.0
  1
21
 50
90.0
  7
SIMPLEX
100
AcDbText
1001
ACAD_DSTYLE_DIMINSPECT
1070
   393
1070
     0
1001
ACAD
1000
DSTYLE
1002
{
1070
   174
1070
     1
1070
    40
1040
2.0
1002
}
  0
CIRCLE
  5
1C8F2
330
1B896
100
AcDbEntity
  8
AM_5
100
AcDbCircle
 10
4595.17794114208
 20
153.2294950051293
 30
0.0
 40
0.5
  0
CIRCLE
  5
1C8F3
330
1B896
100
AcDbEntity
  8
AM_5
100
AcDbCircle
 10
4595.17794114208
 20
174.2294950051293
 30
0.0
 40
0.5
  0
LINE
  5
1C8F4
330
1B896
100
AcDbEntity
  8
AM_5
100
AcDbLine
 10
4608.027214826341
 20
145.2984296911379
 30
0.0
 11
4593.813671423695
 21
122.0228302135692
 31
0.0
1001
ACAD
1000
DSTYLE
1002
{
1070
    40
1040
3.0
1070
   176
1070
     4
1070
    41
1040
1.5
1070
   147
1040
1.0
1070
    77
1070
     0
1002
}
  0
LINE
  5
1C8F5
330
1B896
100
AcDbEntity
  8
AM_5
100
AcDbLine
 10
4593.813671423695
 20
122.0228302135692
 30
0.0
 11
4579.092862664198
 21
122.0228302135692
 31
0.0
1001
ACAD
1000
DSTYLE
1002
{
1070
    40
1040
3.0
1070
   176
1070
     4
1070
    41
1040
1.5
1070
   147
1040
1.0
1070
    77
1070
     0
1002
}
  0
LINE
  5
1C8F6
330
1B896
100
AcDbEntity
  8
AM_5
100
AcDbLine
 10
4608.667303840118
 20
144.9075511237507
 30
0.0
 11
4610.372486230664
 21
149.138963773797
 31
0.0
210
0.0
220
0.0
230
-1.0
  0
LINE
  5
1C8F7
330
1B896
100
AcDbEntity
  8
AM_5
100
AcDbLine
 10
4607.387125812564
 20
145.6893082585251
 30
0.0
 11
4610.372486230664
 21
149.138963773797
 31
0.0
210
0.0
220
0.0
230
-1.0
  0
LINE
  5
1C8F8
330
1B896
100
AcDbEntity
  8
AM_5
100
AcDbLine
 10
4610.372486230664
 20
149.138963773797
 30
0.0
 11
4608.027214826341
 21
145.2984296911379
 31
0.0
210
0.0
220
0.0
230
-1.0
  0
CIRCLE
  5
1C8FD
330
1B896
100
AcDbEntity
  8
AM_5
100
AcDbCircle
 10
4731.538835367878
 20
214.7294950051293
 30
0.0
 40
0.5
  0
TEXT
  5
1C8FF
330
1B896
100
AcDbEntity
  8
AM_5
100
AcDbText
 10
4729.538835367878
 20
193.3723521479866
 30
0.0
 40
6.0
  1
33
 50
90.0
  7
SIMPLEX
100
AcDbText
1001
ACAD_DSTYLE_DIMINSPECT
1070
   393
1070
     0
1001
ACAD
1000
DSTYLE
1002
{
1070
   174
1070
     1
1070
    40
1040
2.0
1002
}
  0
CIRCLE
  5
1C900
330
1B896
100
AcDbEntity
  8
AM_5
100
AcDbCircle
 10
4731.538835367878
 20
181.7294950051293
 30
0.0
 40
0.5
  0
CIRCLE
  5
1C901
330
1B896
100
AcDbEntity
  8
AM_5
100
AcDbCircle
 10
4731.538835367878
 20
214.7294950051293
 30
0.0
 40
0.5
  0
TEXT
  5
1C902
330
1B896
100
AcDbEntity
  8
AM_5
100
AcDbText
 10
4729.538835367878
 20
156.0776358223271
 30
0.0
 40
6.0
  1
7.5
 50
90.0
  7
SIMPLEX
100
AcDbText
1001
ACAD_DSTYLE_DIMINSPECT
1070
   393
1070
     0
1001
ACAD
1000
DSTYLE
1002
{
1070
   174
1070
     1
1070
    40
1040
2.0
1002
}
  0
CIRCLE
  5
1C903
330
1B896
100
AcDbEntity
  8
AM_5
100
AcDbCircle
 10
4731.538835367878
 20
174.2294950051293
 30
0.0
 40
0.5
  0
CIRCLE
  5
1C904
330
1B896
100
AcDbEntity
  8
AM_5
100
AcDbCircle
 10
4731.538835367878
 20
181.7294950051293
 30
0.0
 40
0.5
  0
TEXT
  5
1C905
330
1B896
100
AcDbEntity
  8
AM_5
100
AcDbText
 10
4754.000197668573
 20
124.6147044702796
 30
0.0
 40
6.0
  1
ドアW（DW）＝W-8
  7
SIMPLEX
100
AcDbText
1001
ACAD_DSTYLE_DIMINSPECT
1070
   393
1070
     0
1001
ACAD
1000
DSTYLE
1002
{
1070
    72
1070
     0
1070
    71
1070
     0
1002
}
  0
CIRCLE
  5
1C906
330
1B896
100
AcDbEntity
  8
AM_5
100
AcDbCircle
 10
4665.900197668572
 20
122.6147044702796
 30
0.0
 40
0.5
  0
CIRCLE
  5
1C907
330
1B896
100
AcDbEntity
  8
AM_5
100
AcDbCircle
 10
4918.400197668574
 20
122.6147044702796
 30
0.0
 40
0.5
  0
TEXT
  5
1C908
330
1B896
100
AcDbEntity
  8
AM_5
100
AcDbText
 10
4669.125717699517
 20
124.6147044702796
 30
0.0
 40
6.0
  1
4
  7
SIMPLEX
100
AcDbText
1001
ACAD_DSTYLE_DIMINSPECT
1070
   393
1070
     0
1001
ACAD
1000
DSTYLE
1002
{
1070
   174
1070
     1
1070
    40
1040
2.0
1002
}
  0
CIRCLE
  5
1C909
330
1B896
100
AcDbEntity
  8
AM_5
100
AcDbCircle
 10
4661.900197668573
 20
122.6147044702796
 30
0.0
 40
0.5
  0
CIRCLE
  5
1C90A
330
1B896
100
AcDbEntity
  8
AM_5
100
AcDbCircle
 10
4665.900197668572
 20
122.6147044702796
 30
0.0
 40
0.5
  0
TEXT
  5
1C90B
330
1B896
100
AcDbEntity
  8
AM_5
100
AcDbText
 10
4911.574934052412
 20
124.6147044702796
 30
0.0
 40
6.0
  1
4
  7
SIMPLEX
100
AcDbText
1001
ACAD_DSTYLE_DIMINSPECT
1070
   393
1070
     0
1001
ACAD
1000
DSTYLE
1002
{
1070
   174
1070
     1
1070
    40
1040
2.0
1002
}
  0
CIRCLE
  5
1C90C
330
1B896
100
AcDbEntity
  8
AM_5
100
AcDbCircle
 10
4922.400216285473
 20
122.6147044702796
 30
0.0
 40
0.5
  0
CIRCLE
  5
1C90D
330
1B896
100
AcDbEntity
  8
AM_5
100
AcDbCircle
 10
4918.400197668574
 20
122.6147044702796
 30
0.0
 40
0.5
  0
TEXT
  5
1C90E
330
1B896
100
AcDbEntity
  8
AM_5
100
AcDbText
 10
4927.007359142617
 20
105.6147044702796
 30
0.0
 40
6.0
  1
27.5
  7
SIMPLEX
100
AcDbText
1001
ACAD_DSTYLE_DIMINSPECT
1070
   393
1070
     0
1001
ACAD
1000
DSTYLE
1002
{
1070
   173
1070
     1
1070
   174
1070
     1
1070
    40
1040
2.0
1002
}
  0
CIRCLE
  5
1C90F
330
1B896
100
AcDbEntity
  8
AM_5
100
AcDbCircle
 10
4949.900216285473
 20
103.6147044702796
 30
0.0
 40
0.5
  0
TEXT
  5
1C910
330
1B896
100
AcDbEntity
  8
AM_5
100
AcDbText
 10
4639.007340525715
 20
105.6147044702796
 30
0.0
 40
6.0
  1
27.5
  7
SIMPLEX
100
AcDbText
1001
ACAD_DSTYLE_DIMINSPECT
1070
   393
1070
     0
1001
ACAD
1000
DSTYLE
1002
{
1070
   173
1070
     1
1070
   174
1070
     1
1070
    40
1040
2.0
1002
}
  0
CIRCLE
  5
1C911
330
1B896
100
AcDbEntity
  8
AM_5
100
AcDbCircle
 10
4634.400197668573
 20
103.6147044702796
 30
0.0
 40
0.5
  0
TEXT
  5
1C912
330
1B896
100
AcDbEntity
  8
AM_5
100
AcDbText
 10
4769.578778405594
 20
86.61470447027955
 30
0.0
 40
6.0
  1
WW=W+55
  7
SIMPLEX
100
AcDbText
1001
ACAD_DSTYLE_DIMINSPECT
1070
   393
1070
     0
1001
ACAD
1000
DSTYLE
1002
{
1070
    72
1070
     0
1070
    71
1070
     0
1002
}
  0
CIRCLE
  5
1C913
330
1B896
100
AcDbEntity
  8
AM_5
100
AcDbCircle
 10
4634.400197668573
 20
84.61470447027961
 30
0.0
 40
0.5
  0
CIRCLE
  5
1C914
330
1B896
100
AcDbEntity
  8
AM_5
100
AcDbCircle
 10
4949.900216285473
 20
84.61470447027954
 30
0.0
 40
0.5
  0
LINE
  5
1C915
330
1B896
100
AcDbEntity
  8
AM_5
100
AcDbLine
 10
4408.798013545015
 20
437.3220391989122
 30
0.0
 11
4444.095608110761
 21
460.182177226515
 31
0.0
1001
ACAD
1000
DSTYLE
1002
{
1070
    40
1040
3.0
1070
   176
1070
     4
1070
    41
1040
1.5
1070
   147
1040
1.0
1070
    77
1070
     0
1002
}
  0
LINE
  5
1C916
330
1B896
100
AcDbEntity
  8
AM_5
100
AcDbLine
 10
4444.095608110761
 20
460.182177226515
 30
0.0
 11
4564.341477555139
 21
460.182177226515
 31
0.0
1001
ACAD
1000
DSTYLE
1002
{
1070
    40
1040
3.0
1070
   176
1070
     4
1070
    41
1040
1.5
1070
   147
1040
1.0
1070
    77
1070
     0
1002
}
  0
LINE
  5
1C917
330
1B896
100
AcDbEntity
  8
AM_5
100
AcDbLine
 10
4408.390317187347
 20
437.951549865974
 30
0.0
 11
4405.020949542644
 21
434.8758610529069
 31
0.0
210
0.0
220
0.0
230
-1.0
  0
LINE
  5
1C918
330
1B896
100
AcDbEntity
  8
AM_5
100
AcDbLine
 10
4409.205709902682
 20
436.6925285318504
 30
0.0
 11
4405.020949542644
 21
434.8758610529069
 31
0.0
210
0.0
220
0.0
230
-1.0
  0
LINE
  5
1C919
330
1B896
100
AcDbEntity
  8
AM_5
100
AcDbLine
 10
4405.020949542644
 20
434.8758610529069
 30
0.0
 11
4408.798013545015
 21
437.3220391989122
 31
0.0
210
0.0
220
0.0
230
-1.0
  0
LINE
  5
1C91A
330
1B896
100
AcDbEntity
  8
AM_5
100
AcDbLine
 10
4407.522806517742
 20
405.5037952325852
 30
0.0
 11
4444.095608110761
 21
460.182177226515
 31
0.0
1001
ACAD
1000
DSTYLE
1002
{
1070
    40
1040
3.0
1070
   176
1070
     4
1070
    41
1040
1.5
1070
   147
1040
1.0
1070
    77
1070
     0
1002
}
  0
LINE
  5
1C91B
330
1B896
100
AcDbEntity
  8
AM_5
100
AcDbLine
 10
4444.095608110761
 20
460.182177226515
 30
0.0
 11
4564.341477555139
 21
460.182177226515
 31
0.0
1001
ACAD
1000
DSTYLE
1002
{
1070
    40
1040
3.0
1070
   176
1070
     4
1070
    41
1040
1.5
1070
   147
1040
1.0
1070
    77
1070
     0
1002
}
  0
LINE
  5
1C91C
330
1B896
100
AcDbEntity
  8
AM_5
100
AcDbLine
 10
4406.899403855015
 20
405.9207713951015
 30
0.0
 11
4405.020949542644
 21
401.763379256232
 31
0.0
210
0.0
220
0.0
230
-1.0
  0
LINE
  5
1C91D
330
1B896
100
AcDbEntity
  8
AM_5
100
AcDbLine
 10
4408.146209180467
 20
405.0868190700692
 30
0.0
 11
4405.020949542644
 21
401.763379256232
 31
0.0
210
0.0
220
0.0
230
-1.0
  0
LINE
  5
1C91E
330
1B896
100
AcDbEntity
  8
AM_5
100
AcDbLine
 10
4405.020949542644
 20
401.763379256232
 30
0.0
 11
4407.522806517742
 21
405.5037952325852
 31
0.0
210
0.0
220
0.0
230
-1.0
  0
LINE
  5
1C97D
330
1B896
100
AcDbEntity
  8
AM_2
100
AcDbLine
 10
4425.900622161239
 20
-6.755410960685935
 30
0.0
 11
4425.900622161239
 21
-12.75541093458593
 31
0.0
  0
LINE
  5
1C97E
330
1B896
100
AcDbEntity
  8
AM_2
100
AcDbLine
 10
4433.500622161239
 20
-6.755410960685935
 30
0.0
 11
4433.500622161239
 21
-12.75541093458593
 31
0.0
  0
LINE
  5
1C97F
330
1B896
100
AcDbEntity
  8
AM_2
100
AcDbLine
 10
4416.200622161239
 20
-12.75541093458593
 30
0.0
 11
4420.261124954839
 21
-12.75541093458593
 31
0.0
  0
ARC
  5
1C980
330
1B896
100
AcDbEntity
  8
AM_2
100
AcDbCircle
 10
4416.200622161239
 20
-13.75541093458593
 30
0.0
 40
1.0
100
AcDbArc
 50
90.0
 51
180.0
  0
LINE
  5
1C981
330
1B896
100
AcDbEntity
  8
AM_2
100
AcDbLine
 10
4415.200622161239
 20
-13.75541093458593
 30
0.0
 11
4415.200622161239
 21
-15.75541096068593
 31
0.0
  0
LINE
  5
1C982
330
1B896
100
AcDbEntity
  8
AM_2
100
AcDbLine
 10
4454.200621568944
 20
-13.75541086568591
 30
0.0
 11
4419.700621967539
 21
-13.75541086568591
 31
0.0
  0
LINE
  5
1C983
330
1B896
100
AcDbEntity
  8
AM_2
100
AcDbLine
 10
4415.450622202238
 20
-15.75541096068593
 30
0.0
 11
4415.950622051339
 21
-17.25541097378595
 31
0.0
  0
LINE
  5
1C984
330
1B896
100
AcDbEntity
  8
AM_2
100
AcDbLine
 10
4415.950622051339
 20
-17.25541097378595
 30
0.0
 11
4416.450622366139
 21
-15.75541096068593
 31
0.0
  0
LINE
  5
1C985
330
1B896
100
AcDbEntity
  8
AM_2
100
AcDbLine
 10
4418.450622228339
 20
-17.25541097378595
 30
0.0
 11
4418.950622310239
 21
-15.75541096068593
 31
0.0
  0
LINE
  5
1C986
330
1B896
100
AcDbEntity
  8
AM_2
100
AcDbLine
 10
4417.95062214634
 20
-15.75541096068593
 30
0.0
 11
4418.450622228339
 21
-17.25541097378595
 31
0.0
  0
LINE
  5
1C987
330
1B896
100
AcDbEntity
  8
AM_2
100
AcDbLine
 10
4415.200622161239
 20
-15.75541096068593
 30
0.0
 11
4419.700621967539
 21
-15.75541096068593
 31
0.0
  0
LINE
  5
1C988
330
1B896
100
AcDbEntity
  8
AM_2
100
AcDbLine
 10
4419.700621967539
 20
-13.75541086568591
 30
0.0
 11
4415.200622161239
 21
-13.75541086568591
 31
0.0
  0
LINE
  5
1C989
330
1B896
100
AcDbEntity
  8
AM_2
100
AcDbLine
 10
4419.726092242939
 20
-13.45489099888595
 30
0.0
 11
4419.700621967539
 21
-13.75541086568591
 31
0.0
  0
LINE
  5
1C98A
330
1B896
100
AcDbEntity
  8
AM_2
100
AcDbLine
 10
4419.797807806538
 20
-13.1888531174859
 30
0.0
 11
4419.726092242939
 21
-13.45489099888595
 31
0.0
  0
LINE
  5
1C98B
330
1B896
100
AcDbEntity
  8
AM_2
100
AcDbLine
 10
4419.911166061939
 20
-12.97091292478603
 30
0.0
 11
4419.797807806538
 21
-13.1888531174859
 31
0.0
  0
LINE
  5
1C98C
330
1B896
100
AcDbEntity
  8
AM_2
100
AcDbLine
 10
4420.068244324339
 20
-12.81500230808592
 30
0.0
 11
4419.911166061939
 21
-12.97091292478603
 31
0.0
  0
LINE
  5
1C98D
330
1B896
100
AcDbEntity
  8
AM_2
100
AcDbLine
 10
4420.25774704794
 20
-12.75542839688591
 30
0.0
 11
4420.068244324339
 21
-12.81500230808592
 31
0.0
  0
LINE
  5
1C98E
330
1B896
100
AcDbEntity
  8
AM_2
100
AcDbLine
 10
4420.261124954839
 20
-12.75541093458593
 30
0.0
 11
4420.25774704794
 21
-12.75542839688591
 31
0.0
  0
LINE
  5
1C98F
330
1B896
100
AcDbEntity
  8
AM_2
100
AcDbLine
 10
4420.261124954839
 20
-12.75541093458593
 30
0.0
 11
4453.200623267644
 21
-12.75541093458593
 31
0.0
  0
LINE
  5
1C990
330
1B896
100
AcDbEntity
  8
AM_2
100
AcDbLine
 10
4419.700621967539
 20
-15.75541096068593
 30
0.0
 11
4454.200621568944
 21
-15.75541096068593
 31
0.0
  0
LINE
  5
1C991
330
1B896
100
AcDbEntity
  8
AM_2
100
AcDbLine
 10
4419.700621967539
 20
-13.75541086568591
 30
0.0
 11
4419.700621967539
 21
-15.75541096068593
 31
0.0
  0
ARC
  5
1C992
330
1B896
100
AcDbEntity
  8
AM_2
100
AcDbCircle
 10
4453.200622145143
 20
-13.75541096068593
 30
0.0
 40
1.0
100
AcDbArc
 50
0.0
 51
90.0
  0
LINE
  5
1C993
330
1B896
100
AcDbEntity
  8
AM_2
100
AcDbLine
 10
4454.200621568944
 20
-15.75541096068593
 30
0.0
 11
4454.200621568944
 21
-13.75541086568591
 31
0.0
  0
LINE
  5
1C994
330
1B896
100
AcDbEntity
  8
AM_2
100
AcDbLine
 10
4379.200622161248
 20
-6.255410960685935
 30
0.0
 11
4379.200622161248
 21
-3.755410960685935
 31
0.0
  0
LINE
  5
1C995
330
1B896
100
AcDbEntity
  8
AM_2
100
AcDbLine
 10
4412.200622161239
 20
-5.755410960685935
 30
0.0
 11
4412.200622161239
 21
25.18707717773406
 31
0.0
  0
LINE
  5
1C996
330
1B896
100
AcDbEntity
  8
AM_2
100
AcDbLine
 10
4439.700622161068
 20
-6.755410960685935
 30
0.0
 11
4413.200622161239
 21
-6.755410960685935
 31
0.0
  0
ARC
  5
1C997
330
1B896
100
AcDbEntity
  8
AM_2
100
AcDbCircle
 10
4412.700622161248
 20
25.18707717773406
 30
0.0
 40
0.5
100
AcDbArc
 50
83.77417093668697
 51
180.0
  0
LINE
  5
1C998
330
1B896
100
AcDbEntity
  8
AM_2
100
AcDbLine
 10
4412.754845916329
 20
25.68412826603412
 30
0.0
 11
4437.917517181419
 21
22.93910958255412
 31
0.0
  0
LINE
  5
1C999
330
1B896
100
AcDbEntity
  8
AM_2
100
AcDbLine
 10
4439.700622161068
 20
20.95090522933423
 30
0.0
 11
4439.700622161068
 21
-6.755410960685935
 31
0.0
  0
ARC
  5
1C99A
330
1B896
100
AcDbEntity
  8
AM_2
100
AcDbCircle
 10
4437.700622161068
 20
20.95090522933423
 30
0.0
 40
2.0
100
AcDbArc
 50
0.0
 51
83.77417093553376
  0
LINE
  5
1C99B
330
1B896
100
AcDbEntity
  8
AM_2
100
AcDbLine
 10
4379.200622161248
 20
-6.255410960685935
 30
0.0
 11
4412.334596757458
 21
-6.255410960685935
 31
0.0
  0
ARC
  5
1C99C
330
1B896
100
AcDbEntity
  8
AM_2
100
AcDbCircle
 10
4413.200622161239
 20
-5.755410960675931
 30
0.0
 40
1.0
100
AcDbArc
 50
180.0
 51
270.0
  0
CIRCLE
  5
1C9EC
330
1B896
100
AcDbEntity
  8
AM_2
100
AcDbCircle
 10
4910.200215801123
 20
148.4794950051242
 30
0.0
 40
3.75
  0
LINE
  5
1C9ED
330
1B896
100
AcDbEntity
  8
AM_2
100
AcDbLine
 10
4910.600216285473
 20
150.0794950051242
 30
0.0
 11
4909.800216285472
 21
150.0794950051242
 31
0.0
  0
LINE
  5
1C9EE
330
1B896
100
AcDbEntity
  8
AM_2
100
AcDbLine
 10
4911.800216285473
 20
148.0794950051242
 30
0.0
 11
4911.800216285473
 21
148.8794950051242
 31
0.0
  0
LINE
  5
1C9EF
330
1B896
100
AcDbEntity
  8
AM_2
100
AcDbLine
 10
4909.800216285472
 20
146.8794950051242
 30
0.0
 11
4910.600216285473
 21
146.8794950051242
 31
0.0
  0
LINE
  5
1C9F0
330
1B896
100
AcDbEntity
  8
AM_2
100
AcDbLine
 10
4908.600216285473
 20
148.8794950051242
 30
0.0
 11
4908.600216285473
 21
148.0794950051242
 31
0.0
  0
LINE
  5
1C9F1
330
1B896
100
AcDbEntity
  8
AM_2
100
AcDbLine
 10
4910.900216285472
 20
148.8794950051242
 30
0.0
 11
4911.800216285473
 21
148.8794950051242
 31
0.0
  0
LINE
  5
1C9F2
330
1B896
100
AcDbEntity
  8
AM_2
100
AcDbLine
 10
4910.600216285473
 20
149.1794950051242
 30
0.0
 11
4910.600216285473
 21
150.0794950051242
 31
0.0
  0
ARC
  5
1C9F3
330
1B896
100
AcDbEntity
  8
AM_2
100
AcDbCircle
 10
4910.900216285472
 20
149.1794950051242
 30
0.0
 40
0.3
100
AcDbArc
 50
180.0
 51
270.0
  0
LINE
  5
1C9F4
330
1B896
100
AcDbEntity
  8
AM_2
100
AcDbLine
 10
4909.800216285472
 20
149.1794950051242
 30
0.0
 11
4909.800216285472
 21
150.0794950051242
 31
0.0
  0
LINE
  5
1C9F5
330
1B896
100
AcDbEntity
  8
AM_2
100
AcDbLine
 10
4909.500216285472
 20
148.8794950051242
 30
0.0
 11
4908.600216285473
 21
148.8794950051242
 31
0.0
  0
ARC
  5
1C9F6
330
1B896
100
AcDbEntity
  8
AM_2
100
AcDbCircle
 10
4909.500216285472
 20
149.1794950051242
 30
0.0
 40
0.3
100
AcDbArc
 50
270.0
 51
0.0
  0
LINE
  5
1C9F7
330
1B896
100
AcDbEntity
  8
AM_2
100
AcDbLine
 10
4909.800216285472
 20
147.7794950051242
 30
0.0
 11
4909.800216285472
 21
146.8794950051242
 31
0.0
  0
LINE
  5
1C9F8
330
1B896
100
AcDbEntity
  8
AM_2
100
AcDbLine
 10
4909.500216285472
 20
148.0794950051242
 30
0.0
 11
4908.600216285473
 21
148.0794950051242
 31
0.0
  0
ARC
  5
1C9F9
330
1B896
100
AcDbEntity
  8
AM_2
100
AcDbCircle
 10
4909.500216285472
 20
147.7794950051242
 30
0.0
 40
0.3
100
AcDbArc
 50
0.0
 51
90.0
  0
LINE
  5
1C9FA
330
1B896
100
AcDbEntity
  8
AM_2
100
AcDbLine
 10
4910.900216285472
 20
148.0794950051242
 30
0.0
 11
4911.800216285473
 21
148.0794950051242
 31
0.0
  0
LINE
  5
1C9FB
330
1B896
100
AcDbEntity
  8
AM_2
100
AcDbLine
 10
4910.600216285473
 20
147.7794950051242
 30
0.0
 11
4910.600216285473
 21
146.8794950051242
 31
0.0
  0
ARC
  5
1C9FC
330
1B896
100
AcDbEntity
  8
AM_2
100
AcDbCircle
 10
4910.900216285472
 20
147.7794950051242
 30
0.0
 40
0.3
100
AcDbArc
 50
90.0
 51
180.0
  0
LINE
  5
1C9FD
330
1B896
100
AcDbEntity
  8
AM_2
100
AcDbLine
 10
4901.600215801122
 20
158.3294950051242
 30
0.0
 11
4900.800215801123
 21
158.3294950051242
 31
0.0
  0
LINE
  5
1C9FE
330
1B896
100
AcDbEntity
  8
AM_2
100
AcDbLine
 10
4902.800215801123
 20
156.3294950051242
 30
0.0
 11
4902.800215801123
 21
157.1294950051242
 31
0.0
  0
LINE
  5
1C9FF
330
1B896
100
AcDbEntity
  8
AM_2
100
AcDbLine
 10
4900.800215801123
 20
155.1294950051242
 30
0.0
 11
4901.600215801122
 21
155.1294950051242
 31
0.0
  0
LINE
  5
1CA00
330
1B896
100
AcDbEntity
  8
AM_2
100
AcDbLine
 10
4899.600215801122
 20
157.1294950051242
 30
0.0
 11
4899.600215801122
 21
156.3294950051242
 31
0.0
  0
LINE
  5
1CA01
330
1B896
100
AcDbEntity
  8
AM_2
100
AcDbLine
 10
4901.900215801123
 20
157.1294950051242
 30
0.0
 11
4902.800215801123
 21
157.1294950051242
 31
0.0
  0
LINE
  5
1CA02
330
1B896
100
AcDbEntity
  8
AM_2
100
AcDbLine
 10
4901.600215801122
 20
157.4294950051243
 30
0.0
 11
4901.600215801122
 21
158.3294950051242
 31
0.0
  0
ARC
  5
1CA03
330
1B896
100
AcDbEntity
  8
AM_2
100
AcDbCircle
 10
4901.900215801123
 20
157.4294950051243
 30
0.0
 40
0.3
100
AcDbArc
 50
180.0
 51
270.0
  0
LINE
  5
1CA04
330
1B896
100
AcDbEntity
  8
AM_2
100
AcDbLine
 10
4900.800215801123
 20
157.4294950051243
 30
0.0
 11
4900.800215801123
 21
158.3294950051242
 31
0.0
  0
LINE
  5
1CA05
330
1B896
100
AcDbEntity
  8
AM_2
100
AcDbLine
 10
4900.500215801123
 20
157.1294950051242
 30
0.0
 11
4899.600215801122
 21
157.1294950051242
 31
0.0
  0
ARC
  5
1CA06
330
1B896
100
AcDbEntity
  8
AM_2
100
AcDbCircle
 10
4900.500215801123
 20
157.4294950051243
 30
0.0
 40
0.3
100
AcDbArc
 50
270.0
 51
0.0
  0
LINE
  5
1CA07
330
1B896
100
AcDbEntity
  8
AM_2
100
AcDbLine
 10
4900.800215801123
 20
156.0294950051242
 30
0.0
 11
4900.800215801123
 21
155.1294950051242
 31
0.0
  0
LINE
  5
1CA08
330
1B896
100
AcDbEntity
  8
AM_2
100
AcDbLine
 10
4900.500215801123
 20
156.3294950051242
 30
0.0
 11
4899.600215801122
 21
156.3294950051242
 31
0.0
  0
ARC
  5
1CA09
330
1B896
100
AcDbEntity
  8
AM_2
100
AcDbCircle
 10
4900.500215801123
 20
156.0294950051242
 30
0.0
 40
0.3
100
AcDbArc
 50
0.0
 51
90.0
  0
LINE
  5
1CA0A
330
1B896
100
AcDbEntity
  8
AM_2
100
AcDbLine
 10
4901.900215801123
 20
156.3294950051242
 30
0.0
 11
4902.800215801123
 21
156.3294950051242
 31
0.0
  0
LINE
  5
1CA0B
330
1B896
100
AcDbEntity
  8
AM_2
100
AcDbLine
 10
4901.600215801122
 20
156.0294950051242
 30
0.0
 11
4901.600215801122
 21
155.1294950051242
 31
0.0
  0
ARC
  5
1CA0C
330
1B896
100
AcDbEntity
  8
AM_2
100
AcDbCircle
 10
4901.900215801123
 20
156.0294950051242
 30
0.0
 40
0.3
100
AcDbArc
 50
90.0
 51
180.0
  0
LINE
  5
1CA0D
330
1B896
100
AcDbEntity
  8
AM_2
100
AcDbLine
 10
4920.800215801123
 20
156.3294950051242
 30
0.0
 11
4920.800215801123
 21
157.1294950051242
 31
0.0
  0
LINE
  5
1CA0E
330
1B896
100
AcDbEntity
  8
AM_2
100
AcDbLine
 10
4918.800215801123
 20
155.1294950051242
 30
0.0
 11
4919.600215801122
 21
155.1294950051242
 31
0.0
  0
LINE
  5
1CA0F
330
1B896
100
AcDbEntity
  8
AM_2
100
AcDbLine
 10
4919.900215801122
 20
157.1294950051242
 30
0.0
 11
4920.800215801123
 21
157.1294950051242
 31
0.0
  0
ARC
  5
1CA10
330
1B896
100
AcDbEntity
  8
AM_2
100
AcDbCircle
 10
4919.900215801122
 20
157.4294950051243
 30
0.0
 40
0.3
100
AcDbArc
 50
180.0
 51
270.0
  0
LINE
  5
1CA11
330
1B896
100
AcDbEntity
  8
AM_2
100
AcDbLine
 10
4918.800215801123
 20
156.0294950051242
 30
0.0
 11
4918.800215801123
 21
155.1294950051242
 31
0.0
  0
ARC
  5
1CA12
330
1B896
100
AcDbEntity
  8
AM_2
100
AcDbCircle
 10
4918.500215801123
 20
156.0294950051242
 30
0.0
 40
0.3
100
AcDbArc
 50
0.0
 51
90.0
  0
LINE
  5
1CA13
330
1B896
100
AcDbEntity
  8
AM_2
100
AcDbLine
 10
4919.900215801122
 20
156.3294950051242
 30
0.0
 11
4920.800215801123
 21
156.3294950051242
 31
0.0
  0
LINE
  5
1CA14
330
1B896
100
AcDbEntity
  8
AM_2
100
AcDbLine
 10
4919.600215801122
 20
156.0294950051242
 30
0.0
 11
4919.600215801122
 21
155.1294950051242
 31
0.0
  0
ARC
  5
1CA15
330
1B896
100
AcDbEntity
  8
AM_2
100
AcDbCircle
 10
4919.900215801122
 20
156.0294950051242
 30
0.0
 40
0.3
100
AcDbArc
 50
90.0
 51
180.0
  0
ARC
  5
1CA16
330
1B896
100
AcDbEntity
  8
AM_2
100
AcDbCircle
 10
4910.200215801123
 20
157.9287703675242
 30
0.0
 40
18.7
100
AcDbArc
 50
137.0278363282899
 51
54.2727480120164
  0
ARC
  5
1CA17
330
1B896
100
AcDbEntity
  8
AM_2
100
AcDbCircle
 10
4910.200215801123
 20
157.9287703675242
 30
0.0
 40
17.7
100
AcDbArc
 50
138.2978581556842
 51
50.84529794728204
  0
ARC
  5
1CA18
330
1B896
100
AcDbEntity
  8
AM_2
100
AcDbCircle
 10
4901.200215801122
 20
156.7294950051243
 30
0.0
 40
3.75
100
AcDbArc
 50
86.54530732576775
 51
333.0557031625947
  0
ARC
  5
1CA19
330
1B896
100
AcDbEntity
  8
AM_2
100
AcDbCircle
 10
4919.200215801122
 20
156.7294950051243
 30
0.0
 40
3.75
100
AcDbArc
 50
214.0090665530378
 51
58.47683335363637
  0
LINE
  5
1CA1A
330
1B896
100
AcDbEntity
  8
AM_2
100
AcDbLine
 10
4918.500215801123
 20
156.3294950051242
 30
0.0
 11
4918.099727643724
 21
156.3294950051242
 31
0.0
  0
LINE
  5
1CA1B
330
1B896
100
AcDbEntity
  8
AM_2
100
AcDbLine
 10
4919.600215801122
 20
157.4294950051243
 30
0.0
 11
4919.600215801122
 21
157.8299831625242
 31
0.0
  0
LINE
  5
1CB40
330
1B896
100
AcDbEntity
  8
OS
100
AcDbLine
 10
4419.700622161257
 20
261.7445893502139
 30
0.0
 11
4419.700622161257
 21
264.244589039214
 31
0.0
  0
LINE
  5
1CB41
330
1B896
100
AcDbEntity
  8
OS
100
AcDbLine
 10
4419.700622161257
 20
273.2445893502139
 30
0.0
 11
4419.700622161259
 21
289.744589039314
 31
0.0
  0
TEXT
  5
1CD01
330
1B896
100
AcDbEntity
  8
AM_5
100
AcDbText
 10
4831.617463829816
 20
164.6558515827853
 30
0.0
 40
6.0
  1
ピボットヒンジ
 41
0.9
100
AcDbText
  0
LINE
  5
1CD02
330
1B896
100
AcDbEntity
  8
AM_5
100
AcDbLine
 10
4891.224886923222
 20
171.4820716065392
 30
0.0
 11
4878.001164126771
 21
163.0558515827852
 31
0.0
1001
ACAD
1000
DSTYLE
1002
{
1070
    40
1040
3.0
1070
   176
1070
     4
1070
    41
1040
1.5
1070
   147
1040
1.0
1070
    77
1070
     0
1002
}
  0
LINE
  5
1CD03
330
1B896
100
AcDbEntity
  8
AM_5
100
AcDbLine
 10
4829.617463829816
 20
163.0558515827852
 30
0.0
 11
4878.001164126771
 21
163.0558515827852
 31
0.0
1001
ACAD
1000
DSTYLE
1002
{
1070
    40
1040
3.0
1070
   176
1070
     4
1070
    41
1040
1.5
1070
   147
1040
1.0
1070
    77
1070
     0
1002
}
  0
LINE
  5
1CD04
330
1B896
100
AcDbEntity
  8
AM_5
100
AcDbLine
 10
4891.63258328089
 20
170.8525609394774
 30
0.0
 11
4895.001950925593
 21
173.9282497525446
 31
0.0
210
0.0
220
0.0
230
-1.0
  0
LINE
  5
1CD05
330
1B896
100
AcDbEntity
  8
AM_5
100
AcDbLine
 10
4890.817190565554
 20
172.111582273601
 30
0.0
 11
4895.001950925593
 21
173.9282497525446
 31
0.0
210
0.0
220
0.0
230
-1.0
  0
LINE
  5
1CD06
330
1B896
100
AcDbEntity
  8
AM_5
100
AcDbLine
 10
4895.001950925593
 20
173.9282497525446
 30
0.0
 11
4891.224886923222
 21
171.4820716065392
 31
0.0
210
0.0
220
0.0
230
-1.0
  0
TEXT
  5
1CD07
330
1B896
100
AcDbEntity
  8
AM_5
100
AcDbText
 10
4858.699767848705
 20
144.8684128598443
 30
0.0
 40
6.0
  1
下受け
 41
0.9
100
AcDbText
  0
LINE
  5
1CD08
330
1B896
100
AcDbEntity
  8
AM_5
100
AcDbLine
 10
4888.519383572363
 20
150.1387018029486
 30
0.0
 11
4878.002185000505
 21
143.2684128598441
 31
0.0
1001
ACAD
1000
DSTYLE
1002
{
1070
    40
1040
3.0
1070
   176
1070
     4
1070
    41
1040
1.5
1070
   147
1040
1.0
1070
    77
1070
     0
1002
}
  0
LINE
  5
1CD09
330
1B896
100
AcDbEntity
  8
AM_5
100
AcDbLine
 10
4856.699767848705
 20
143.2684128598441
 30
0.0
 11
4878.002185000505
 21
143.2684128598441
 31
0.0
1001
ACAD
1000
DSTYLE
1002
{
1070
    40
1040
3.0
1070
   176
1070
     4
1070
    41
1040
1.5
1070
   147
1040
1.0
1070
    77
1070
     0
1002
}
  0
LINE
  5
1CD0A
330
1B896
100
AcDbEntity
  8
AM_5
100
AcDbLine
 10
4888.927079930031
 20
149.5091911358868
 30
0.0
 11
4892.296447574734
 21
152.584879948954
 31
0.0
210
0.0
220
0.0
230
-1.0
  0
LINE
  5
1CD0B
330
1B896
100
AcDbEntity
  8
AM_5
100
AcDbLine
 10
4888.111687214696
 20
150.7682124700104
 30
0.0
 11
4892.296447574734
 21
152.584879948954
 31
0.0
210
0.0
220
0.0
230
-1.0
  0
LINE
  5
1CD0C
330
1B896
100
AcDbEntity
  8
AM_5
100
AcDbLine
 10
4892.296447574734
 20
152.584879948954
 30
0.0
 11
4888.519383572363
 21
150.1387018029486
 31
0.0
210
0.0
220
0.0
230
-1.0
  0
VIEWPORT
  5
1B810
102
{ACAD_XDICTIONARY
360
1CB46
102
}
330
1B892
100
AcDbEntity
 67
     1
  8
0
100
AcDbViewport
 10
219.1102749664252
 20
32.94755905506355
 30
0.0
 40
192.1439262016693
 41
94.52341437258136
 68
     2
 69
     1
1001
ACAD
1000
MVIEW
1002
{
1070
    16
1010
0.0
1020
0.0
1030
0.0
1010
0.0
1020
0.0
1030
1.0
1040
0.0
1040
94.52341437258136
1040
219.1102749664252
1040
32.94755905506355
1040
50.0
1040
0.0
1040
0.0
1070
    16
1070
   100
1070
     1
1070
     1
1070
     0
1070
     0
1070
     0
1070
     0
1040
0.0
1040
0.0
1040
0.0
1040
10.0
1040
10.0
1040
10.0
1040
10.0
1070
     0
1002
{
1002
}
1002
}
1001
GENIUS_GENOBJ-N-SDF_13
1002
{
1000
OWNER
1000
GEN
1002
}
1001
GENIUS_GENODEF_13
1002
{
1000
HIER
1070
     0
1002
}
1002
{
1000
MANEDIT
1070
     0
1002
}
1002
{
1000
NOSEL
1070
     0
1002
}
1002
{
1000
BEHIND
1070
     0
1002
}
1002
{
1000
OTHER
1070
     0
1002
}
1002
{
1000
REACTOR
1002
}
1001
GENIUS_GENSCREG_15
1000
PF
1040
1.0
1000
DF
1040
1.0
1000
MIN
1011
123.0383118655905
1021
-14.31414813122712
1031
0.0
1000
MAX
1011
315.1822380672598
1021
80.20926624135423
1031
0.0
1000
FLAGS
1070
     2
  0
VIEWPORT
  5
1B811
102
{ACAD_XDICTIONARY
360
1CB48
102
}
330
1B892
100
AcDbEntity
 67
     1
  8
AM_0
100
AcDbViewport
 10
133.3499908447265
 20
101.5999970436096
 30
0.0
 40
429.1987358241462
 41
228.4221935424805
 68
     1
 69
     2
1001
ACAD
1000
MVIEW
1002
{
1070
    16
1010
0.0
1020
0.0
1030
0.0
1010
0.0
1020
0.0
1030
1.0
1040
0.0
1040
576.69270833791
1040
-202.0655327728323
1040
665.3552720770292
1040
50.0
1040
0.0
1040
0.0
1070
     0
1070
   100
1070
     1
1070
     1
1070
     0
1070
     0
1070
     0
1070
     0
1040
0.0
1040
0.0
1040
0.0
1040
5.0
1040
5.0
1040
20.0
1040
20.0
1070
     0
1002
{
1002
}
1002
}
1001
GENIUS_GENOBJ-N-SDF_13
1002
{
1000
OWNER
1000
GEN
1002
}
1001
GENIUS_GENODEF_13
1002
{
1000
HIER
1070
     0
1002
}
1002
{
1000
MANEDIT
1070
     0
1002
}
1002
{
1000
NOSEL
1070
     0
1002
}
1002
{
1000
BEHIND
1070
     0
1002
}
1002
{
1000
OTHER
1070
     0
1002
}
1002
{
1000
REACTOR
1002
}
1001
GENIUS_GENSCREG_15
1000
PF
1040
9.752589343509985
1000
DF
1040
1.0
1000
MIN
1011
-81.24937706734659
1021
-12.61109972763063
1031
0.0
1000
MAX
1011
347.9493587567997
1021
215.8110938148498
1031
0.0
1000
FLAGS
1070
     2
  0
ENDSEC
  0
SECTION
  2
OBJECTS
  0
DICTIONARY
  5
1B86C
330
0
100
AcDbDictionary
  3
ACAD_2007HEADERVARS_RT
350
1CB44
  3
ACAD_COLOR
350
1B88F
  3
ACAD_GROUP
350
1B86D
  3
ACAD_LAYOUT
350
1B88E
  3
ACAD_MATERIAL
350
1B870
  3
ACAD_MLINESTYLE
350
1B88B
  3
ACAD_PLOTSETTINGS
350
1B88D
  3
ACAD_TABLESTYLE
350
1B890
  3
ACAD_VISUALSTYLE
350
1B874
  3
ACMDICTIONARY
350
1B979
  3
AMG
350
1B921
  3
AMGSNAPSETTINGS
350
1B9AE
  3
DWGPROPS
350
1CB43
1001
ACAD
1000
TREAT_AS_HARD
1070
     0
  0
DICTIONARY
  5
1BB85
330
1B868
100
AcDbDictionary
  3
ACAD_XREC_ROUNDTRIP
350
1CB4A
1001
ACAD
1000
TREAT_AS_HARD
1070
     1
  0
DICTIONARY
  5
1B9CE
330
1B862
100
AcDbDictionary
  3
ACAD_LAYERFILTERS
350
1BD4D
  3
ACAD_LAYERSTATES
350
1B9CF
  3
ACLYDICTIONARY
350
1BD4C
1001
ACAD
1000
TREAT_AS_HARD
1070
     1
  0
DICTIONARY
  5
1CB51
330
1B885
100
AcDbDictionary
  3
ACAD_XREC_ROUNDTRIP
350
1CB52
1001
ACAD
1000
TREAT_AS_HARD
1070
     1
  0
DICTIONARY
  5
1CB65
330
1B905
100
AcDbDictionary
  3
ACAD_XREC_ROUNDTRIP
350
1CB66
1001
ACAD
1000
TREAT_AS_HARD
1070
     1
  0
DICTIONARY
  5
1CB67
330
1B906
100
AcDbDictionary
  3
ACAD_XREC_ROUNDTRIP
350
1CB68
1001
ACAD
1000
TREAT_AS_HARD
1070
     1
  0
DICTIONARY
  5
1CB69
330
1B907
100
AcDbDictionary
  3
ACAD_XREC_ROUNDTRIP
350
1CB6A
1001
ACAD
1000
TREAT_AS_HARD
1070
     1
  0
DICTIONARY
  5
1CB6B
330
1B908
100
AcDbDictionary
  3
ACAD_XREC_ROUNDTRIP
350
1CB6C
1001
ACAD
1000
TREAT_AS_HARD
1070
     1
  0
DICTIONARY
  5
1CB6D
330
1B909
100
AcDbDictionary
  3
ACAD_XREC_ROUNDTRIP
350
1CB6E
1001
ACAD
1000
TREAT_AS_HARD
1070
     1
  0
DICTIONARY
  5
1CB6F
330
1B90A
100
AcDbDictionary
  3
ACAD_XREC_ROUNDTRIP
350
1CB70
1001
ACAD
1000
TREAT_AS_HARD
1070
     1
  0
DICTIONARY
  5
1CB71
330
1B90B
100
AcDbDictionary
  3
ACAD_XREC_ROUNDTRIP
350
1CB72
1001
ACAD
1000
TREAT_AS_HARD
1070
     1
  0
DICTIONARY
  5
1CB73
330
1B90C
100
AcDbDictionary
  3
ACAD_XREC_ROUNDTRIP
350
1CB74
1001
ACAD
1000
TREAT_AS_HARD
1070
     1
  0
DICTIONARY
  5
1CB75
330
1B90D
100
AcDbDictionary
  3
ACAD_XREC_ROUNDTRIP
350
1CB76
1001
ACAD
1000
TREAT_AS_HARD
1070
     1
  0
DICTIONARY
  5
1CB77
330
1B90E
100
AcDbDictionary
  3
ACAD_XREC_ROUNDTRIP
350
1CB78
1001
ACAD
1000
TREAT_AS_HARD
1070
     1
  0
DICTIONARY
  5
1BA51
330
1BA50
100
AcDbDictionary
  3
ACAD_XREC_ROUNDTRIP
350
1CB79
  3
ADSK_XREC_LAYER_RECONCILED
350
1BA52
1001
ACAD
1000
TREAT_AS_HARD
1070
     1
  0
DICTIONARY
  5
1CB59
330
1B8AE
100
AcDbDictionary
  3
ACAD_XREC_ROUNDTRIP
350
1CB5A
1001
ACAD
1000
TREAT_AS_HARD
1070
     1
  0
DICTIONARY
  5
1CB5B
330
1B8AF
100
AcDbDictionary
  3
ACAD_XREC_ROUNDTRIP
350
1CB5C
1001
ACAD
1000
TREAT_AS_HARD
1070
     1
  0
DICTIONARY
  5
1CB5D
330
1B8B0
100
AcDbDictionary
  3
ACAD_XREC_ROUNDTRIP
350
1CB5E
1001
ACAD
1000
TREAT_AS_HARD
1070
     1
  0
DICTIONARY
  5
1CB5F
330
1B8B1
100
AcDbDictionary
  3
ACAD_XREC_ROUNDTRIP
350
1CB60
1001
ACAD
1000
TREAT_AS_HARD
1070
     1
  0
DICTIONARY
  5
1CB61
330
1B8B2
100
AcDbDictionary
  3
ACAD_XREC_ROUNDTRIP
350
1CB62
1001
ACAD
1000
TREAT_AS_HARD
1070
     1
  0
DICTIONARY
  5
1CB63
330
1B8B3
100
AcDbDictionary
  3
ACAD_XREC_ROUNDTRIP
350
1CB64
1001
ACAD
1000
TREAT_AS_HARD
1070
     1
  0
DICTIONARY
  5
1B9BD
330
1B896
100
AcDbDictionary
  3
ACAD_LAYOUTSELFREF
350
1CD56
  3
ACAD_SORTENTS
350
1B9BE
1001
ACAD
1000
TREAT_AS_HARD
1070
     1
  0
DICTIONARY
  5
1CD54
330
1B892
100
AcDbDictionary
  3
ACAD_LAYOUTSELFREF
350
1CD55
  0
DICTIONARY
  5
1CB46
330
1B810
100
AcDbDictionary
  3
ACAD_XREC_ROUNDTRIP
350
1CB47
1001
ACAD
1000
TREAT_AS_HARD
1070
     1
  0
DICTIONARY
  5
1CB48
330
1B811
100
AcDbDictionary
  3
ACAD_XREC_ROUNDTRIP
350
1CB49
1001
ACAD
1000
TREAT_AS_HARD
1070
     1
  0
DICTIONARY
  5
1CB44
102
{ACAD_REACTORS
330
1B86C
102
}
330
1B86C
100
AcDbDictionary
  3
DIMARCSYM
350
1CB45
1001
ACAD
1000
TREAT_AS_HARD
1070
     0
  0
DICTIONARY
  5
1B88F
102
{ACAD_REACTORS
330
1B86C
102
}
330
1B86C
100
AcDbDictionary
1001
ACAD
1000
TREAT_AS_HARD
1070
     0
  0
DICTIONARY
  5
1B86D
102
{ACAD_REACTORS
330
1B86C
102
}
330
1B86C
100
AcDbDictionary
1001
ACAD
1000
TREAT_AS_HARD
1070
     0
  0
DICTIONARY
  5
1B88E
102
{ACAD_REACTORS
330
1B86C
102
}
330
1B86C
100
AcDbDictionary
1001
ACAD
1000
TREAT_AS_HARD
1070
     0
  0
DICTIONARY
  5
1B870
102
{ACAD_REACTORS
330
1B86C
102
}
330
1B86C
100
AcDbDictionary
  3
BYBLOCK
350
1B872
  3
BYLAYER
350
1B871
  3
GLOBAL
350
1B873
1001
ACAD
1000
TREAT_AS_HARD
1070
     0
  0
DICTIONARY
  5
1B88B
102
{ACAD_REACTORS
330
1B86C
102
}
330
1B86C
100
AcDbDictionary
  3
STANDARD
350
1B88C
1001
ACAD
1000
TREAT_AS_HARD
1070
     0
  0
DICTIONARY
  5
1B88D
102
{ACAD_REACTORS
330
1B86C
102
}
330
1B86C
100
AcDbDictionary
1001
ACAD
1000
TREAT_AS_HARD
1070
     0
  0
DICTIONARY
  5
1B890
102
{ACAD_REACTORS
330
1B86C
102
}
330
1B86C
100
AcDbDictionary
  3
STANDARD
350
1B891
1001
ACAD
1000
TREAT_AS_HARD
1070
     0
  0
DICTIONARY
  5
1B874
102
{ACAD_REACTORS
330
1B86C
102
}
330
1B86C
100
AcDbDictionary
  3
2DWIREFRAME
350
1B87A
  3
3D_HIDDEN
350
1B87C
  3
3DWIREFRAME
350
1B87B
  3
BASIC
350
1B879
  3
BRIGHTEN
350
1B880
  3
COLORCHANGE
350
1B884
  3
CONCEPTUAL
350
1B87D
  3
DIM
350
1B87F
  3
FACEPATTERN
350
1B883
  3
FLAT
350
1B875
  3
FLATWITHEDGES
350
1B876
  3
GOURAUD
350
1B877
  3
GOURAUDWITHEDGES
350
1B878
  3
LINEPATTERN
350
1B882
  3
REALISTIC
350
1B87E
  3
THICKEN
350
1B881
1001
ACAD
1000
TREAT_AS_HARD
1070
     0
  0
DICTIONARY
  5
1B979
102
{ACAD_REACTORS
330
1B86C
102
}
330
1B86C
100
AcDbDictionary
  3
ACMSTDDICTIONARY
350
1B984
  3
AMDTSECTSYM_ARROWCOLOR
350
1B99D
1001
ACAD
1000
TREAT_AS_HARD
1070
     0
  0
DICTIONARY
  5
1B921
102
{ACAD_REACTORS
330
1B86C
102
}
330
1B86C
100
AcDbDictionary
1001
ACAD
1000
TREAT_AS_HARD
1070
     0
  0
DICTIONARY
  5
1B9AE
102
{ACAD_REACTORS
330
1B86C
102
}
330
1B86C
100
AcDbDictionary
1001
ACAD
1000
TREAT_AS_HARD
1070
     0
  0
XRECORD
  5
1CB43
102
{ACAD_REACTORS
330
1B86C
102
}
330
1B86C
100
AcDbXrecord
  1
DWGPROPS COOKIE
  2

  3

  4

  6

  7

  8
c-ikeda
  9

300
=
301
=
302
=
303
=
304
=
305
=
306
=
307
=
308
=
309
=
 40
0.8590511689814814
 41
2454489.086194294
 42
2460349.60162941
  1

 90
        0
  0
XRECORD
  5
1CB4A
102
{ACAD_REACTORS
330
1BB85
102
}
330
1BB85
100
AcDbXrecord
102
VTR_0.000_0.000_1.000_1.000_VISUALSTYLE
340
1B87A
102
VTR_0.000_0.000_1.000_1.000_GRIDDISPLAY
 70
     3
102
VTR_0.000_0.000_1.000_1.000_GRIDMAJOR
 70
     5
102
VTR_0.000_0.000_1.000_1.000_DEFAULTLIGHTING
280
     1
102
VTR_0.000_0.000_1.000_1.000_DEFAULTLIGHTINGTYPE
 70
     0
102
VTR_0.000_0.000_1.000_1.000_BRIGHTNESS
141
0.0
102
VTR_0.000_0.000_1.000_1.000_CONTRAST
142
0.0
  0
DICTIONARY
  5
1BD4D
102
{ACAD_REACTORS
330
1B9CE
102
}
330
1B9CE
100
AcDbDictionary
1001
ACAD
1000
TREAT_AS_HARD
1070
     0
  0
DICTIONARY
  5
1B9CF
102
{ACAD_REACTORS
330
1B9CE
102
}
330
1B9CE
100
AcDbDictionary
1001
ACAD
1000
TREAT_AS_HARD
1070
     0
  0
DICTIONARY
  5
1BD4C
102
{ACAD_REACTORS
330
1B9CE
102
}
330
1B9CE
100
AcDbDictionary
1001
ACAD
1000
<All
1000
TREAT_AS_HARD
1070
     0
  0
XRECORD
  5
1CB52
102
{ACAD_REACTORS
330
1CB51
102
}
330
1CB51
100
AcDbXrecord
102
MATERIAL
340
1B873
  0
XRECORD
  5
1CB66
102
{ACAD_REACTORS
330
1CB65
102
}
330
1CB65
100
AcDbXrecord
102
MATERIAL
340
1B873
  0
XRECORD
  5
1CB68
102
{ACAD_REACTORS
330
1CB67
102
}
330
1CB67
100
AcDbXrecord
102
MATERIAL
340
1B873
  0
XRECORD
  5
1CB6A
102
{ACAD_REACTORS
330
1CB69
102
}
330
1CB69
100
AcDbXrecord
102
MATERIAL
340
1B873
  0
XRECORD
  5
1CB6C
102
{ACAD_REACTORS
330
1CB6B
102
}
330
1CB6B
100
AcDbXrecord
102
MATERIAL
340
1B873
  0
XRECORD
  5
1CB6E
102
{ACAD_REACTORS
330
1CB6D
102
}
330
1CB6D
100
AcDbXrecord
102
MATERIAL
340
1B873
  0
XRECORD
  5
1CB70
102
{ACAD_REACTORS
330
1CB6F
102
}
330
1CB6F
100
AcDbXrecord
102
MATERIAL
340
1B873
  0
XRECORD
  5
1CB72
102
{ACAD_REACTORS
330
1CB71
102
}
330
1CB71
100
AcDbXrecord
102
MATERIAL
340
1B873
  0
XRECORD
  5
1CB74
102
{ACAD_REACTORS
330
1CB73
102
}
330
1CB73
100
AcDbXrecord
102
MATERIAL
340
1B873
  0
XRECORD
  5
1CB76
102
{ACAD_REACTORS
330
1CB75
102
}
330
1CB75
100
AcDbXrecord
102
MATERIAL
340
1B873
  0
XRECORD
  5
1CB78
102
{ACAD_REACTORS
330
1CB77
102
}
330
1CB77
100
AcDbXrecord
102
MATERIAL
340
1B873
  0
XRECORD
  5
1CB79
102
{ACAD_REACTORS
330
1BA51
102
}
330
1BA51
100
AcDbXrecord
102
MATERIAL
340
1B873
  0
XRECORD
  5
1BA52
102
{ACAD_REACTORS
330
1BA51
102
}
330
1BA51
100
AcDbXrecord
290
     0
  0
XRECORD
  5
1CB5A
102
{ACAD_REACTORS
330
1CB59
102
}
330
1CB59
100
AcDbXrecord
102
CAMERAPLOTTABLE
 70
     0
102
VISUALSTYLENONE
 70
     1
  0
XRECORD
  5
1CB5C
102
{ACAD_REACTORS
330
1CB5B
102
}
330
1CB5B
100
AcDbXrecord
102
CAMERAPLOTTABLE
 70
     0
102
VISUALSTYLENONE
 70
     1
  0
XRECORD
  5
1CB5E
102
{ACAD_REACTORS
330
1CB5D
102
}
330
1CB5D
100
AcDbXrecord
102
CAMERAPLOTTABLE
 70
     0
102
VISUALSTYLENONE
 70
     1
  0
XRECORD
  5
1CB60
102
{ACAD_REACTORS
330
1CB5F
102
}
330
1CB5F
100
AcDbXrecord
102
CAMERAPLOTTABLE
 70
     0
102
VISUALSTYLENONE
 70
     1
  0
XRECORD
  5
1CB62
102
{ACAD_REACTORS
330
1CB61
102
}
330
1CB61
100
AcDbXrecord
102
CAMERAPLOTTABLE
 70
     0
102
VISUALSTYLENONE
 70
     1
  0
XRECORD
  5
1CB64
102
{ACAD_REACTORS
330
1CB63
102
}
330
1CB63
100
AcDbXrecord
102
CAMERAPLOTTABLE
 70
     0
102
VISUALSTYLENONE
 70
     1
  0
XRECORD
  5
1CD56
102
{ACAD_REACTORS
330
1B9BD
102
}
330
1B9BD
100
AcDbXrecord
340
1B896
  0
SORTENTSTABLE
  5
1B9BE
102
{ACAD_REACTORS
330
1B9BD
102
}
330
1B9BD
100
AcDbSortentsTable
330
1B896
331
1B5F1
  5
1B5F3
331
1C980
  5
1C980
331
1C909
  5
1C909
331
1C8EA
  5
1C8EA
331
1C8B4
  5
1C8B4
331
1C895
  5
1C895
331
1C840
  5
1C840
331
1C821
  5
1C821
331
1C802
  5
1C802
331
1C7CC
  5
1C7CC
331
1C7AD
  5
1C7AD
331
1C758
  5
1C758
331
1C71A
  5
1C71A
331
1C6E4
  5
1C6E4
331
1C6A6
  5
1C6A6
331
1C6C5
  5
1C6C5
331
1C739
  5
1C739
331
1C777
  5
1C777
331
1C78E
  5
1C78E
331
1C7EB
  5
1C7EB
331
1C85F
  5
1C85F
331
1C8D3
  5
1C8D3
331
1C9FE
  5
1C9FE
331
1B5F2
  5
1B5F4
331
1C981
  5
1C981
331
1C90A
  5
1C90A
331
1C8EB
  5
1C8EB
331
1C8B5
  5
1C8B5
331
1C896
  5
1C896
331
1C877
  5
1C877
331
1C822
  5
1C822
331
1C803
  5
1C803
331
1C7CD
  5
1C7CD
331
1C7AE
  5
1C7AE
331
1C759
  5
1C759
331
1C73A
  5
1C73A
331
1C6E5
  5
1C6E5
331
1C6C6
  5
1C6C6
331
1C6A7
  5
1C6A7
331
1C71B
  5
1C71B
331
1C78F
  5
1C78F
331
1C7EC
  5
1C7EC
331
1C841
  5
1C841
331
1C860
  5
1C860
331
1C8D4
  5
1C8D4
331
1C9FF
  5
1C9FF
331
1B5F3
  5
1B5F5
331
1C90B
  5
1C90B
331
1C8EC
  5
1C8EC
331
1C897
  5
1C897
331
1C878
  5
1C878
331
1C842
  5
1C842
331
1C804
  5
1C804
331
1C7AF
  5
1C7AF
331
1C73B
  5
1C73B
331
1C71C
  5
1C71C
331
1C6E6
  5
1C6E6
331
1C6C7
  5
1C6C7
331
1C75A
  5
1C75A
331
1C790
  5
1C790
331
1C7CE
  5
1C7CE
331
1C7ED
  5
1C7ED
331
1C823
  5
1C823
331
1C861
  5
1C861
331
1C8B6
  5
1C8B6
331
1C8D5
  5
1C8D5
331
1C982
  5
1C982
331
1CA00
  5
1CA00
331
1B5F4
  5
1B5F6
331
1C983
  5
1C983
331
1C8ED
  5
1C8ED
331
1C8B7
  5
1C8B7
331
1C898
  5
1C898
331
1C879
  5
1C879
331
1C843
  5
1C843
331
1C824
  5
1C824
331
1C805
  5
1C805
331
1C7CF
  5
1C7CF
331
1C75B
  5
1C75B
331
1C71D
  5
1C71D
331
1C6E7
  5
1C6E7
331
1C73C
  5
1C73C
331
1C791
  5
1C791
331
1C7B0
  5
1C7B0
331
1C7EE
  5
1C7EE
331
1C862
  5
1C862
331
1C8D6
  5
1C8D6
331
1C90C
  5
1C90C
331
1CA01
  5
1CA01
331
1CB40
  5
1CB40
331
1B5F5
  5
1B5F7
331
1C984
  5
1C984
331
1C90D
  5
1C90D
331
1C8EE
  5
1C8EE
331
1C899
  5
1C899
331
1C87A
  5
1C87A
331
1C844
  5
1C844
331
1C825
  5
1C825
331
1C806
  5
1C806
331
1C7D0
  5
1C7D0
331
1C7B1
  5
1C7B1
331
1C75C
  5
1C75C
331
1C73D
  5
1C73D
331
1C71E
  5
1C71E
331
1C792
  5
1C792
331
1C7EF
  5
1C7EF
331
1C863
  5
1C863
331
1C8B8
  5
1C8B8
331
1C8D7
  5
1C8D7
331
1CA02
  5
1CA02
331
1CB41
  5
1CB41
331
1B5F6
  5
1B5F8
331
1CA03
  5
1CA03
331
1C90E
  5
1C90E
331
1C8EF
  5
1C8EF
331
1C8B9
  5
1C8B9
331
1C87B
  5
1C87B
331
1C826
  5
1C826
331
1C807
  5
1C807
331
1C7B2
  5
1C7B2
331
1C75D
  5
1C75D
331
1C73E
  5
1C73E
331
1C71F
  5
1C71F
331
1C793
  5
1C793
331
1C7D1
  5
1C7D1
331
1C845
  5
1C845
331
1C864
  5
1C864
331
1C89A
  5
1C89A
331
1C8D8
  5
1C8D8
331
1C985
  5
1C985
331
1C9EC
  5
1C9EC
331
1B5F7
  5
1B5F9
331
1CA04
  5
1CA04
331
1C986
  5
1C986
331
1C90F
  5
1C90F
331
1C8F0
  5
1C8F0
331
1C8BA
  5
1C8BA
331
1C89B
  5
1C89B
331
1C87C
  5
1C87C
331
1C846
  5
1C846
331
1C808
  5
1C808
331
1C7D2
  5
1C7D2
331
1C73F
  5
1C73F
331
1C75E
  5
1C75E
331
1C794
  5
1C794
331
1C7B3
  5
1C7B3
331
1C827
  5
1C827
331
1C865
  5
1C865
331
1C8D9
  5
1C8D9
331
1C9ED
  5
1C9ED
331
1B5F8
  5
1B5FA
331
1CA05
  5
1CA05
331
1C987
  5
1C987
331
1C910
  5
1C910
331
1C8F1
  5
1C8F1
331
1C8BB
  5
1C8BB
331
1C89C
  5
1C89C
331
1C87D
  5
1C87D
331
1C847
  5
1C847
331
1C828
  5
1C828
331
1C7D3
  5
1C7D3
331
1C7B4
  5
1C7B4
331
1C75F
  5
1C75F
331
1C795
  5
1C795
331
1C809
  5
1C809
331
1C866
  5
1C866
331
1C8DA
  5
1C8DA
331
1C9EE
  5
1C9EE
331
1B5F9
  5
1B5FB
331
1CA06
  5
1CA06
331
1C988
  5
1C988
331
1C8F2
  5
1C8F2
331
1C89D
  5
1C89D
331
1C87E
  5
1C87E
331
1C829
  5
1C829
331
1C80A
  5
1C80A
331
1C7D4
  5
1C7D4
331
1C7B5
  5
1C7B5
331
1C796
  5
1C796
331
1C848
  5
1C848
331
1C867
  5
1C867
331
1C8BC
  5
1C8BC
331
1C8DB
  5
1C8DB
331
1C911
  5
1C911
331
1C9EF
  5
1C9EF
331
1CA07
  5
1CA07
331
1C989
  5
1C989
331
1C912
  5
1C912
331
1C8F3
  5
1C8F3
331
1C8BD
  5
1C8BD
331
1C87F
  5
1C87F
331
1C849
  5
1C849
331
1C80B
  5
1C80B
331
1C7B6
  5
1C7B6
331
1C797
  5
1C797
331
1C7D5
  5
1C7D5
331
1C82A
  5
1C82A
331
1C89E
  5
1C89E
331
1C8DC
  5
1C8DC
331
1C9F0
  5
1C9F0
331
1CA08
  5
1CA08
331
1C98A
  5
1C98A
331
1C913
  5
1C913
331
1C8F4
  5
1C8F4
331
1C8BE
  5
1C8BE
331
1C84A
  5
1C84A
331
1C7D6
  5
1C7D6
331
1C7B7
  5
1C7B7
331
1C80C
  5
1C80C
331
1C89F
  5
1C89F
331
1C8DD
  5
1C8DD
331
1C9F1
  5
1C9F1
331
1CA09
  5
1CA09
331
1C914
  5
1C914
331
1C8F5
  5
1C8F5
331
1C8A0
  5
1C8A0
331
1C84B
  5
1C84B
331
1C80D
  5
1C80D
331
1C7D7
  5
1C7D7
331
1C8BF
  5
1C8BF
331
1C8DE
  5
1C8DE
331
1C98B
  5
1C98B
331
1C9F2
  5
1C9F2
331
1B5DE
  5
1B5E0
331
1CA0A
  5
1CA0A
331
1C98C
  5
1C98C
331
1C8F6
  5
1C8F6
331
1C8C0
  5
1C8C0
331
1C882
  5
1C882
331
1C80E
  5
1C80E
331
1C84C
  5
1C84C
331
1C8A1
  5
1C8A1
331
1C8DF
  5
1C8DF
331
1C915
  5
1C915
331
1C9F3
  5
1C9F3
331
1B5DF
  5
1B5E1
331
1CA0B
  5
1CA0B
331
1C98D
  5
1C98D
331
1C916
  5
1C916
331
1C8C1
  5
1C8C1
331
1C8A2
  5
1C8A2
331
1C84D
  5
1C84D
331
1C80F
  5
1C80F
331
1C82E
  5
1C82E
331
1C883
  5
1C883
331
1C8F7
  5
1C8F7
331
1C9F4
  5
1C9F4
331
1B5E0
  5
1B5E2
331
1CA0C
  5
1CA0C
331
1C917
  5
1C917
331
1C8F8
  5
1C8F8
331
1C8C2
  5
1C8C2
331
1C8A3
  5
1C8A3
331
1C884
  5
1C884
331
1C84E
  5
1C84E
331
1C98E
  5
1C98E
331
1C9F5
  5
1C9F5
331
1B5E1
  5
1B5E3
331
1C9F6
  5
1C9F6
331
1C98F
  5
1C98F
331
1C8A4
  5
1C8A4
331
1C885
  5
1C885
331
1C84F
  5
1C84F
331
1C8C3
  5
1C8C3
331
1C918
  5
1C918
331
1CA0D
  5
1CA0D
331
1B5E2
  5
1B5E4
331
1C9F7
  5
1C9F7
331
1C990
  5
1C990
331
1C919
  5
1C919
331
1C8C4
  5
1C8C4
331
1C886
  5
1C886
331
1C8A5
  5
1C8A5
331
1CA0E
  5
1CA0E
331
1B5E3
  5
1B5E5
331
1CA0F
  5
1CA0F
331
1C991
  5
1C991
331
1C91A
  5
1C91A
331
1C8C5
  5
1C8C5
331
1C8A6
  5
1C8A6
331
1C887
  5
1C887
331
1B5E4
  5
1B5E6
331
1CA10
  5
1CA10
331
1C91B
  5
1C91B
331
1C8A7
  5
1C8A7
331
1C8C6
  5
1C8C6
331
1C992
  5
1C992
331
1B5E5
  5
1B5E7
331
1C4C0
  5
1C4C0
331
1CA11
  5
1CA11
331
1C993
  5
1C993
331
1C8FD
  5
1C8FD
331
1C8C7
  5
1C8C7
331
1C91C
  5
1C91C
331
1C4E0
  5
1C4E0
331
1B5E6
  5
1B5E8
331
1C4C1
  5
1C4C1
331
1C994
  5
1C994
331
1C91D
  5
1C91D
331
1CA12
  5
1CA12
331
1C500
  5
1C500
331
1B5E7
  5
1B5E9
331
1C4C2
  5
1C4C2
331
1C4E1
  5
1C4E1
331
1CA13
  5
1CA13
331
1C91E
  5
1C91E
331
1C8FF
  5
1C8FF
331
1C995
  5
1C995
331
1C518
  5
1C518
331
1C501
  5
1C501
331
1C4E2
  5
1C4E2
331
1C4C3
  5
1C4C3
331
1CA14
  5
1CA14
331
1C996
  5
1C996
331
1C538
  5
1C538
331
1C502
  5
1C502
331
1C4E3
  5
1C4E3
331
1C4C4
  5
1C4C4
331
1C519
  5
1C519
331
1C997
  5
1C997
331
1CA15
  5
1CA15
331
1C539
  5
1C539
331
1C51A
  5
1C51A
331
1C4E4
  5
1C4E4
331
1C4C5
  5
1C4C5
331
1C503
  5
1C503
331
1C558
  5
1C558
331
1CA16
  5
1CA16
331
1C578
  5
1C578
331
1C559
  5
1C559
331
1C51B
  5
1C51B
331
1C504
  5
1C504
331
1C4C6
  5
1C4C6
331
1C4E5
  5
1C4E5
331
1C53A
  5
1C53A
331
1CA17
  5
1CA17
331
1C590
  5
1C590
331
1C579
  5
1C579
331
1C55A
  5
1C55A
331
1C53B
  5
1C53B
331
1C505
  5
1C505
331
1C4E6
  5
1C4E6
331
1C4C7
  5
1C4C7
331
1C51C
  5
1C51C
331
1C5B0
  5
1C5B0
331
1C591
  5
1C591
331
1C55B
  5
1C55B
331
1C53C
  5
1C53C
331
1C51D
  5
1C51D
331
1C4E7
  5
1C4E7
331
1C4C8
  5
1C4C8
331
1C506
  5
1C506
331
1C57A
  5
1C57A
331
1C592
  5
1C592
331
1C5B1
  5
1C5B1
331
1C5D0
  5
1C5D0
331
1C57B
  5
1C57B
331
1C53D
  5
1C53D
331
1C51E
  5
1C51E
331
1C507
  5
1C507
331
1C4C9
  5
1C4C9
331
1C4E8
  5
1C4E8
331
1C55C
  5
1C55C
331
1C5B2
  5
1C5B2
331
1C593
  5
1C593
331
1C5D1
  5
1C5D1
331
1C5F0
  5
1C5F0
331
1C57C
  5
1C57C
331
1C55D
  5
1C55D
331
1C508
  5
1C508
331
1C4E9
  5
1C4E9
331
1C4CA
  5
1C4CA
331
1C51F
  5
1C51F
331
1C53E
  5
1C53E
331
1C5B3
  5
1C5B3
331
1C594
  5
1C594
331
1C5D2
  5
1C5D2
331
1C5F1
  5
1C5F1
331
1C608
  5
1C608
331
1C55E
  5
1C55E
331
1C53F
  5
1C53F
331
1C509
  5
1C509
331
1C4EA
  5
1C4EA
331
1C4CB
  5
1C4CB
331
1C520
  5
1C520
331
1C57D
  5
1C57D
331
1C5B4
  5
1C5B4
331
1C595
  5
1C595
331
1C5D3
  5
1C5D3
331
1C5F2
  5
1C5F2
331
1C609
  5
1C609
331
1C630
  5
1C630
331
1C57E
  5
1C57E
331
1C540
  5
1C540
331
1C50A
  5
1C50A
331
1C4EB
  5
1C4EB
331
1C4CC
  5
1C4CC
331
1C521
  5
1C521
331
1C55F
  5
1C55F
331
1C596
  5
1C596
331
1C5B5
  5
1C5B5
331
1C5D4
  5
1C5D4
331
1C5F3
  5
1C5F3
331
1C60A
  5
1C60A
331
1C631
  5
1C631
331
1C650
  5
1C650
331
1C57F
  5
1C57F
331
1C560
  5
1C560
331
1C50B
  5
1C50B
331
1C4CD
  5
1C4CD
331
1C4EC
  5
1C4EC
331
1C522
  5
1C522
331
1C541
  5
1C541
331
1C5B6
  5
1C5B6
331
1C597
  5
1C597
331
1C5D5
  5
1C5D5
331
1C5F4
  5
1C5F4
331
1C60B
  5
1C60B
331
1C632
  5
1C632
331
1C651
  5
1C651
331
1C670
  5
1C670
331
1C580
  5
1C580
331
1C561
  5
1C561
331
1C542
  5
1C542
331
1C50C
  5
1C50C
331
1C4ED
  5
1C4ED
331
1C4CE
  5
1C4CE
331
1C523
  5
1C523
331
1C5B7
  5
1C5B7
331
1C598
  5
1C598
331
1C5D6
  5
1C5D6
331
1C5F5
  5
1C5F5
331
1C60C
  5
1C60C
331
1C633
  5
1C633
331
1C652
  5
1C652
331
1C671
  5
1C671
331
1C688
  5
1C688
331
1C581
  5
1C581
331
1C562
  5
1C562
331
1C543
  5
1C543
331
1C50D
  5
1C50D
331
1C4EE
  5
1C4EE
331
1C4CF
  5
1C4CF
331
1C524
  5
1C524
331
1C6A8
  5
1C6A8
331
1C599
  5
1C599
331
1C5B8
  5
1C5B8
331
1C5D7
  5
1C5D7
331
1C5F6
  5
1C5F6
331
1C60D
  5
1C60D
331
1C634
  5
1C634
331
1C653
  5
1C653
331
1C672
  5
1C672
331
1C689
  5
1C689
331
1C582
  5
1C582
331
1C544
  5
1C544
331
1C50E
  5
1C50E
331
1C4D0
  5
1C4D0
331
1C4EF
  5
1C4EF
331
1C525
  5
1C525
331
1C563
  5
1C563
331
1C6C8
  5
1C6C8
331
1C6A9
  5
1C6A9
331
1C5B9
  5
1C5B9
331
1C59A
  5
1C59A
331
1C5D8
  5
1C5D8
331
1C5F7
  5
1C5F7
331
1C60E
  5
1C60E
331
1C635
  5
1C635
331
1C654
  5
1C654
331
1C673
  5
1C673
331
1C68A
  5
1C68A
331
1C583
  5
1C583
331
1C564
  5
1C564
331
1C4F0
  5
1C4F0
331
1C4D1
  5
1C4D1
331
1C50F
  5
1C50F
331
1C526
  5
1C526
331
1C545
  5
1C545
331
1C6E8
  5
1C6E8
331
1C6AA
  5
1C6AA
331
1C5F8
  5
1C5F8
331
1C5BA
  5
1C5BA
331
1C59B
  5
1C59B
331
1C5D9
  5
1C5D9
331
1C60F
  5
1C60F
331
1C636
  5
1C636
331
1C655
  5
1C655
331
1C674
  5
1C674
331
1C68B
  5
1C68B
331
1C6C9
  5
1C6C9
331
1C584
  5
1C584
331
1C565
  5
1C565
331
1C546
  5
1C546
331
1C4D2
  5
1C4D2
331
1C4F1
  5
1C4F1
331
1C510
  5
1C510
331
1C527
  5
1C527
331
1C6E9
  5
1C6E9
331
1C6CA
  5
1C6CA
331
1C5F9
  5
1C5F9
331
1C5BB
  5
1C5BB
331
1C59C
  5
1C59C
331
1C5DA
  5
1C5DA
331
1C610
  5
1C610
331
1C637
  5
1C637
331
1C656
  5
1C656
331
1C675
  5
1C675
331
1C68C
  5
1C68C
331
1C6AB
  5
1C6AB
331
1C700
  5
1C700
331
1C585
  5
1C585
331
1C528
  5
1C528
331
1C4F2
  5
1C4F2
331
1C4D3
  5
1C4D3
331
1C511
  5
1C511
331
1C547
  5
1C547
331
1C566
  5
1C566
331
1C720
  5
1C720
331
1C701
  5
1C701
331
1C6CB
  5
1C6CB
331
1C6AC
  5
1C6AC
331
1C5FA
  5
1C5FA
331
1C59D
  5
1C59D
331
1C5BC
  5
1C5BC
331
1C5DB
  5
1C5DB
331
1C611
  5
1C611
331
1C638
  5
1C638
331
1C657
  5
1C657
331
1C676
  5
1C676
331
1C68D
  5
1C68D
331
1C6EA
  5
1C6EA
331
1C586
  5
1C586
331
1C548
  5
1C548
331
1C529
  5
1C529
331
1C4F3
  5
1C4F3
331
1C4D4
  5
1C4D4
331
1C512
  5
1C512
331
1C567
  5
1C567
331
1C721
  5
1C721
331
1C702
  5
1C702
331
1C6EB
  5
1C6EB
331
1C6AD
  5
1C6AD
331
1C5FB
  5
1C5FB
331
1C5BD
  5
1C5BD
331
1C549
  5
1C549
331
1C52A
  5
1C52A
331
1C4F4
  5
1C4F4
331
1C4D5
  5
1C4D5
331
1C513
  5
1C513
331
1C568
  5
1C568
331
1C587
  5
1C587
331
1C59E
  5
1C59E
331
1C5DC
  5
1C5DC
331
1C612
  5
1C612
331
1C639
  5
1C639
331
1C658
  5
1C658
331
1C677
  5
1C677
331
1C68E
  5
1C68E
331
1C6CC
  5
1C6CC
331
1C740
  5
1C740
331
1C760
  5
1C760
331
1C741
  5
1C741
331
1C703
  5
1C703
331
1C6EC
  5
1C6EC
331
1C6CD
  5
1C6CD
331
1C678
  5
1C678
331
1C5FC
  5
1C5FC
331
1C5BE
  5
1C5BE
331
1C569
  5
1C569
331
1C52B
  5
1C52B
331
1C4D6
  5
1C4D6
331
1C4F5
  5
1C4F5
331
1C514
  5
1C514
331
1C54A
  5
1C54A
331
1C588
  5
1C588
331
1C59F
  5
1C59F
331
1C5DD
  5
1C5DD
331
1C613
  5
1C613
331
1C63A
  5
1C63A
331
1C659
  5
1C659
331
1C68F
  5
1C68F
331
1C6AE
  5
1C6AE
331
1C722
  5
1C722
331
1C778
  5
1C778
331
1C742
  5
1C742
331
1C723
  5
1C723
331
1C6ED
  5
1C6ED
331
1C6CE
  5
1C6CE
331
1C6AF
  5
1C6AF
331
1C679
  5
1C679
331
1C5FD
  5
1C5FD
331
1C56A
  5
1C56A
331
1C54B
  5
1C54B
331
1C52C
  5
1C52C
331
1C4F6
  5
1C4F6
331
1C4D7
  5
1C4D7
331
1C515
  5
1C515
331
1C589
  5
1C589
331
1C5A0
  5
1C5A0
331
1C5BF
  5
1C5BF
331
1C5DE
  5
1C5DE
331
1C614
  5
1C614
331
1C63B
  5
1C63B
331
1C65A
  5
1C65A
331
1C690
  5
1C690
331
1C704
  5
1C704
331
1C761
  5
1C761
331
1C798
  5
1C798
331
1C779
  5
1C779
331
1C762
  5
1C762
331
1C724
  5
1C724
331
1C705
  5
1C705
331
1C6CF
  5
1C6CF
331
1C6B0
  5
1C6B0
331
1C67A
  5
1C67A
331
1C5FE
  5
1C5FE
331
1C5C0
  5
1C5C0
331
1C56B
  5
1C56B
331
1C54C
  5
1C54C
331
1C52D
  5
1C52D
331
1C4F7
  5
1C4F7
331
1C4D8
  5
1C4D8
331
1C516
  5
1C516
331
1C58A
  5
1C58A
331
1C5A1
  5
1C5A1
331
1C5DF
  5
1C5DF
331
1C615
  5
1C615
331
1C63C
  5
1C63C
331
1C65B
  5
1C65B
331
1C691
  5
1C691
331
1C6EE
  5
1C6EE
331
1C743
  5
1C743
331
1C7B8
  5
1C7B8
331
1C77A
  5
1C77A
331
1C799
  5
1C799
331
1C763
  5
1C763
331
1C744
  5
1C744
331
1C706
  5
1C706
331
1C6EF
  5
1C6EF
331
1C6B1
  5
1C6B1
331
1C67B
  5
1C67B
331
1C54D
  5
1C54D
331
1C52E
  5
1C52E
331
1C4D9
  5
1C4D9
331
1C4F8
  5
1C4F8
331
1C517
  5
1C517
331
1C56C
  5
1C56C
331
1C58B
  5
1C58B
331
1C5A2
  5
1C5A2
331
1C5C1
  5
1C5C1
331
1C5E0
  5
1C5E0
331
1C5FF
  5
1C5FF
331
1C63D
  5
1C63D
331
1C65C
  5
1C65C
331
1C692
  5
1C692
331
1C6D0
  5
1C6D0
331
1C725
  5
1C725
331
1C7B9
  5
1C7B9
331
1C79A
  5
1C79A
331
1C77B
  5
1C77B
331
1C7D8
  5
1C7D8
331
1C764
  5
1C764
331
1C745
  5
1C745
331
1C726
  5
1C726
331
1C6F0
  5
1C6F0
331
1C6D1
  5
1C6D1
331
1C67C
  5
1C67C
331
1C5C2
  5
1C5C2
331
1C56D
  5
1C56D
331
1C52F
  5
1C52F
331
1C4F9
  5
1C4F9
331
1C4DA
  5
1C4DA
331
1C54E
  5
1C54E
331
1C58C
  5
1C58C
331
1C5A3
  5
1C5A3
331
1C5E1
  5
1C5E1
331
1C600
  5
1C600
331
1C63E
  5
1C63E
331
1C65D
  5
1C65D
331
1C693
  5
1C693
331
1C6B2
  5
1C6B2
331
1C707
  5
1C707
331
1C7F0
  5
1C7F0
331
1C7D9
  5
1C7D9
331
1C79B
  5
1C79B
331
1C77C
  5
1C77C
331
1C7BA
  5
1C7BA
331
1C746
  5
1C746
331
1C727
  5
1C727
331
1C6F1
  5
1C6F1
331
1C6D2
  5
1C6D2
331
1C6B3
  5
1C6B3
331
1C67D
  5
1C67D
331
1C5C3
  5
1C5C3
331
1C56E
  5
1C56E
331
1C54F
  5
1C54F
331
1C4FA
  5
1C4FA
331
1C4DB
  5
1C4DB
331
1C530
  5
1C530
331
1C58D
  5
1C58D
331
1C5A4
  5
1C5A4
331
1C5E2
  5
1C5E2
331
1C601
  5
1C601
331
1C63F
  5
1C63F
331
1C65E
  5
1C65E
331
1C694
  5
1C694
331
1C708
  5
1C708
331
1C765
  5
1C765
331
1C7F1
  5
1C7F1
331
1C7DA
  5
1C7DA
331
1C7BB
  5
1C7BB
331
1C77D
  5
1C77D
331
1C79C
  5
1C79C
331
1C810
  5
1C810
331
1C766
  5
1C766
331
1C728
  5
1C728
331
1C6F2
  5
1C6F2
331
1C6B4
  5
1C6B4
331
1C67E
  5
1C67E
331
1C640
  5
1C640
331
1C5C4
  5
1C5C4
331
1C550
  5
1C550
331
1C531
  5
1C531
331
1C4FB
  5
1C4FB
331
1C4DC
  5
1C4DC
331
1C56F
  5
1C56F
331
1C58E
  5
1C58E
331
1C5A5
  5
1C5A5
331
1C5E3
  5
1C5E3
331
1C602
  5
1C602
331
1C65F
  5
1C65F
331
1C695
  5
1C695
331
1C6D3
  5
1C6D3
331
1C709
  5
1C709
331
1C747
  5
1C747
331
1C811
  5
1C811
331
1C7DB
  5
1C7DB
331
1C7BC
  5
1C7BC
331
1C79D
  5
1C79D
331
1C77E
  5
1C77E
331
1C7F2
  5
1C7F2
331
1C767
  5
1C767
331
1C748
  5
1C748
331
1C6F3
  5
1C6F3
331
1C6D4
  5
1C6D4
331
1C641
  5
1C641
331
1C570
  5
1C570
331
1C532
  5
1C532
331
1C4DD
  5
1C4DD
331
1C4FC
  5
1C4FC
331
1C551
  5
1C551
331
1C58F
  5
1C58F
331
1C5A6
  5
1C5A6
331
1C5C5
  5
1C5C5
331
1C5E4
  5
1C5E4
331
1C603
  5
1C603
331
1C660
  5
1C660
331
1C67F
  5
1C67F
331
1C696
  5
1C696
331
1C6B5
  5
1C6B5
331
1C70A
  5
1C70A
331
1C729
  5
1C729
331
1C850
  5
1C850
331
1C812
  5
1C812
331
1C7F3
  5
1C7F3
331
1C7BD
  5
1C7BD
331
1C79E
  5
1C79E
331
1C77F
  5
1C77F
331
1C7DC
  5
1C7DC
331
1C831
  5
1C831
331
1C768
  5
1C768
331
1C749
  5
1C749
331
1C72A
  5
1C72A
331
1C6F4
  5
1C6F4
331
1C6D5
  5
1C6D5
331
1C6B6
  5
1C6B6
331
1C623
  5
1C623
331
1C5C6
  5
1C5C6
331
1C571
  5
1C571
331
1C552
  5
1C552
331
1C4FD
  5
1C4FD
331
1C4DE
  5
1C4DE
331
1C533
  5
1C533
331
1C5A7
  5
1C5A7
331
1C5E5
  5
1C5E5
331
1C604
  5
1C604
331
1C642
  5
1C642
331
1C661
  5
1C661
331
1C680
  5
1C680
331
1C697
  5
1C697
331
1C70B
  5
1C70B
331
1C868
  5
1C868
331
1C851
  5
1C851
331
1C7F4
  5
1C7F4
331
1C7DD
  5
1C7DD
331
1C79F
  5
1C79F
331
1C780
  5
1C780
331
1C7BE
  5
1C7BE
331
1C813
  5
1C813
331
1C769
  5
1C769
331
1C72B
  5
1C72B
331
1C6F5
  5
1C6F5
331
1C6D6
  5
1C6D6
331
1C698
  5
1C698
331
1C624
  5
1C624
331
1C5C7
  5
1C5C7
331
1C572
  5
1C572
331
1C553
  5
1C553
331
1C534
  5
1C534
331
1C4FE
  5
1C4FE
331
1C4DF
  5
1C4DF
331
1C5A8
  5
1C5A8
331
1C5E6
  5
1C5E6
331
1C605
  5
1C605
331
1C643
  5
1C643
331
1C662
  5
1C662
331
1C681
  5
1C681
331
1C6B7
  5
1C6B7
331
1C70C
  5
1C70C
331
1C74A
  5
1C74A
331
1C888
  5
1C888
331
1C852
  5
1C852
331
1C814
  5
1C814
331
1C7DE
  5
1C7DE
331
1C7BF
  5
1C7BF
331
1C781
  5
1C781
331
1C7A0
  5
1C7A0
331
1C7F5
  5
1C7F5
331
1C869
  5
1C869
331
1C76A
  5
1C76A
331
1C74B
  5
1C74B
331
1C6F6
  5
1C6F6
331
1C6B8
  5
1C6B8
331
1C699
  5
1C699
331
1C625
  5
1C625
331
1C554
  5
1C554
331
1C535
  5
1C535
331
1C4FF
  5
1C4FF
331
1C573
  5
1C573
331
1C5A9
  5
1C5A9
331
1C5C8
  5
1C5C8
331
1C5E7
  5
1C5E7
331
1C606
  5
1C606
331
1C644
  5
1C644
331
1C663
  5
1C663
331
1C682
  5
1C682
331
1C6D7
  5
1C6D7
331
1C70D
  5
1C70D
331
1C72C
  5
1C72C
331
1C889
  5
1C889
331
1C86A
  5
1C86A
331
1C815
  5
1C815
331
1C7F6
  5
1C7F6
331
1C7C0
  5
1C7C0
331
1C7A1
  5
1C7A1
331
1C782
  5
1C782
331
1C7DF
  5
1C7DF
331
1C853
  5
1C853
331
1C8A8
  5
1C8A8
331
1C76B
  5
1C76B
331
1C74C
  5
1C74C
331
1C72D
  5
1C72D
331
1C6D8
  5
1C6D8
331
1C6B9
  5
1C6B9
331
1C69A
  5
1C69A
331
1C626
  5
1C626
331
1C5C9
  5
1C5C9
331
1C574
  5
1C574
331
1C536
  5
1C536
331
1C555
  5
1C555
331
1C5AA
  5
1C5AA
331
1C5E8
  5
1C5E8
331
1C607
  5
1C607
331
1C645
  5
1C645
331
1C664
  5
1C664
331
1C683
  5
1C683
331
1C6F7
  5
1C6F7
331
1C70E
  5
1C70E
331
1C8C8
  5
1C8C8
331
1C8A9
  5
1C8A9
331
1C86B
  5
1C86B
331
1C816
  5
1C816
331
1C7E0
  5
1C7E0
331
1C7A2
  5
1C7A2
331
1C783
  5
1C783
331
1C7C1
  5
1C7C1
331
1C7F7
  5
1C7F7
331
1C835
  5
1C835
331
1C88A
  5
1C88A
331
1C76C
  5
1C76C
331
1C74D
  5
1C74D
331
1C72E
  5
1C72E
331
1C6BA
  5
1C6BA
331
1C69B
  5
1C69B
331
1C5CA
  5
1C5CA
331
1C575
  5
1C575
331
1C556
  5
1C556
331
1C537
  5
1C537
331
1C5AB
  5
1C5AB
331
1C5E9
  5
1C5E9
331
1C627
  5
1C627
331
1C646
  5
1C646
331
1C665
  5
1C665
331
1C684
  5
1C684
331
1C6D9
  5
1C6D9
331
1C6F8
  5
1C6F8
331
1C70F
  5
1C70F
331
1C8C9
  5
1C8C9
331
1C8AA
  5
1C8AA
331
1C88B
  5
1C88B
331
1C855
  5
1C855
331
1C836
  5
1C836
331
1C7E1
  5
1C7E1
331
1C7C2
  5
1C7C2
331
1C784
  5
1C784
331
1C7A3
  5
1C7A3
331
1C7F8
  5
1C7F8
331
1C817
  5
1C817
331
1C86C
  5
1C86C
331
1C8E0
  5
1C8E0
331
1C76D
  5
1C76D
331
1C710
  5
1C710
331
1C6DA
  5
1C6DA
331
1C69C
  5
1C69C
331
1C5CB
  5
1C5CB
331
1C557
  5
1C557
331
1C576
  5
1C576
331
1C5AC
  5
1C5AC
331
1C5EA
  5
1C5EA
331
1C628
  5
1C628
331
1C647
  5
1C647
331
1C666
  5
1C666
331
1C685
  5
1C685
331
1C6BB
  5
1C6BB
331
1C6F9
  5
1C6F9
331
1C72F
  5
1C72F
331
1C74E
  5
1C74E
331
1B5E8
  5
1B5EA
331
1C900
  5
1C900
331
1C8E1
  5
1C8E1
331
1C8AB
  5
1C8AB
331
1C88C
  5
1C88C
331
1C86D
  5
1C86D
331
1C837
  5
1C837
331
1C818
  5
1C818
331
1C7E2
  5
1C7E2
331
1C7C3
  5
1C7C3
331
1C7A4
  5
1C7A4
331
1C785
  5
1C785
331
1C7F9
  5
1C7F9
331
1C856
  5
1C856
331
1C8CA
  5
1C8CA
331
1C76E
  5
1C76E
331
1C730
  5
1C730
331
1C711
  5
1C711
331
1C6DB
  5
1C6DB
331
1C6BC
  5
1C6BC
331
1C69D
  5
1C69D
331
1C577
  5
1C577
331
1C5AD
  5
1C5AD
331
1C5CC
  5
1C5CC
331
1C5EB
  5
1C5EB
331
1C629
  5
1C629
331
1C648
  5
1C648
331
1C667
  5
1C667
331
1C686
  5
1C686
331
1C6FA
  5
1C6FA
331
1C74F
  5
1C74F
331
1B5E9
  5
1B5EB
331
1C8E2
  5
1C8E2
331
1C8CB
  5
1C8CB
331
1C88D
  5
1C88D
331
1C86E
  5
1C86E
331
1C857
  5
1C857
331
1C819
  5
1C819
331
1C7FA
  5
1C7FA
331
1C7C4
  5
1C7C4
331
1C7A5
  5
1C7A5
331
1C786
  5
1C786
331
1C7E3
  5
1C7E3
331
1C838
  5
1C838
331
1C8AC
  5
1C8AC
331
1C901
  5
1C901
331
1C731
  5
1C731
331
1C712
  5
1C712
331
1C6BD
  5
1C6BD
331
1C69E
  5
1C69E
331
1C5CD
  5
1C5CD
331
1C5AE
  5
1C5AE
331
1C5EC
  5
1C5EC
331
1C62A
  5
1C62A
331
1C649
  5
1C649
331
1C668
  5
1C668
331
1C687
  5
1C687
331
1C6DC
  5
1C6DC
331
1C6FB
  5
1C6FB
331
1C750
  5
1C750
331
1C76F
  5
1C76F
331
1B5EA
  5
1B5EC
331
1C998
  5
1C998
331
1C902
  5
1C902
331
1C8CC
  5
1C8CC
331
1C8AD
  5
1C8AD
331
1C86F
  5
1C86F
331
1C839
  5
1C839
331
1C7FB
  5
1C7FB
331
1C7A6
  5
1C7A6
331
1C787
  5
1C787
331
1C7C5
  5
1C7C5
331
1C7E4
  5
1C7E4
331
1C81A
  5
1C81A
331
1C858
  5
1C858
331
1C88E
  5
1C88E
331
1C8E3
  5
1C8E3
331
1C751
  5
1C751
331
1C713
  5
1C713
331
1C6DD
  5
1C6DD
331
1C69F
  5
1C69F
331
1C5CE
  5
1C5CE
331
1C5AF
  5
1C5AF
331
1C5ED
  5
1C5ED
331
1C62B
  5
1C62B
331
1C64A
  5
1C64A
331
1C669
  5
1C669
331
1C6BE
  5
1C6BE
331
1C6FC
  5
1C6FC
331
1C732
  5
1C732
331
1C770
  5
1C770
331
1B5EB
  5
1B5ED
331
1C903
  5
1C903
331
1C8E4
  5
1C8E4
331
1C8AE
  5
1C8AE
331
1C88F
  5
1C88F
331
1C870
  5
1C870
331
1C83A
  5
1C83A
331
1C81B
  5
1C81B
331
1C7FC
  5
1C7FC
331
1C7C6
  5
1C7C6
331
1C7A7
  5
1C7A7
331
1C788
  5
1C788
331
1C7E5
  5
1C7E5
331
1C859
  5
1C859
331
1C8CD
  5
1C8CD
331
1C999
  5
1C999
331
1C9F8
  5
1C9F8
331
1C752
  5
1C752
331
1C733
  5
1C733
331
1C714
  5
1C714
331
1C6DE
  5
1C6DE
331
1C6BF
  5
1C6BF
331
1C5CF
  5
1C5CF
331
1C5EE
  5
1C5EE
331
1C62C
  5
1C62C
331
1C64B
  5
1C64B
331
1C66A
  5
1C66A
331
1C6A0
  5
1C6A0
331
1C6FD
  5
1C6FD
331
1C771
  5
1C771
331
1B5EC
  5
1B5EE
331
1CA18
  5
1CA18
331
1C904
  5
1C904
331
1C8E5
  5
1C8E5
331
1C8CE
  5
1C8CE
331
1C890
  5
1C890
331
1C871
  5
1C871
331
1C83B
  5
1C83B
331
1C81C
  5
1C81C
331
1C7FD
  5
1C7FD
331
1C7C7
  5
1C7C7
331
1C7A8
  5
1C7A8
331
1C789
  5
1C789
331
1C7E6
  5
1C7E6
331
1C85A
  5
1C85A
331
1C8AF
  5
1C8AF
331
1C99A
  5
1C99A
331
1C9F9
  5
1C9F9
331
1C734
  5
1C734
331
1C715
  5
1C715
331
1C6DF
  5
1C6DF
331
1C6C0
  5
1C6C0
331
1C6A1
  5
1C6A1
331
1C5EF
  5
1C5EF
331
1C62D
  5
1C62D
331
1C64C
  5
1C64C
331
1C66B
  5
1C66B
331
1C6FE
  5
1C6FE
331
1C753
  5
1C753
331
1C772
  5
1C772
331
1B5ED
  5
1B5EF
331
1C99B
  5
1C99B
331
1C8E6
  5
1C8E6
331
1C8CF
  5
1C8CF
331
1C8B0
  5
1C8B0
331
1C872
  5
1C872
331
1C81D
  5
1C81D
331
1C7FE
  5
1C7FE
331
1C7C8
  5
1C7C8
331
1C78A
  5
1C78A
331
1C7A9
  5
1C7A9
331
1C7E7
  5
1C7E7
331
1C83C
  5
1C83C
331
1C85B
  5
1C85B
331
1C891
  5
1C891
331
1C905
  5
1C905
331
1C9FA
  5
1C9FA
331
1CA19
  5
1CA19
331
1C754
  5
1C754
331
1C716
  5
1C716
331
1C6C1
  5
1C6C1
331
1C6A2
  5
1C6A2
331
1C62E
  5
1C62E
331
1C64D
  5
1C64D
331
1C66C
  5
1C66C
331
1C6E0
  5
1C6E0
331
1C6FF
  5
1C6FF
331
1C735
  5
1C735
331
1C773
  5
1C773
331
1B5EE
  5
1B5F0
331
1CA1A
  5
1CA1A
331
1C97D
  5
1C97D
331
1C906
  5
1C906
331
1C8E7
  5
1C8E7
331
1C8B1
  5
1C8B1
331
1C892
  5
1C892
331
1C873
  5
1C873
331
1C83D
  5
1C83D
331
1C7FF
  5
1C7FF
331
1C7C9
  5
1C7C9
331
1C7AA
  5
1C7AA
331
1C78B
  5
1C78B
331
1C7E8
  5
1C7E8
331
1C81E
  5
1C81E
331
1C85C
  5
1C85C
331
1C8D0
  5
1C8D0
331
1C99C
  5
1C99C
331
1C9FB
  5
1C9FB
331
1C755
  5
1C755
331
1C736
  5
1C736
331
1C6E1
  5
1C6E1
331
1C6A3
  5
1C6A3
331
1C62F
  5
1C62F
331
1C64E
  5
1C64E
331
1C66D
  5
1C66D
331
1C6C2
  5
1C6C2
331
1C717
  5
1C717
331
1C774
  5
1C774
331
1B5EF
  5
1B5F1
331
1CA1B
  5
1CA1B
331
1C907
  5
1C907
331
1C8E8
  5
1C8E8
331
1C8B2
  5
1C8B2
331
1C893
  5
1C893
331
1C874
  5
1C874
331
1C83E
  5
1C83E
331
1C81F
  5
1C81F
331
1C800
  5
1C800
331
1C7AB
  5
1C7AB
331
1C78C
  5
1C78C
331
1C7CA
  5
1C7CA
331
1C7E9
  5
1C7E9
331
1C85D
  5
1C85D
331
1C8D1
  5
1C8D1
331
1C97E
  5
1C97E
331
1C9FC
  5
1C9FC
331
1C756
  5
1C756
331
1C737
  5
1C737
331
1C718
  5
1C718
331
1C6E2
  5
1C6E2
331
1C6C3
  5
1C6C3
331
1C64F
  5
1C64F
331
1C66E
  5
1C66E
331
1C6A4
  5
1C6A4
331
1C775
  5
1C775
331
1B5F0
  5
1B5F2
331
1C97F
  5
1C97F
331
1C8E9
  5
1C8E9
331
1C894
  5
1C894
331
1C83F
  5
1C83F
331
1C801
  5
1C801
331
1C7CB
  5
1C7CB
331
1C78D
  5
1C78D
331
1C7AC
  5
1C7AC
331
1C7EA
  5
1C7EA
331
1C820
  5
1C820
331
1C85E
  5
1C85E
331
1C8B3
  5
1C8B3
331
1C8D2
  5
1C8D2
331
1C908
  5
1C908
331
1C9FD
  5
1C9FD
331
1C738
  5
1C738
331
1C719
  5
1C719
331
1C6C4
  5
1C6C4
331
1C6A5
  5
1C6A5
331
1C66F
  5
1C66F
331
1C6E3
  5
1C6E3
331
1C757
  5
1C757
331
1C776
  5
1C776
  0
XRECORD
  5
1CD55
102
{ACAD_REACTORS
330
1CD54
102
}
330
1CD54
100
AcDbXrecord
340
1B892
  0
XRECORD
  5
1CB47
102
{ACAD_REACTORS
330
1CB46
102
}
330
1CB46
100
AcDbXrecord
102
SHADEPLOT
 70
     0
102
VISUALSTYLE
340
1B87A
102
GRIDDISPLAY
 70
     0
102
GRIDMAJOR
 70
     5
102
DEFAULTLIGHTING
280
     1
102
DEFAULTLIGHTINGTYPE
 70
     1
102
BRIGHTNESS
141
0.0
102
CONTRAST
142
0.0
  0
XRECORD
  5
1CB49
102
{ACAD_REACTORS
330
1CB48
102
}
330
1CB48
100
AcDbXrecord
102
SHADEPLOT
 70
     0
102
VISUALSTYLE
340
1B87A
102
GRIDDISPLAY
 70
     0
102
GRIDMAJOR
 70
     5
102
DEFAULTLIGHTING
280
     1
102
DEFAULTLIGHTINGTYPE
 70
     1
102
BRIGHTNESS
141
0.0
102
CONTRAST
142
0.0
  0
XRECORD
  5
1CB45
102
{ACAD_REACTORS
330
1CB44
102
}
330
1CB44
100
AcDbXrecord
 70
     1
  0
ACAD_ZOMBIE_OBJECT
  5
1B872
102
{ACAD_XDICTIONARY
360
1CB4D
102
}
102
{ACAD_REACTORS
330
1B870
102
}
330
1B870
100
AcDbZombieObject
 90
      499
 91
      593
 93
      582
310
42109E509B1BD8DAC02004014040405AA6A9AA4060050101016A9AA6A9018000000000000E03F4040405AA6A9AA40650101016A9AA6A90190101016A9AA6A90194040405AA6A9AA400
 94
        0
1001
ACAD
1000
AcadProxyRoundTripData
1071
      501
1071
   917527
1070
     0
  0
ACAD_ZOMBIE_OBJECT
  5
1B871
102
{ACAD_XDICTIONARY
360
1CB4B
102
}
102
{ACAD_REACTORS
330
1B870
102
}
330
1B870
100
AcDbZombieObject
 90
      499
 91
      593
 93
      582
310
42109E53185E595C802004014040405AA6A9AA4060050101016A9AA6A9018000000000000E03F4040405AA6A9AA40650101016A9AA6A90190101016A9AA6A90194040405AA6A9AA400
 94
        0
1001
ACAD
1000
AcadProxyRoundTripData
1071
      501
1071
   917527
1070
     0
  0
ACAD_ZOMBIE_OBJECT
  5
1B873
102
{ACAD_XDICTIONARY
360
1CB4F
102
}
102
{ACAD_REACTORS
330
1B870
102
}
330
1B870
100
AcDbZombieObject
 90
      499
 91
      593
 93
      574
310
41D1DB1BD8985B002004014040405AA6A9AA4060050101016A9AA6A9018000000000000E03F4040405AA6A9AA40650101016A9AA6A90190101016A9AA6A90194040405AA6A9AA400
 94
        0
1001
ACAD
1000
AcadProxyRoundTripData
1071
      501
1071
   917527
1070
     0
  0
MLINESTYLE
  5
1B88C
102
{ACAD_REACTORS
330
1B88B
102
}
330
1B88B
100
AcDbMlineStyle
  2
STANDARD
 70
     0
  3

 62
   256
 51
90.0
 52
90.0
 71
     2
 49
0.5
 62
   256
  6
BYLAYER
 49
-0.5
 62
   256
  6
BYLAYER
  0
ACAD_ZOMBIE_OBJECT
  5
1B891
102
{ACAD_XDICTIONARY
360
1CB53
102
}
102
{ACAD_REACTORS
330
1B890
102
}
330
1B890
100
AcDbZombieObject
 90
      499
 91
      593
 93
     1849
310
4254DD185B99185C990028B81E85EB51B8AE3F2E07A17AD46E2B8FC02B5E8DC0F42B1CFD028000000C1008070000C3001FDFF8000000C1003FBFF000000182007F7FE00000030400FEFFC00000060801FDFF8000000C1003FBFF00000018200000000000000681FA0B0000001820100E000186003FBFF000000182007F7FE0
310
0000030400FEFFC00000060801FDFF8000000C1003FBFF000000182007F7FE000000304000AD7A3703D0AC73F4160000003040201C00030C007F7FE00000030400FEFFC00000060801FDFF8000000C1003FBFF000000182007F7FE00000030400FEFFC000000608000
340
1B886
340
1B886
340
1B886
 94
        0
1001
ACAD
1000
AcadProxyRoundTripData
1071
      503
1071
   917527
1070
     0
  0
ACAD_ZOMBIE_OBJECT
  5
1B87A
102
{ACAD_REACTORS
330
1B874
102
}
330
1B874
100
AcDbZombieObject
 90
      499
 91
      593
 93
      444
310
430C9915DA5C99599C985B59401049028333333333333E3BF0000000000000FB0107901411070040501600405405064090741402480A0346
 94
        0
1001
ACAD
1000
AcDbSavedByObjectVersion
1070
     0
1000
AcadProxyRoundTripData
1071
      502
1071
   917527
1070
     0
  0
ACAD_ZOMBIE_OBJECT
  5
1B87C
102
{ACAD_REACTORS
330
1B874
102
}
330
1B874
100
AcDbZombieObject
 90
      499
 91
      593
 93
      508
310
428CD108121A5919195B8010640502408333333333333E3BF0000000000000FB01079024090700405020000000000001110200405405064090740C02480A0340
 94
        0
1001
ACAD
1000
AcDbSavedByObjectVersion
1070
     0
1000
AcadProxyRoundTripData
1071
      502
1071
   917527
1070
     0
  0
ACAD_ZOMBIE_OBJECT
  5
1B87B
102
{ACAD_REACTORS
330
1B874
102
}
330
1B874
100
AcDbZombieObject
 90
      499
 91
      593
 93
      444
310
430CD915DA5C99599C985B59401059028333333333333E3BF0000000000000FB0107901411070040501600405405064090741402480A0346
 94
        0
1001
ACAD
1000
AcDbSavedByObjectVersion
1070
     0
1000
AcadProxyRoundTripData
1071
      502
1071
   917527
1070
     0
  0
ACAD_ZOMBIE_OBJECT
  5
1B879
102
{ACAD_REACTORS
330
1B874
102
}
330
1B874
100
AcDbZombieObject
 90
      499
 91
      593
 93
      396
310
4190985CDA58C0107406404333333333333E3BF0000000000000FB0107A41107004050150841D405064090741402480A0356
 94
        0
1001
ACAD
1000
AcDbSavedByObjectVersion
1070
     0
1000
AcadProxyRoundTripData
1071
      502
1071
   917527
1070
     0
  0
ACAD_ZOMBIE_OBJECT
  5
1B880
102
{ACAD_REACTORS
330
1B874
102
}
330
1B874
100
AcDbZombieObject
 90
      499
 91
      593
 93
      436
310
42509C9A59DA1D195B8010C409028333333333333E3BF0000000000000FB010790141107004050150841D405064090741402480A029950
 94
        0
1001
ACAD
1000
AcDbSavedByObjectVersion
1070
     0
1000
AcadProxyRoundTripData
1071
      502
1071
   917527
1070
     0
  0
ACAD_ZOMBIE_OBJECT
  5
1B884
102
{ACAD_REACTORS
330
1B874
102
}
330
1B874
100
AcDbZombieObject
 90
      499
 91
      593
 93
      460
310
4310DBDB1BDC90DA185B99D9401104090240C333333333333E3BF0000000000000FB0108901411070040501508421405064090741402480A0350
 94
        0
1001
ACAD
1000
AcDbSavedByObjectVersion
1070
     0
1000
AcadProxyRoundTripData
1071
      502
1071
   917527
1070
     0
  0
ACAD_ZOMBIE_OBJECT
  5
1B87D
102
{ACAD_REACTORS
330
1B874
102
}
330
1B874
100
AcDbZombieObject
 90
      499
 91
      593
 93
      508
310
42D0DBDB98D95C1D1D585B0010940D028333333333333E3BF0000000000000FB0107902409070040501000000000000111010841D405064090740C02480A0340
 94
        0
1001
ACAD
1000
AcDbSavedByObjectVersion
1070
     0
1000
AcadProxyRoundTripData
1071
      502
1071
   917527
1070
     0
  0
ACAD_ZOMBIE_OBJECT
  5
1B87F
102
{ACAD_REACTORS
330
1B874
102
}
330
1B874
100
AcDbZombieObject
 90
      499
 91
      593
 93
      420
310
41111A5B4010B409028333333333333E3BF0000000000000FB010790141107004050150841D405064090741402480A02677FFFFFDB
 94
        0
1001
ACAD
1000
AcDbSavedByObjectVersion
1070
     0
1000
AcadProxyRoundTripData
1071
      502
1071
   917527
1070
     0
  0
ACAD_ZOMBIE_OBJECT
  5
1B883
102
{ACAD_REACTORS
330
1B874
102
}
330
1B874
100
AcDbZombieObject
 90
      499
 91
      593
 93
      452
310
43119858D95C185D1D195C9B8010F409028333333333333E3BF0000000000000FB010790141107004050150841D405064090741402480A0358
 94
        0
1001
ACAD
1000
AcDbSavedByObjectVersion
1070
     0
1000
AcadProxyRoundTripData
1071
      502
1071
   917527
1070
     0
  0
ACAD_ZOMBIE_OBJECT
  5
1B875
102
{ACAD_REACTORS
330
1B874
102
}
330
1B874
100
AcDbZombieObject
 90
      499
 91
      593
 93
      396
310
41519B185D00240901404333333333333E3BF0000000000000F9010740A41107004050150841D405064090741402480A1B56
 94
        0
1001
ACAD
1000
AcDbSavedByObjectVersion
1070
     0
1000
AcadProxyRoundTripData
1071
      502
1071
   917527
1070
     0
  0
ACAD_ZOMBIE_OBJECT
  5
1B876
102
{ACAD_REACTORS
330
1B874
102
}
330
1B874
100
AcDbZombieObject
 90
      499
 91
      593
 93
      484
310
43919B185D15DA5D1A115919D95CC010140901404333333333333E3BF0000000000000F9010740901411070040501600405405064090741402480A1B50
 94
        0
1001
ACAD
1000
AcDbSavedByObjectVersion
1070
     0
1000
AcadProxyRoundTripData
1071
      502
1071
   917527
1070
     0
  0
ACAD_ZOMBIE_OBJECT
  5
1B877
102
{ACAD_REACTORS
330
1B874
102
}
330
1B874
100
AcDbZombieObject
 90
      499
 91
      593
 93
      420
310
4211DBDD5C985D590010240902404333333333333E3BF0000000000000F9010740A411070040501641D405064090741402480A1B50
 94
        0
1001
ACAD
1000
AcDbSavedByObjectVersion
1070
     0
1000
AcadProxyRoundTripData
1071
      502
1071
   917527
1070
     0
  0
ACAD_ZOMBIE_OBJECT
  5
1B878
102
{ACAD_REACTORS
330
1B874
102
}
330
1B874
100
AcDbZombieObject
 90
      499
 91
      593
 93
      508
310
4451DBDD5C985D5915DA5D1A115919D95CC010340902404333333333333E3BF0000000000000F9010740901411070040501600405405064090741402480A1B50
 94
        0
1001
ACAD
1000
AcDbSavedByObjectVersion
1070
     0
1000
AcadProxyRoundTripData
1071
      502
1071
   917527
1070
     0
  0
ACAD_ZOMBIE_OBJECT
  5
1B882
102
{ACAD_REACTORS
330
1B874
102
}
330
1B874
100
AcDbZombieObject
 90
      499
 91
      593
 93
      452
310
43131A5B995C185D1D195C9B8010E409028333333333333E3BF0000000000000FB010790141107004050750841D405064090741402483A0358
 94
        0
1001
ACAD
1000
AcDbSavedByObjectVersion
1070
     0
1000
AcadProxyRoundTripData
1071
      502
1071
   917527
1070
     0
  0
ACAD_ZOMBIE_OBJECT
  5
1B87E
102
{ACAD_REACTORS
330
1B874
102
}
330
1B874
100
AcDbZombieObject
 90
      499
 91
      593
 93
      428
310
429499585B1A5CDD1A58C0108409028333333333333E3BF0000000000000FB01079019070040501508421405064090741402480A1B45
 94
        0
1001
ACAD
1000
AcDbSavedByObjectVersion
1070
     0
1000
AcadProxyRoundTripData
1071
      502
1071
   917527
1070
     0
  0
ACAD_ZOMBIE_OBJECT
  5
1B881
102
{ACAD_REACTORS
330
1B874
102
}
330
1B874
100
AcDbZombieObject
 90
      499
 91
      593
 93
      420
310
42151A1A58DAD95B8010D409028333333333333E3BF0000000000000FB010790141107004050150C41D405064090741402480A0352
 94
        0
1001
ACAD
1000
AcDbSavedByObjectVersion
1070
     0
1000
AcadProxyRoundTripData
1071
      502
1071
   917527
1070
     0
  0
DICTIONARY
  5
1B984
102
{ACAD_REACTORS
330
1B979
102
}
330
1B979
100
AcDbDictionary
1001
ACAD
1000
TREAT_AS_HARD
1070
     0
  0
XRECORD
  5
1B99D
102
{ACAD_REACTORS
330
1B979
102
}
330
1B979
100
AcDbXrecord
 90
-1023410169
  0
DICTIONARY
  5
1CB4D
330
1B872
100
AcDbDictionary
  3
ACAD_XREC_ROUNDTRIP
350
1CB4E
1001
ACAD
1000
TREAT_AS_HARD
1070
     1
  0
DICTIONARY
  5
1CB4B
330
1B871
100
AcDbDictionary
  3
ACAD_XREC_ROUNDTRIP
350
1CB4C
1001
ACAD
1000
TREAT_AS_HARD
1070
     1
  0
DICTIONARY
  5
1CB4F
330
1B873
100
AcDbDictionary
  3
ACAD_XREC_ROUNDTRIP
350
1CB50
1001
ACAD
1000
TREAT_AS_HARD
1070
     1
  0
DICTIONARY
  5
1CB53
330
1B891
100
AcDbDictionary
  3
ACAD_XREC_ROUNDTRIP
350
1CB54
1001
ACAD
1000
TREAT_AS_HARD
1070
     1
  0
XRECORD
  5
1CB4E
102
{ACAD_REACTORS
330
1CB4D
102
}
330
1CB4D
100
AcDbXrecord
102
MATERIAL
148
0.0
149
0.0
149
0.0
 93
        0
 94
       63
282
     0
 72
     1
 77
     1
171
     1
175
     1
179
     1
273
     0
  0
XRECORD
  5
1CB4C
102
{ACAD_REACTORS
330
1CB4B
102
}
330
1CB4B
100
AcDbXrecord
102
MATERIAL
148
0.0
149
0.0
149
0.0
 93
        0
 94
       63
282
     0
 72
     1
 77
     1
171
     1
175
     1
179
     1
273
     0
  0
XRECORD
  5
1CB50
102
{ACAD_REACTORS
330
1CB4F
102
}
330
1CB4F
100
AcDbXrecord
102
MATERIAL
148
0.0
149
0.0
149
0.0
 93
        0
 94
       63
282
     0
 72
     1
 77
     1
171
     1
175
     1
179
     1
273
     0
  0
XRECORD
  5
1CB54
102
{ACAD_REACTORS
330
1CB53
102
}
330
1CB53
100
AcDbXrecord
102
ACAD_ROUNDTRIP_PRE2007_TABLESTYLE
 90
      512
 91
        0
  1

 92
      512
 93
        0
  2

 94
      512
 95
        0
  3

  0
ENDSEC
  0
EOF
