  0
SECTION
  2
HEADER
  9
$ACADVER
  1
AC1012
  9
$DWGCODEPAGE
  3
dos932
  9
$INSBASE
 10
0.0
 20
0.0
 30
0.0
  9
$EXTMIN
 10
4228.699146888245
 20
-50.15783595326207
 30
0.0
  9
$EXTMAX
 10
5026.899146888245
 20
520.3421640467383
 30
0.0
  9
$LIMMIN
 10
4209.399146888245
 20
-66.45783595326202
  9
$LIMMAX
 10
5050.399146888246
 20
527.542164046738
  9
$ORTHOMODE
 70
     0
  9
$REGENMODE
 70
     1
  9
$FILLMODE
 70
     1
  9
$QTEXTMODE
 70
     0
  9
$MIRRTEXT
 70
     1
  9
$DRAGMODE
 70
     2
  9
$LTSCALE
 40
2.0
  9
$OSMODE
 70
  3071
  9
$ATTMODE
 70
     1
  9
$TEXTSIZE
 40
2.5
  9
$TRACEWID
 40
1.0
  9
$TEXTSTYLE
  7
SIMPLEXT
  9
$CLAYER
  8
AM_0
  9
$CELTYPE
  6
BYLAYER
  9
$CECOLOR
 62
   256
  9
$CELTSCALE
 40
1.0
  9
$DELOBJ
 70
     1
  9
$DISPSILH
 70
     0
  9
$DIMSCALE
 40
2.0
  9
$DIMASZ
 40
1.0
  9
$DIMEXO
 40
1.0
  9
$DIMDLI
 40
7.0
  9
$DIMRND
 40
0.0
  9
$DIMDLE
 40
0.0
  9
$DIMEXE
 40
1.0
  9
$DIMTP
 40
0.1
  9
$DIMTM
 40
0.1
  9
$DIMTXT
 40
3.0
  9
$DIMCEN
 40
0.0
  9
$DIMTSZ
 40
0.0
  9
$DIMTOL
 70
     0
  9
$DIMLIM
 70
     0
  9
$DIMTIH
 70
     0
  9
$DIMTOH
 70
     0
  9
$DIMSE1
 70
     0
  9
$DIMSE2
 70
     0
  9
$DIMTAD
 70
     1
  9
$DIMZIN
 70
     8
  9
$DIMBLK
  1

  9
$DIMASO
 70
     1
  9
$DIMSHO
 70
     1
  9
$DIMPOST
  1

  9
$DIMAPOST
  1
"
  9
$DIMALT
 70
     0
  9
$DIMALTD
 70
     2
  9
$DIMALTF
 40
0.0393701
  9
$DIMLFAC
 40
1.0
  9
$DIMTOFL
 70
     1
  9
$DIMTVP
 40
0.0
  9
$DIMTIX
 70
     1
  9
$DIMSOXD
 70
     0
  9
$DIMSAH
 70
     0
  9
$DIMBLK1
  1

  9
$DIMBLK2
  1

  9
$DIMSTYLE
  2
DTOS-2
  9
$DIMCLRD
 70
   256
  9
$DIMCLRE
 70
   256
  9
$DIMCLRT
 70
   256
  9
$DIMTFAC
 40
0.71
  9
$DIMGAP
 40
1.0
  9
$DIMJUST
 70
     0
  9
$DIMSD1
 70
     0
  9
$DIMSD2
 70
     0
  9
$DIMTOLJ
 70
     1
  9
$DIMTZIN
 70
     8
  9
$DIMALTZ
 70
     8
  9
$DIMALTTZ
 70
     8
  9
$DIMFIT
 70
     5
  9
$DIMUPT
 70
     0
  9
$DIMUNIT
 70
     2
  9
$DIMDEC
 70
     4
  9
$DIMTDEC
 70
     4
  9
$DIMALTU
 70
     2
  9
$DIMALTTD
 70
     2
  9
$DIMTXSTY
  7
STANDARD
  9
$DIMAUNIT
 70
     0
  9
$LUNITS
 70
     2
  9
$LUPREC
 70
     4
  9
$SKETCHINC
 40
1.0
  9
$FILLETRAD
 40
0.0
  9
$AUNITS
 70
     0
  9
$AUPREC
 70
     0
  9
$MENU
  1
.
  9
$ELEVATION
 40
0.0
  9
$PELEVATION
 40
0.0
  9
$THICKNESS
 40
0.0
  9
$LIMCHECK
 70
     0
  9
$BLIPMODE
 70
     0
  9
$CHAMFERA
 40
20.0
  9
$CHAMFERB
 40
20.0
  9
$CHAMFERC
 40
0.0
  9
$CHAMFERD
 40
0.0
  9
$SKPOLY
 70
     0
  9
$TDCREATE
 40
2454489.086194294
  9
$TDUPDATE
 40
2460361.735927234
  9
$TDINDWG
 40
0.8655772338
  9
$TDUSRTIMER
 40
0.8651904051
  9
$USRTIMER
 70
     1
  9
$ANGBASE
 50
0.0
  9
$ANGDIR
 70
     0
  9
$PDMODE
 70
     0
  9
$PDSIZE
 40
0.0
  9
$PLINEWID
 40
0.0
  9
$COORDS
 70
     1
  9
$SPLFRAME
 70
     0
  9
$SPLINETYPE
 70
     6
  9
$SPLINESEGS
 70
     8
  9
$ATTDIA
 70
     1
  9
$ATTREQ
 70
     1
  9
$HANDLING
 70
     1
  9
$HANDSEED
  5
1CAFC
  9
$SURFTAB1
 70
     6
  9
$SURFTAB2
 70
     6
  9
$SURFTYPE
 70
     6
  9
$SURFU
 70
     6
  9
$SURFV
 70
     6
  9
$UCSNAME
  2

  9
$UCSORG
 10
0.0
 20
0.0
 30
0.0
  9
$UCSXDIR
 10
1.0
 20
0.0
 30
0.0
  9
$UCSYDIR
 10
0.0
 20
1.0
 30
0.0
  9
$PUCSNAME
  2

  9
$PUCSORG
 10
0.0
 20
0.0
 30
0.0
  9
$PUCSXDIR
 10
1.0
 20
0.0
 30
0.0
  9
$PUCSYDIR
 10
0.0
 20
1.0
 30
0.0
  9
$USERI1
 70
     0
  9
$USERI2
 70
     0
  9
$USERI3
 70
     0
  9
$USERI4
 70
     0
  9
$USERI5
 70
     0
  9
$USERR1
 40
0.0
  9
$USERR2
 40
0.0
  9
$USERR3
 40
0.0
  9
$USERR4
 40
0.0
  9
$USERR5
 40
0.0
  9
$WORLDVIEW
 70
     0
  9
$SHADEDGE
 70
     3
  9
$SHADEDIF
 70
    70
  9
$TILEMODE
 70
     1
  9
$MAXACTVP
 70
    48
  9
$PINSBASE
 10
0.0
 20
0.0
 30
0.0
  9
$PLIMCHECK
 70
     0
  9
$PEXTMIN
 10
-81.24937706734659
 20
-12.61109972763063
 30
0.0
  9
$PEXTMAX
 10
347.9493587567997
 20
215.8110938148499
 30
0.0
  9
$PLIMMIN
 10
0.0
 20
0.0
  9
$PLIMMAX
 10
420.0
 20
297.0
  9
$UNITMODE
 70
     0
  9
$VISRETAIN
 70
     1
  9
$PLINEGEN
 70
     0
  9
$PSLTSCALE
 70
     1
  9
$TREEDEPTH
 70
  3020
  9
$PICKSTYLE
 70
     1
  9
$CMLSTYLE
  2
STANDARD
  9
$CMLJUST
 70
     0
  9
$CMLSCALE
 40
1.0
  9
$SAVEIMAGES
 70
     1
  0
ENDSEC
  0
SECTION
  2
CLASSES
  0
CLASS
  1
ACDBDICTIONARYWDFLT
  2
AcDbDictionaryWithDefault
  3
AutoCAD 2000
 90
    32768
280
     0
281
     0
  0
CLASS
  1
MATERIAL
  2
AcDbMaterial
  3
ObjectDBX Classes
 90
    33921
280
     0
281
     0
  0
CLASS
  1
VISUALSTYLE
  2
AcDbVisualStyle
  3
ObjectDBX Classes
 90
    36863
280
     0
281
     0
  0
CLASS
  1
TABLESTYLE
  2
AcDbTableStyle
  3
ObjectDBX Classes
 90
    36863
280
     0
281
     0
  0
CLASS
  1
ACME_DOCUMENT
  2
AcMeDbDoc
  3
AcMeServices
 90
    32768
280
     0
281
     0
  0
CLASS
  1
AMGSETTINGSOBJ
  2
AmgSettingsObj
  3
"AcadM|Product Description: AutoCAD Mechanical|Company: Autodesk"
 90
    32768
280
     0
281
     0
  0
CLASS
  1
ACMESCOPE
  2
AcMeScope
  3
AcMeServices
 90
    32768
280
     0
281
     0
  0
CLASS
  1
ACMECOMMANDHISTORY
  2
AcMeCommandHistory
  3
AcMeServices
 90
    32768
280
     0
281
     0
  0
CLASS
  1
ACIMSYSVARMAN
  2
AcImSysVarManager
  3
AcMeServices
 90
    32768
280
     0
281
     0
  0
CLASS
  1
ACIMINTSYSVAR
  2
AcImIntSysVar
  3
AcMeServices
 90
    32768
280
     0
281
     0
  0
CLASS
  1
ACMEDRAWINGMAN
  2
AcMeDrawingMan
  3
AcMeServices
 90
    32768
280
     0
281
     0
  0
CLASS
  1
ACMEVIEW
  2
AcMeView
  3
AcMeServices
 90
    32768
280
     0
281
     0
  0
CLASS
  1
ACDBENTITYCACHE
  2
AcMeEntityCache
  3
AcMeServices
 90
    32768
280
     0
281
     0
  0
CLASS
  1
GSMANAGER
  2
AcMeGSManager
  3
AcMeServices
 90
    32768
280
     0
281
     0
  0
CLASS
  1
AMDTINTERNALREACTOR
  2
AmdtInternalReactor
  3
AcMeServices
 90
    32768
280
     0
281
     0
  0
CLASS
  1
ACMESTATEMGR
  2
AcMeStateMgr
  3
AcMeServices
 90
    32768
280
     0
281
     0
  0
CLASS
  1
ACGREFMASTER
  2
AcGrefMaster
  3
AcAttribServices
 90
    32768
280
     0
281
     0
  0
CLASS
  1
AM_DRAWING_MGR
  2
AcDmDwgMgr
  3
AcMechDwgViewMgmt
 90
    32768
280
     0
281
     0
  0
CLASS
  1
AM_DWG_DOCUMENT
  2
AcDmDwgDocument
  3
AcMechDwgViewMgmt
 90
    32768
280
     0
281
     0
  0
CLASS
  1
AM_DWG_SHEET
  2
AcDmSheet
  3
AcMechDwgViewMgmt
 90
    32768
280
     0
281
     0
  0
CLASS
  1
AM_VIEWDIMPARMAP
  2
AcDmViewDimParMap
  3
AcMechDwgViewMgmt
 90
    32768
280
     0
281
     0
  0
CLASS
  1
ACIMREALSYSVAR
  2
AcImRealSysVar
  3
AcMeServices
 90
    32768
280
     0
281
     0
  0
CLASS
  1
AM_DWGMGR_NAME
  2
AcDmDwgMgrName
  3
AcMechDwgViewMgmt
 90
    32768
280
     0
281
     0
  0
CLASS
  1
ACME_DATABASE
  2
AcMeDbDatabase
  3
AcMeServices
 90
    32768
280
     0
281
     0
  0
CLASS
  1
ACRFINSADJUSTERMGR
  2
AcRfInsAdjusterMgr
  3
AcMeServices
 90
    32768
280
     0
281
     0
  0
CLASS
  1
ACGREFACADMASTER
  2
AcGrefacadMaster
  3
AcGrefServices
 90
    32768
280
     0
281
     0
  0
CLASS
  1
AMDTMENUSTATEMGR
  2
AmdtMenuStateMgr
  3
McadcomServices
 90
    32768
280
     0
281
     0
  0
CLASS
  1
AMDTMCOMMENUSTATE
  2
AmdtMcomMenuState
  3
McadcomServices
 90
    32768
280
     0
281
     0
  0
CLASS
  1
AMIMASTER
  2
AmiMaster
  3
AmiServices
 90
    32768
280
     0
281
     0
  0
CLASS
  1
MAPIAMMOUDLE
  2
MApiAmModule
  3
MApiAmServices
 90
    32768
280
     0
281
     0
  0
CLASS
  1
ACIMSTRSYSVAR
  2
AcImStrSysVar
  3
AcMeServices
 90
    32768
280
     0
281
     0
  0
CLASS
  1
AMDTADMENUSTATE
  2
AmdtAdMenuState
  3
DesignerServices
 90
    32768
280
     0
281
     0
  0
CLASS
  1
ADAPPL
  2
AcAdAppl
  3
DesignerServices
 90
    32768
280
     0
281
     0
  0
CLASS
  1
DEPMGR
  2
AcAdDepMgr
  3
DesignerServices
 90
    32768
280
     0
281
     0
  0
CLASS
  1
PARAMMGR
  2
AcAdParamMgr
  3
DesignerServices
 90
    32768
280
     0
281
     0
  0
CLASS
  1
PARAMSCOPE
  2
AcAdParamScope
  3
DesignerServices
 90
    32768
280
     0
281
     0
  0
CLASS
  1
NAMEDAPPL
  2
AcAdNamedAppl
  3
DesignerServices
 90
    32768
280
     0
281
     0
  0
CLASS
  1
AMDTDMMENUSTATE
  2
AmdtDmMenuState
  3
AcMechDwgViewMgmt
 90
    32768
280
     0
281
     0
  0
CLASS
  1
AMDTAMMENUSTATE
  2
AmdtAmMenuState
  3
DesignerAssemblies
 90
    32768
280
     0
281
     0
  0
CLASS
  1
ACAMPROJECT
  2
AcAmProject
  3
DesignerAssemblies
 90
    32768
280
     0
281
     0
  0
CLASS
  1
ACAMGRCOMPDEF
  2
AcAmGrCompDef
  3
DesignerAssemblies
 90
    32768
280
     0
281
     0
  0
CLASS
  1
ACCMCONTEXT
  2
AcCmContext
  3
DesignerAssemblies
 90
    32768
280
     0
281
     0
  0
CLASS
  1
ACAMCOMPDEF
  2
AcAmCompDef
  3
DesignerAssemblies
 90
    32768
280
     0
281
     0
  0
CLASS
  1
ACAMCOMPDEFMGR
  2
AcAmCompDefMgr
  3
DesignerAssemblies
 90
    32768
280
     0
281
     0
  0
CLASS
  1
AMCONTEXTMGR
  2
AcAmContextMgr
  3
DesignerAssemblies
 90
    32768
280
     0
281
     0
  0
CLASS
  1
ACAMCONTEXTMODELER
  2
AcAmContextModeler
  3
DesignerAssemblies
 90
    32768
280
     0
281
     0
  0
CLASS
  1
ACMDATADICTIONARY
  2
AcmDataDictionary
  3
"AcmSymBB|Product Description: AutoCAD Mechanical|Company: Autodesk"
 90
    32768
280
     0
281
     0
  0
CLASS
  1
CATALOGSTATE
  2
AcAmCatalogState
  3
DesignerAssemblies
 90
    32768
280
     0
281
     0
  0
CLASS
  1
ACAMGRCOMPDEFSET
  2
AcAmGrCompDefSet
  3
DesignerAssemblies
 90
    32768
280
     0
281
     0
  0
CLASS
  1
AMDTBROWSERDBTAB
  2
AmdtBrowserDbTab
  3
McadcomServices
 90
    32768
280
     0
281
     0
  0
CLASS
  1
CBROWSERAPPOBJECT
  2
CBrowserAppObject
  3
McadcomServices
 90
    32768
280
     0
281
     0
  0
CLASS
  1
DM_PLACEHOLDER
  2
AcDmSelsetPlaceholder
  3
AcMechDwgViewMgmt
 90
    32768
280
     0
281
     0
  0
CLASS
  1
ACMSTANDARDANSI
  2
AcmStandardANSI
  3
"Amdt_StdImp|Product Description: AutoCAD Mechanical|Company: Autodesk"
 90
    32768
280
     0
281
     0
  0
CLASS
  1
AMGOBJPROPCFG
  2
AmgObjPropCfg
  3
"AmgLay|Product Description: AutoCAD Mechanical|Company: Autodesk"
 90
    32769
280
     0
281
     0
  0
CLASS
  1
ACMSURFSTANDARDANSI
  2
AcmSurfTextStdANSI
  3
"Amdt_StdImp|Product Description: AutoCAD Mechanical|Company: Autodesk"
 90
    32768
280
     0
281
     0
  0
CLASS
  1
ACMFCFSTANDARDANSI
  2
AcmFCFStdANSI
  3
"Amdt_StdImp|Product Description: AutoCAD Mechanical|Company: Autodesk"
 90
    32768
280
     0
281
     0
  0
CLASS
  1
ACMWELDSTANDARDANSI
  2
AcmWeldingStdANSI
  3
"Amdt_StdImp|Product Description: AutoCAD Mechanical|Company: Autodesk"
 90
    32768
280
     0
281
     0
  0
CLASS
  1
ACMIDSTANDARDANSI
  2
AcmIdStdANSI
  3
"Amdt_StdImp|Product Description: AutoCAD Mechanical|Company: Autodesk"
 90
    32768
280
     0
281
     0
  0
CLASS
  1
ACMDATUMSTANDARDANSI
  2
AcmDatumStdANSI
  3
"Amdt_StdImp|Product Description: AutoCAD Mechanical|Company: Autodesk"
 90
    32768
280
     0
281
     0
  0
CLASS
  1
ACMBOMSTANDARDANSI
  2
AcmBOMStdANSI
  3
"Amdt_StdImp|Product Description: AutoCAD Mechanical|Company: Autodesk"
 90
    32768
280
     0
281
     0
  0
CLASS
  1
ACMDETAILSTANDARDANSI
  2
AmdtDetailSymStdANSI
  3
"Amdt_StdImp|Product Description: AutoCAD Mechanical|Company: Autodesk"
 90
    32768
280
     0
281
     0
  0
CLASS
  1
ACMSECTIONSTANDARDANSI
  2
AmdtSectionSymStdANSI
  3
"Amdt_StdImp|Product Description: AutoCAD Mechanical|Company: Autodesk"
 90
    32768
280
     0
281
     0
  0
CLASS
  1
ACMCENTERLINESTANDARDANSI
  2
AmdtCenterLineStdANSI
  3
"Amdt_StdImp|Product Description: AutoCAD Mechanical|Company: Autodesk"
 90
    32768
280
     0
281
     0
  0
CLASS
  1
ACMTHREADLINESTANDARDANSI
  2
AmdtThreadLineStdANSI
  3
"Amdt_StdImp|Product Description: AutoCAD Mechanical|Company: Autodesk"
 90
    32768
280
     0
281
     0
  0
CLASS
  1
ACMNOTESTANDARDANSI
  2
AmdtNoteStdANSI
  3
"Amdt_StdImp|Product Description: AutoCAD Mechanical|Company: Autodesk"
 90
    32768
280
     0
281
     0
  0
CLASS
  1
ACMTAPERSTANDARDANSI
  2
AcmTaperStdANSI
  3
"Amdt_StdImp|Product Description: AutoCAD Mechanical|Company: Autodesk"
 90
    32768
280
     0
281
     0
  0
CLASS
  1
AMDTNOTETEMPLATEDB
  2
AmdtNoteTemplateDB
  3
AMDT_STDIMP_MODULE_NAME
 90
    32768
280
     0
281
     0
  0
CLASS
  1
ACAMGLAYSTD
  2
AcAmgLayStd
  3
"AmgLay|Product Description: AutoCAD Mechanical|Company: Autodesk"
 90
    32768
280
     0
281
     0
  0
CLASS
  1
ACAMGDIMSTD
  2
AcAmgDimStd
  3
"AmgDim|Product Description: AutoCAD Mechanical|Company: Autodesk"
 90
    32768
280
     0
281
     0
  0
CLASS
  1
ACAMGHOLECHARTSTDANSI
  2
AcAmgHoleChartStdANSI
  3
ACMSYMBB_MODULE_NAME
 90
    32768
280
     0
281
     0
  0
CLASS
  1
ACAMGTITLESTD
  2
AcAmgTitleStd
  3
"AmgTitle|Product Description: AutoCAD Mechanical|Company: Autodesk"
 90
    32768
280
     0
281
     0
  0
CLASS
  1
ACAMGFILTERDAT
  2
AcAmgFilterDat
  3
"AcadM|Product Description: AutoCAD Mechanical|Company: Autodesk"
 90
    32768
280
     0
281
     0
  0
CLASS
  1
SORTENTSTABLE
  2
AcDbSortentsTable
  3
AutoCAD 2000
 90
    32768
280
     0
281
     0
  0
CLASS
  1
ACMSTANDARDISO
  2
AcmStandardISO
  3
"Amdt_StdImp|Product Description: AutoCAD Mechanical|Company: Autodesk"
 90
    32768
280
     0
281
     0
  0
CLASS
  1
AMDTEDGESTANDARDISO13715
  2
AmdtEdgeStdISO13715
  3
"Amdt_StdImp|Product Description: AutoCAD Mechanical|Company: Autodesk"
 90
    32768
280
     0
281
     0
  0
CLASS
  1
ACMSURFSTANDARDISO
  2
AcmSurfTextStdISO
  3
"Amdt_StdImp|Product Description: AutoCAD Mechanical|Company: Autodesk"
 90
    32768
280
     0
281
     0
  0
CLASS
  1
ACMFCFSTANDARDISO
  2
AcmFCFStdISO
  3
"Amdt_StdImp|Product Description: AutoCAD Mechanical|Company: Autodesk"
 90
    32768
280
     0
281
     0
  0
CLASS
  1
ACMWELDSTANDARDISO
  2
AcmWeldingStdISO
  3
"Amdt_StdImp|Product Description: AutoCAD Mechanical|Company: Autodesk"
 90
    32768
280
     0
281
     0
  0
CLASS
  1
ACMIDSTANDARDISO
  2
AcmIdStdISO
  3
"Amdt_StdImp|Product Description: AutoCAD Mechanical|Company: Autodesk"
 90
    32768
280
     0
281
     0
  0
CLASS
  1
ACMDATUMSTANDARDISO
  2
AcmDatumStdISO
  3
"Amdt_StdImp|Product Description: AutoCAD Mechanical|Company: Autodesk"
 90
    32768
280
     0
281
     0
  0
CLASS
  1
ACMBOMSTANDARDISO
  2
AcmBOMStdISO
  3
"Amdt_StdImp|Product Description: AutoCAD Mechanical|Company: Autodesk"
 90
    32768
280
     0
281
     0
  0
CLASS
  1
ACMDETAILSTANDARDISO
  2
AmdtDetailSymStdISO
  3
"Amdt_StdImp|Product Description: AutoCAD Mechanical|Company: Autodesk"
 90
    32768
280
     0
281
     0
  0
CLASS
  1
ACMSECTIONSTANDARDISO
  2
AmdtSectionSymStdISO
  3
"Amdt_StdImp|Product Description: AutoCAD Mechanical|Company: Autodesk"
 90
    32768
280
     0
281
     0
  0
CLASS
  1
ACMCENTERLINESTANDARDISO
  2
AmdtCenterLineStdISO
  3
"Amdt_StdImp|Product Description: AutoCAD Mechanical|Company: Autodesk"
 90
    32768
280
     0
281
     0
  0
CLASS
  1
ACMTHREADLINESTANDARDISO
  2
AmdtThreadLineStdISO
  3
"Amdt_StdImp|Product Description: AutoCAD Mechanical|Company: Autodesk"
 90
    32768
280
     0
281
     0
  0
CLASS
  1
ACMNOTESTANDARDISO
  2
AmdtNoteStdISO
  3
"Amdt_StdImp|Product Description: AutoCAD Mechanical|Company: Autodesk"
 90
    32768
280
     0
281
     0
  0
CLASS
  1
ACMTAPERSTANDARDISO
  2
AcmTaperStdISO
  3
"Amdt_StdImp|Product Description: AutoCAD Mechanical|Company: Autodesk"
 90
    32768
280
     0
281
     0
  0
CLASS
  1
ACAMGHOLECHARTSTDISO
  2
AcAmgHoleChartStdISO
  3
ACMSYMBB_MODULE_NAME
 90
    32768
280
     0
281
     0
  0
CLASS
  1
DICTIONARYVAR
  2
AcDbDictionaryVar
  3
AutoCAD 2000
 90
    32768
280
     0
281
     0
  0
CLASS
  1
ACDBPLACEHOLDER
  2
AcDbPlaceHolder
  3
AutoCAD 2000
 90
    32768
280
     0
281
     0
  0
CLASS
  1
LAYOUT
  2
AcDbLayout
  3
AutoCAD 2000
 90
    32768
280
     0
281
     0
  0
CLASS
  1
PLOTSETTINGS
  2
AcDbPlotSettings
  3
AutoCAD 2000
 90
    32768
280
     0
281
     0
  0
CLASS
  1
DIMASSOC
  2
AcDbDimAssoc
  3
"AcDbDimAssoc|Product Desc:     AcDim ARX App For Dimension|Company:          Autodesk, Inc.|WEB Address:      www.autodesk.com"
 90
    32768
280
     0
281
     0
  0
CLASS
  1
ACAD_PROXY_OBJECT_WRAPPER
  2
AcDbProxyObjectWrapper
  3
AutoCAD 2000
 90
    32768
280
     0
281
     0
  0
CLASS
  1
LONG_TRANSACTION
  2
AcDbLongTransaction
  3
AutoCAD 2000
 90
    32768
280
     0
281
     0
  0
CLASS
  1
LWPOLYLINE
  2
AcDbPolyline
  3
AutoCAD 2000
 90
    32768
280
     0
281
     1
  0
CLASS
  1
HATCH
  2
AcDbHatch
  3
AutoCAD 2000
 90
    32768
280
     0
281
     1
  0
CLASS
  1
XRECORD
  2
AcDbXrecord
  3
AutoCAD 2000
 90
    32768
280
     0
281
     0
  0
ENDSEC
  0
SECTION
  2
TABLES
  0
TABLE
  2
VPORT
  5
1B868
102
{ACAD_XDICTIONARY
360
1BB85
102
}
330
0
100
AcDbSymbolTable
 70
     2
  0
VPORT
  5
1CAF8
330
1B868
100
AcDbSymbolTableRecord
100
AcDbViewportTableRecord
  2
*ACTIVE
 70
     0
 10
0.0
 20
0.0
 11
1.0
 21
1.0
 12
4671.373658947118
 22
229.2596369976871
 13
0.0
 23
0.0
 14
5.0
 24
5.0
 15
20.0
 25
20.0
 16
0.0
 26
0.0
 36
1.0
 17
0.0
 27
0.0
 37
0.0
 40
663.4602858986307
 41
2.520694259012016
 42
50.0
 43
0.0
 44
0.0
 50
0.0
 51
0.0
 71
    16
 72
   100
 73
     1
 74
     1
 75
     0
 76
     0
 77
     0
 78
     0
  0
ENDTAB
  0
TABLE
  2
LTYPE
  5
1B865
330
0
100
AcDbSymbolTable
 70
    25
  0
LTYPE
  5
1B888
330
1B865
100
AcDbSymbolTableRecord
100
AcDbLinetypeTableRecord
  2
BYBLOCK
 70
     0
  3

 72
    65
 73
     0
 40
0.0
  0
LTYPE
  5
1B889
330
1B865
100
AcDbSymbolTableRecord
100
AcDbLinetypeTableRecord
  2
BYLAYER
 70
     0
  3

 72
    65
 73
     0
 40
0.0
  0
LTYPE
  5
1B88A
330
1B865
100
AcDbSymbolTableRecord
100
AcDbLinetypeTableRecord
  2
CONTINUOUS
 70
     0
  3
Solid line
 72
    65
 73
     0
 40
0.0
  0
LTYPE
  5
1B8A2
330
1B865
100
AcDbSymbolTableRecord
100
AcDbLinetypeTableRecord
  2
AM_ISO02W050
 70
     0
  3
__ __ __ __ __ __ __ __ __ __ __ __ __ __ __
 72
    65
 73
     2
 40
7.5
 49
6.0
 74
     0
 49
-1.5
 74
     0
  0
LTYPE
  5
1B8A3
330
1B865
100
AcDbSymbolTableRecord
100
AcDbLinetypeTableRecord
  2
AMZIGZAG
 70
     0
  3
/\/-/\/-/\/-/\/-/\/-/\/
 72
    65
 73
     2
 40
11.00009999999999
 49
0.0001
 74
     0
 49
-11.0
 74
     0
  0
LTYPE
  5
1B8A4
330
1B865
100
AcDbSymbolTableRecord
100
AcDbLinetypeTableRecord
  2
ACJISTGB
 70
     0
  3
__ . . __ . .
 72
    65
 73
     6
 40
9.0
 49
4.0
 74
     0
 49
-1.0
 74
     0
 49
1.0
 74
     0
 49
-1.0
 74
     0
 49
1.0
 74
     0
 49
-1.0
 74
     0
  0
LTYPE
  5
1B8A5
330
1B865
100
AcDbSymbolTableRecord
100
AcDbLinetypeTableRecord
  2
ACJISTGL
 70
     0
  3
_ _ _ _ _
 72
    65
 73
     2
 40
3.0
 49
2.0
 74
     0
 49
-1.0
 74
     0
  0
LTYPE
  5
1B8A6
330
1B865
100
AcDbSymbolTableRecord
100
AcDbLinetypeTableRecord
  2
DASHED1
 70
     0
  3
--  --  --  --  --  --  --  --  
 72
    65
 73
     2
 40
2.5
 49
1.25
 74
     0
 49
-1.25
 74
     0
  0
LTYPE
  5
1B8A7
330
1B865
100
AcDbSymbolTableRecord
100
AcDbLinetypeTableRecord
  2
ACJISWELD
 70
     0
  3
_ _ _ _ _
 72
    65
 73
     2
 40
3.0
 49
2.0
 74
     0
 49
-1.0
 74
     0
  0
LTYPE
  5
1B8A8
330
1B865
100
AcDbSymbolTableRecord
100
AcDbLinetypeTableRecord
  2
AM_ISO08W050
 70
     0
  3
____ . ____ . ____ . ____ . ____ . ____ . ____
 72
    65
 73
     4
 40
18.0
 49
12.0
 74
     0
 49
-1.5
 74
     0
 49
3.0
 74
     0
 49
-1.5
 74
     0
  0
LTYPE
  5
1B8A9
330
1B865
100
AcDbSymbolTableRecord
100
AcDbLinetypeTableRecord
  2
AM_ISO09W050
 70
     0
  3
_____ . . _____ . . _____ . . ____ .. ____
 72
    65
 73
     6
 40
22.5
 49
12.0
 74
     0
 49
-1.5
 74
     0
 49
3.0
 74
     0
 49
-1.5
 74
     0
 49
3.0
 74
     0
 49
-1.5
 74
     0
  0
LTYPE
  5
1B8AA
330
1B865
100
AcDbSymbolTableRecord
100
AcDbLinetypeTableRecord
  2
AMCONSTR
 70
     0
  3
_______________________
 72
    65
 73
     2
 40
9999.0
 49
9999.0
 74
     0
 49
0.0
 74
     0
  0
LTYPE
  5
1B8AB
330
1B865
100
AcDbSymbolTableRecord
100
AcDbLinetypeTableRecord
  2
AM_ISO08W050X2
 70
     0
  3
__ . __ . __ . __ . __ . __
 72
    65
 73
     4
 40
9.0
 49
6.0
 74
     0
 49
-0.75
 74
     0
 49
1.5
 74
     0
 49
-0.75
 74
     0
  0
LTYPE
  5
1B8AC
330
1B865
100
AcDbSymbolTableRecord
100
AcDbLinetypeTableRecord
  2
AM_ISO02W050X2
 70
     0
  3
 _ _ _ _ _ _ _ _ _ _ _ _
 72
    65
 73
     2
 40
3.75
 49
3.0
 74
     0
 49
-0.75
 74
     0
  0
LTYPE
  5
1B8AD
330
1B865
100
AcDbSymbolTableRecord
100
AcDbLinetypeTableRecord
  2
DD1
 70
     0
  3
一点鎖線
 72
    65
 73
     4
 40
11.1
 49
7.5
 74
     0
 49
-1.199999999999999
 74
     0
 49
1.199999999999999
 74
     0
 49
-1.199999999999999
 74
     0
  0
LTYPE
  5
1B951
330
1B865
100
AcDbSymbolTableRecord
100
AcDbLinetypeTableRecord
  2
HIDDEN
 70
     0
  3
Hidden __ __ __ __ __ __ __ __ __ __ __ __ __ _
 72
    65
 73
     2
 40
0.375
 49
0.25
 74
     0
 49
-0.125
 74
     0
  0
LTYPE
  5
1B952
330
1B865
100
AcDbSymbolTableRecord
100
AcDbLinetypeTableRecord
  2
PHANTOM2
 70
     0
  3
Phantom (.5x) ___ _ _ ___ _ _ ___ _ _ ___ _ _
 72
    65
 73
     6
 40
1.25
 49
0.625
 74
     0
 49
-0.125
 74
     0
 49
0.125
 74
     0
 49
-0.125
 74
     0
 49
0.125
 74
     0
 49
-0.125
 74
     0
  0
LTYPE
  5
1B953
330
1B865
100
AcDbSymbolTableRecord
100
AcDbLinetypeTableRecord
  2
CENTER
 70
     0
  3
Center ____ _ ____ _ ____ _ ____ _ ____ _ ____
 72
    65
 73
     4
 40
2.0
 49
1.25
 74
     0
 49
-0.25
 74
     0
 49
0.25
 74
     0
 49
-0.25
 74
     0
  0
LTYPE
  5
1B987
330
1B865
100
AcDbSymbolTableRecord
100
AcDbLinetypeTableRecord
  2
CENTER2
 70
     0
  3
Center (.5x) ___ _ ___ _ ___ _ ___ _ ___ _ ___
 72
    65
 73
     4
 40
1.125
 49
0.75
 74
     0
 49
-0.125
 74
     0
 49
0.125
 74
     0
 49
-0.125
 74
     0
  0
LTYPE
  5
1B988
330
1B865
100
AcDbSymbolTableRecord
100
AcDbLinetypeTableRecord
  2
HIDDEN2
 70
     0
  3
Hidden (.5x) _ _ _ _ _ _ _ _ _ _ _ _ _ _ _ _ _
 72
    65
 73
     2
 40
0.1875
 49
0.125
 74
     0
 49
-0.0625
 74
     0
  0
LTYPE
  5
1B98B
330
1B865
100
AcDbSymbolTableRecord
100
AcDbLinetypeTableRecord
  2
AMZIGZAG2
 70
     0
  3
/\/-/\/-/\/-/\/-/\/-/\/
 72
    65
 73
     2
 40
0.4401
 49
0.0001
 74
     4
 75
   136
340
1B98A
 46
0.0016
 50
0.0
 44
0.0
 45
0.0
 49
-0.4400000000000001
 74
     0
  0
LTYPE
  5
1B99A
330
1B865
100
AcDbSymbolTableRecord
100
AcDbLinetypeTableRecord
  2
ACANSTGB
 70
     0
  3
__ . . __ . .
 72
    65
 73
     6
 40
0.35433070866
 49
0.15748031496
 74
     0
 49
-0.03937007874
 74
     0
 49
0.03937007874
 74
     0
 49
-0.03937007874
 74
     0
 49
0.03937007874
 74
     0
 49
-0.03937007874
 74
     0
  0
LTYPE
  5
1B99B
330
1B865
100
AcDbSymbolTableRecord
100
AcDbLinetypeTableRecord
  2
ACANSTGL
 70
     0
  3
_ _ _ _ _
 72
    65
 73
     2
 40
0.11811023622
 49
0.07874015748
 74
     0
 49
-0.03937007874
 74
     0
  0
LTYPE
  5
1B9C1
330
1B865
100
AcDbSymbolTableRecord
100
AcDbLinetypeTableRecord
  2
ACISOWELD
 70
     0
  3
_ _ _ _ _
 72
    65
 73
     2
 40
2.0
 49
2.0
 74
     0
 49
-1.0
 74
     0
  0
LTYPE
  5
1B9C2
330
1B865
100
AcDbSymbolTableRecord
100
AcDbLinetypeTableRecord
  2
ACISOTGB
 70
     0
  3
__ . . __ . .
 72
    65
 73
     6
 40
9.0
 49
4.0
 74
     0
 49
-1.0
 74
     0
 49
1.0
 74
     0
 49
-1.0
 74
     0
 49
1.0
 74
     0
 49
-1.0
 74
     0
  0
LTYPE
  5
1B9C3
330
1B865
100
AcDbSymbolTableRecord
100
AcDbLinetypeTableRecord
  2
ACISOTGL
 70
     0
  3
_ _ _ _ _
 72
    65
 73
     2
 40
3.0
 49
2.0
 74
     0
 49
-1.0
 74
     0
  0
LTYPE
  5
1C8D8
330
1B865
100
AcDbSymbolTableRecord
100
AcDbLinetypeTableRecord
  2
CENTER1
 70
     0
  3
----- - ----- - ----- - ----- - 
 72
    65
 73
     4
 40
10.0
 49
6.25
 74
     0
 49
-1.25
 74
     0
 49
1.25
 74
     0
 49
-1.25
 74
     0
  0
ENDTAB
  0
TABLE
  2
LAYER
  5
1B862
102
{ACAD_XDICTIONARY
360
1B9CE
102
}
330
0
100
AcDbSymbolTable
 70
    12
  0
LAYER
  5
1B885
102
{ACAD_XDICTIONARY
360
1C859
102
}
330
1B862
100
AcDbSymbolTableRecord
100
AcDbLayerTableRecord
  2
0
 70
     0
 62
     7
  6
CONTINUOUS
  0
LAYER
  5
1B905
102
{ACAD_XDICTIONARY
360
1C86D
102
}
330
1B862
100
AcDbSymbolTableRecord
100
AcDbLayerTableRecord
  2
AM_0
 70
     0
 62
     7
  6
CONTINUOUS
  0
LAYER
  5
1B906
102
{ACAD_XDICTIONARY
360
1C86F
102
}
330
1B862
100
AcDbSymbolTableRecord
100
AcDbLayerTableRecord
  2
AM_5
 70
     0
 62
     3
  6
CONTINUOUS
  0
LAYER
  5
1B907
102
{ACAD_XDICTIONARY
360
1C871
102
}
330
1B862
100
AcDbSymbolTableRecord
100
AcDbLayerTableRecord
  2
DEFPOINTS
 70
     1
 62
    -7
  6
CONTINUOUS
  0
LAYER
  5
1B908
102
{ACAD_XDICTIONARY
360
1C873
102
}
330
1B862
100
AcDbSymbolTableRecord
100
AcDbLayerTableRecord
  2
CONT_S_2
 70
     0
 62
     2
  6
CONTINUOUS
  0
LAYER
  5
1B909
102
{ACAD_XDICTIONARY
360
1C875
102
}
330
1B862
100
AcDbSymbolTableRecord
100
AcDbLayerTableRecord
  2
MJ
 70
     0
 62
     2
  6
CONTINUOUS
  0
LAYER
  5
1B90A
102
{ACAD_XDICTIONARY
360
1C877
102
}
330
1B862
100
AcDbSymbolTableRecord
100
AcDbLayerTableRecord
  2
OS
 70
     0
 62
     2
  6
CONTINUOUS
  0
LAYER
  5
1B90B
102
{ACAD_XDICTIONARY
360
1C879
102
}
330
1B862
100
AcDbSymbolTableRecord
100
AcDbLayerTableRecord
  2
WK
 70
     0
 62
     7
  6
CONTINUOUS
  0
LAYER
  5
1B90C
102
{ACAD_XDICTIONARY
360
1C87B
102
}
330
1B862
100
AcDbSymbolTableRecord
100
AcDbLayerTableRecord
  2
AM_2
 70
     0
 62
     4
  6
CONTINUOUS
  0
LAYER
  5
1B90D
102
{ACAD_XDICTIONARY
360
1C87D
102
}
330
1B862
100
AcDbSymbolTableRecord
100
AcDbLayerTableRecord
  2
________
 70
     0
 62
     4
  6
DD1
  0
LAYER
  5
1B90E
102
{ACAD_XDICTIONARY
360
1C87F
102
}
330
1B862
100
AcDbSymbolTableRecord
100
AcDbLayerTableRecord
  2
TS
 70
     0
 62
     6
  6
DASHED1
  0
LAYER
  5
1CA2A
102
{ACAD_XDICTIONARY
360
1CA2B
102
}
330
1B862
100
AcDbSymbolTableRecord
100
AcDbLayerTableRecord
  2
１点斜線
 70
     0
 62
     4
  6
DD1
1001
ACAECLAYERSTANDARD
1000

1000

1001
ACCMTRANSPARENCY
1071
 33554687
  0
ENDTAB
  0
TABLE
  2
STYLE
  5
1B863
330
0
100
AcDbSymbolTable
 70
     9
  0
STYLE
  5
1B886
330
1B863
100
AcDbSymbolTableRecord
100
AcDbTextStyleTableRecord
  2
STANDARD
 70
     0
 40
0.0
 41
0.8299999999999998
 50
0.0
 71
     0
 42
2.5
  3
romans.shx
  4
extfont2.shx
  0
STYLE
  5
1B89F
330
1B863
100
AcDbSymbolTableRecord
100
AcDbTextStyleTableRecord
  2
ACJISGDT
 70
     0
 40
0.0
 41
1.0
 50
0.0
 71
     0
 42
2.5
  3
amgdt.shx
  4

  0
STYLE
  5
1B8A0
330
1B863
100
AcDbSymbolTableRecord
100
AcDbTextStyleTableRecord
  2
SIMPLEX
 70
     0
 40
0.0
 41
1.0
 50
0.0
 71
     0
 42
3.5
  3
simplex.shx
  4
extfont2.shx
  0
STYLE
  5
1B8A1
330
1B863
100
AcDbSymbolTableRecord
100
AcDbTextStyleTableRecord
  2
SIMPLEXT
 70
     4
 40
0.0
 41
1.0
 50
0.0
 71
     0
 42
2.5
  3
simplex.shx
  4
extfont2.shx
  0
STYLE
  5
1B98A
330
1B863
100
AcDbSymbolTableRecord
100
AcDbTextStyleTableRecord
  2

 70
     1
 40
0.0
 41
1.0
 50
0.0
 71
     0
 42
2.5
  3
genltshp.shx
  4

  0
STYLE
  5
1B98C
330
1B863
100
AcDbSymbolTableRecord
100
AcDbTextStyleTableRecord
  2
ACANSTS
 70
     0
 40
1.0
 41
1.0
 50
0.0
 71
     0
 42
2.5
  3
romans.shx
  4
extfont.shx
  0
STYLE
  5
1B999
330
1B863
100
AcDbSymbolTableRecord
100
AcDbTextStyleTableRecord
  2
ACANSGDT
 70
     0
 40
0.0
 41
1.0
 50
0.0
 71
     0
 42
2.5
  3
amgdt.shx
  4

  0
STYLE
  5
1B9C4
330
1B863
100
AcDbSymbolTableRecord
100
AcDbTextStyleTableRecord
  2
ACISOTS
 70
     0
 40
1.0
 41
1.0
 50
0.0
 71
     0
 42
2.5
  3
isocp.shx
  4
extfont.shx
  0
STYLE
  5
1B9C5
330
1B863
100
AcDbSymbolTableRecord
100
AcDbTextStyleTableRecord
  2
ACISOGDT
 70
     0
 40
0.0
 41
1.0
 50
0.0
 71
     0
 42
2.5
  3
amgdt.shx
  4

  0
ENDTAB
  0
TABLE
  2
VIEW
  5
1B866
330
0
100
AcDbSymbolTable
 70
     6
  0
VIEW
  5
1B8AE
102
{ACAD_XDICTIONARY
360
1C861
102
}
330
1B866
100
AcDbSymbolTableRecord
100
AcDbViewTableRecord
  2
AM_VIEW1
 70
     0
 40
351.5943593853809
 10
-869.4999962207091
 20
-329.7971788144017
 41
420.9999991601575
 11
0.0
 21
0.0
 31
1.0
 12
0.0
 22
0.0
 32
0.0
 42
50.0
 43
0.0
 44
0.0
 50
0.0
 71
     0
  0
VIEW
  5
1B8AF
102
{ACAD_XDICTIONARY
360
1C863
102
}
330
1B866
100
AcDbSymbolTableRecord
100
AcDbViewTableRecord
  2
AM_VIEW2
 70
     0
 40
351.5943593853809
 10
-448.4999970605516
 20
-329.7971788144017
 41
420.9999991601575
 11
0.0
 21
0.0
 31
1.0
 12
0.0
 22
0.0
 32
0.0
 42
50.0
 43
0.0
 44
0.0
 50
0.0
 71
     0
  0
VIEW
  5
1B8B0
102
{ACAD_XDICTIONARY
360
1C865
102
}
330
1B866
100
AcDbSymbolTableRecord
100
AcDbViewTableRecord
  2
AM_VIEW3
 70
     0
 40
351.5943593853809
 10
-869.4999962207091
 20
-574.2028188434947
 41
420.9999991601575
 11
0.0
 21
0.0
 31
1.0
 12
0.0
 22
0.0
 32
0.0
 42
50.0
 43
0.0
 44
0.0
 50
0.0
 71
     0
  0
VIEW
  5
1B8B1
102
{ACAD_XDICTIONARY
360
1C867
102
}
330
1B866
100
AcDbSymbolTableRecord
100
AcDbViewTableRecord
  2
AM_VIEW4
 70
     0
 40
351.5943593853809
 10
-448.4999970605516
 20
-574.2028188434947
 41
420.9999991601575
 11
0.0
 21
0.0
 31
1.0
 12
0.0
 22
0.0
 32
0.0
 42
50.0
 43
0.0
 44
0.0
 50
0.0
 71
     0
  0
VIEW
  5
1B8B2
102
{ACAD_XDICTIONARY
360
1C869
102
}
330
1B866
100
AcDbSymbolTableRecord
100
AcDbViewTableRecord
  2
AM_VIEW5
 70
     0
 40
351.5943593853809
 10
-658.9999966406303
 20
-451.9999988289483
 41
420.9999991601575
 11
0.0
 21
0.0
 31
1.0
 12
0.0
 22
0.0
 32
0.0
 42
50.0
 43
0.0
 44
0.0
 50
0.0
 71
     0
  0
VIEW
  5
1B8B3
102
{ACAD_XDICTIONARY
360
1C86B
102
}
330
1B866
100
AcDbSymbolTableRecord
100
AcDbViewTableRecord
  2
AM_VIEW6
 70
     0
 40
703.1816868835744
 10
-658.9999966406303
 20
-451.9999988289483
 41
841.9915783203318
 11
0.0
 21
0.0
 31
1.0
 12
0.0
 22
0.0
 32
0.0
 42
50.0
 43
0.0
 44
0.0
 50
0.0
 71
     0
  0
ENDTAB
  0
TABLE
  2
UCS
  5
1B867
330
0
100
AcDbSymbolTable
 70
     0
  0
ENDTAB
  0
TABLE
  2
APPID
  5
1B869
330
0
100
AcDbSymbolTable
 70
    75
  0
APPID
  5
1B887
330
1B869
100
AcDbSymbolTableRecord
100
AcDbRegAppTableRecord
  2
ACAD
 70
     0
  0
APPID
  5
1B8B5
330
1B869
100
AcDbSymbolTableRecord
100
AcDbRegAppTableRecord
  2
MCAD_NO_VIS
 70
     0
  0
APPID
  5
1B8B6
330
1B869
100
AcDbSymbolTableRecord
100
AcDbRegAppTableRecord
  2
ACAD_TEMP_GRAPHIC
 70
     0
  0
APPID
  5
1B8B7
330
1B869
100
AcDbSymbolTableRecord
100
AcDbRegAppTableRecord
  2
ACATTRIBSERVICES
 70
     0
  0
APPID
  5
1B8B8
330
1B869
100
AcDbSymbolTableRecord
100
AcDbRegAppTableRecord
  2
GENIUS_GENDIMSH_14
 70
     0
  0
APPID
  5
1B8B9
330
1B869
100
AcDbSymbolTableRecord
100
AcDbRegAppTableRecord
  2
GENIUS_GENOLIS_13
 70
     0
  0
APPID
  5
1B8BA
330
1B869
100
AcDbSymbolTableRecord
100
AcDbRegAppTableRecord
  2
GENIUS_GENOENT_13
 70
     0
  0
APPID
  5
1B8BB
330
1B869
100
AcDbSymbolTableRecord
100
AcDbRegAppTableRecord
  2
GENIUS_GENOBJ-N-TIT_13
 70
     0
  0
APPID
  5
1B8BC
330
1B869
100
AcDbSymbolTableRecord
100
AcDbRegAppTableRecord
  2
GENIUS_GENODEF_13
 70
     0
  0
APPID
  5
1B8BD
330
1B869
100
AcDbSymbolTableRecord
100
AcDbRegAppTableRecord
  2
GENIUS_GENTITLE_13
 70
     0
  0
APPID
  5
1B8BE
330
1B869
100
AcDbSymbolTableRecord
100
AcDbRegAppTableRecord
  2
GENIUS_GENOREF_13
 70
     0
  0
APPID
  5
1B8BF
330
1B869
100
AcDbSymbolTableRecord
100
AcDbRegAppTableRecord
  2
GENIUS_GENSCREG_15
 70
     0
  0
APPID
  5
1B8C0
330
1B869
100
AcDbSymbolTableRecord
100
AcDbRegAppTableRecord
  2
GENIUS_GENOBJ-N-SDF_13
 70
     0
  0
APPID
  5
1B8C1
330
1B869
100
AcDbSymbolTableRecord
100
AcDbRegAppTableRecord
  2
GENIUS_GENOBJ-N-REV_13
 70
     0
  0
APPID
  5
1B8C2
330
1B869
100
AcDbSymbolTableRecord
100
AcDbRegAppTableRecord
  2
GENIUS_GENOBJ-N-RSSYM_13
 70
     0
  0
APPID
  5
1B8C3
330
1B869
100
AcDbSymbolTableRecord
100
AcDbRegAppTableRecord
  2
GENIUS_GENSYMENT_13
 70
     0
  0
APPID
  5
1B8C4
330
1B869
100
AcDbSymbolTableRecord
100
AcDbRegAppTableRecord
  2
GENIUS_GENSCSYM_13
 70
     0
  0
APPID
  5
1B8C5
330
1B869
100
AcDbSymbolTableRecord
100
AcDbRegAppTableRecord
  2
DCO15
 70
     0
  0
APPID
  5
1B8C6
330
1B869
100
AcDbSymbolTableRecord
100
AcDbRegAppTableRecord
  2
GENIUS_GENDTOL_13
 70
     0
  0
APPID
  5
1B8C7
330
1B869
100
AcDbSymbolTableRecord
100
AcDbRegAppTableRecord
  2
HC_SUPERPART
 70
     0
  0
APPID
  5
1B8C8
330
1B869
100
AcDbSymbolTableRecord
100
AcDbRegAppTableRecord
  2
HC_SP4BLOCK
 70
     0
  0
APPID
  5
1B8C9
330
1B869
100
AcDbSymbolTableRecord
100
AcDbRegAppTableRecord
  2
HC_XDATA_SPRING
 70
     0
  0
APPID
  5
1B8CA
330
1B869
100
AcDbSymbolTableRecord
100
AcDbRegAppTableRecord
  2
HCCAD_FRAME
 70
     0
  0
APPID
  5
1B8CB
330
1B869
100
AcDbSymbolTableRecord
100
AcDbRegAppTableRecord
  2
GENIUS_GENOBJ-N-ZOO_13
 70
     0
  0
APPID
  5
1B8CC
330
1B869
100
AcDbSymbolTableRecord
100
AcDbRegAppTableRecord
  2
GENIUS_GENREV_15
 70
     0
  0
APPID
  5
1B8CD
330
1B869
100
AcDbSymbolTableRecord
100
AcDbRegAppTableRecord
  2
HRA
 70
     0
  0
APPID
  5
1B8CE
330
1B869
100
AcDbSymbolTableRecord
100
AcDbRegAppTableRecord
  2
HTIT
 70
     0
  0
APPID
  5
1B8CF
330
1B869
100
AcDbSymbolTableRecord
100
AcDbRegAppTableRecord
  2
GENIUS_GENZOO_17
 70
     0
  0
APPID
  5
1B8D0
330
1B869
100
AcDbSymbolTableRecord
100
AcDbRegAppTableRecord
  2
GENIUS_GENOBJ-N-CEN_13
 70
     0
  0
APPID
  5
1B8D1
330
1B869
100
AcDbSymbolTableRecord
100
AcDbRegAppTableRecord
  2
GENIUS_GENCEN_19
 70
     0
  0
APPID
  5
1B8D2
330
1B869
100
AcDbSymbolTableRecord
100
AcDbRegAppTableRecord
  2
GENIUS_GENOBJ-N-CRS_13
 70
     0
  0
APPID
  5
1B8D3
330
1B869
100
AcDbSymbolTableRecord
100
AcDbRegAppTableRecord
  2
GENIUS_GENCRS_20
 70
     0
  0
APPID
  5
1B8D4
330
1B869
100
AcDbSymbolTableRecord
100
AcDbRegAppTableRecord
  2
GENIUS_GENOBJ-N-CRC_13
 70
     0
  0
APPID
  5
1B8D5
330
1B869
100
AcDbSymbolTableRecord
100
AcDbRegAppTableRecord
  2
GENIUS_GENCRC_14
 70
     0
  0
APPID
  5
1B8D6
330
1B869
100
AcDbSymbolTableRecord
100
AcDbRegAppTableRecord
  2
GENIUS_GENFIL_13
 70
     0
  0
APPID
  5
1B8D7
330
1B869
100
AcDbSymbolTableRecord
100
AcDbRegAppTableRecord
  2
GENIUS_GENOBJ-N-CHA_13
 70
     0
  0
APPID
  5
1B8D8
330
1B869
100
AcDbSymbolTableRecord
100
AcDbRegAppTableRecord
  2
GENIUS_GENOBJ-N-FIL_13
 70
     0
  0
APPID
  5
1B8D9
330
1B869
100
AcDbSymbolTableRecord
100
AcDbRegAppTableRecord
  2
GENIUS_GENHATCH_13
 70
     0
  0
APPID
  5
1B8DA
330
1B869
100
AcDbSymbolTableRecord
100
AcDbRegAppTableRecord
  2
GENIUS_GENOBJ-N-HTC_13
 70
     0
  0
APPID
  5
1B8DB
330
1B869
100
AcDbSymbolTableRecord
100
AcDbRegAppTableRecord
  2
GENIUS_GENDIM_13
 70
     0
  0
APPID
  5
1B8DC
330
1B869
100
AcDbSymbolTableRecord
100
AcDbRegAppTableRecord
  2
GENIUS_GENOBJ-N-DIM_13
 70
     0
  0
APPID
  5
1B8DD
330
1B869
100
AcDbSymbolTableRecord
100
AcDbRegAppTableRecord
  2
GENIUS_GENOBJ-N-DIMLI_13
 70
     0
  0
APPID
  5
1B8DE
330
1B869
100
AcDbSymbolTableRecord
100
AcDbRegAppTableRecord
  2
GENIUS_GENOBJ-N-FITL_13
 70
     0
  0
APPID
  5
1B8DF
330
1B869
100
AcDbSymbolTableRecord
100
AcDbRegAppTableRecord
  2
GENIUS_GENFITL_13
 70
     0
  0
APPID
  5
1B8E0
330
1B869
100
AcDbSymbolTableRecord
100
AcDbRegAppTableRecord
  2
GENLAYCOLOR
 70
     0
  0
APPID
  5
1B8E1
330
1B869
100
AcDbSymbolTableRecord
100
AcDbRegAppTableRecord
  2
GENIUS_GENOBJ-NBEHI-BHB_13
 70
     0
  0
APPID
  5
1B8E2
330
1B869
100
AcDbSymbolTableRecord
100
AcDbRegAppTableRecord
  2
GENIUS_GENOBJ-NBEHI-BHF_13
 70
     0
  0
APPID
  5
1B8E3
330
1B869
100
AcDbSymbolTableRecord
100
AcDbRegAppTableRecord
  2
GENIUS_GENBH_13
 70
     0
  0
APPID
  5
1B8E4
330
1B869
100
AcDbSymbolTableRecord
100
AcDbRegAppTableRecord
  2
GENIUS_GENBHRL_14
 70
     0
  0
APPID
  5
1B8E5
330
1B869
100
AcDbSymbolTableRecord
100
AcDbRegAppTableRecord
  2
ACAECLAYERSTANDARD
 70
     0
  0
APPID
  5
1B8E6
330
1B869
100
AcDbSymbolTableRecord
100
AcDbRegAppTableRecord
  2
ACAD_MLEADERVER
 70
     0
  0
APPID
  5
1B8E7
330
1B869
100
AcDbSymbolTableRecord
100
AcDbRegAppTableRecord
  2
ACCMTRANSPARENCY
 70
     0
  0
APPID
  5
1B8E8
330
1B869
100
AcDbSymbolTableRecord
100
AcDbRegAppTableRecord
  2
ACAD_DSTYLE_DIMINSPECT
 70
     0
  0
APPID
  5
1B8E9
330
1B869
100
AcDbSymbolTableRecord
100
AcDbRegAppTableRecord
  2
ACADANNOTATIVE
 70
     0
  0
APPID
  5
1B8EA
330
1B869
100
AcDbSymbolTableRecord
100
AcDbRegAppTableRecord
  2
HATCHBACKGROUNDCOLOR
 70
     0
  0
APPID
  5
1B8EB
330
1B869
100
AcDbSymbolTableRecord
100
AcDbRegAppTableRecord
  2
ACAD_DSTYLE_DIMJAG
 70
     0
  0
APPID
  5
1B8EC
330
1B869
100
AcDbSymbolTableRecord
100
AcDbRegAppTableRecord
  2
ACAD_DSTYLE_DIMBREAK
 70
     0
  0
APPID
  5
1B8ED
330
1B869
100
AcDbSymbolTableRecord
100
AcDbRegAppTableRecord
  2
ACAD_DSTYLE_DIMTALN
 70
     0
  0
APPID
  5
1B8EE
330
1B869
100
AcDbSymbolTableRecord
100
AcDbRegAppTableRecord
  2
ACAD_DSTYLE_DIMARC_LENGTH_
 70
     0
  0
APPID
  5
1B8EF
330
1B869
100
AcDbSymbolTableRecord
100
AcDbRegAppTableRecord
  2
ACAD_PSEXT
 70
     0
  0
APPID
  5
1B8F0
330
1B869
100
AcDbSymbolTableRecord
100
AcDbRegAppTableRecord
  2
PLOTTRANSPARENCY
 70
     0
  0
APPID
  5
1B8F1
330
1B869
100
AcDbSymbolTableRecord
100
AcDbRegAppTableRecord
  2
GENIUS_GENREC_14
 70
     0
  0
APPID
  5
1B8F2
330
1B869
100
AcDbSymbolTableRecord
100
AcDbRegAppTableRecord
  2
GENIUS_GENOBJ-N-REC_13
 70
     0
  0
APPID
  5
1B8F3
330
1B869
100
AcDbSymbolTableRecord
100
AcDbRegAppTableRecord
  2
ACAD_DSTYLE_DIM_LINETYPE
 70
     0
  0
APPID
  5
1B8F4
330
1B869
100
AcDbSymbolTableRecord
100
AcDbRegAppTableRecord
  2
ACAD_DSTYLE_DIM_EXT1_LINET
 70
     0
  0
APPID
  5
1B8F5
330
1B869
100
AcDbSymbolTableRecord
100
AcDbRegAppTableRecord
  2
ACAD_DSTYLE_DIM_EXT2_LINET
 70
     0
  0
APPID
  5
1B8F6
330
1B869
100
AcDbSymbolTableRecord
100
AcDbRegAppTableRecord
  2
ACADANNOPO
 70
     0
  0
APPID
  5
1B8F7
330
1B869
100
AcDbSymbolTableRecord
100
AcDbRegAppTableRecord
  2
ACAD_NAV_VCDISPLAY
 70
     0
  0
APPID
  5
1B8F8
330
1B869
100
AcDbSymbolTableRecord
100
AcDbRegAppTableRecord
  2
ACDBBLOCKREPETAG
 70
     0
  0
APPID
  5
1B955
330
1B869
100
AcDbSymbolTableRecord
100
AcDbRegAppTableRecord
  2
AD_DRAW
 70
     0
  0
APPID
  5
1B978
330
1B869
100
AcDbSymbolTableRecord
100
AcDbRegAppTableRecord
  2
DESIGNERASSEMBLIES
 70
     0
  0
APPID
  5
1B97E
330
1B869
100
AcDbSymbolTableRecord
100
AcDbRegAppTableRecord
  2
ACADM_DIM_EDIT
 70
     0
  0
APPID
  5
1B97F
330
1B869
100
AcDbSymbolTableRecord
100
AcDbRegAppTableRecord
  2
AMDT_DM_ADJ
 70
     0
  0
APPID
  5
1B9B6
330
1B869
100
AcDbSymbolTableRecord
100
AcDbRegAppTableRecord
  2
ACAD_EXEMPT_FROM_CAD_STANDARDS
 70
     0
  0
APPID
  5
1BBC5
330
1B869
100
AcDbSymbolTableRecord
100
AcDbRegAppTableRecord
  2
ACAD_DSTYLE_DIMARC_LENGTH0
 70
     0
  0
ENDTAB
  0
TABLE
  2
DIMSTYLE
  5
1B86A
330
0
100
AcDbSymbolTable
 70
    22
  0
DIMSTYLE
105
1B8F9
330
1B86A
100
AcDbSymbolTableRecord
100
AcDbDimStyleTableRecord
  2
AM_JIS
 70
     0
  3

  4
"
  5
OPEN
  6

  7

 40
1.0
 41
1.6
 42
1.0
 43
7.0
 44
1.0
 45
0.0
 46
0.0
 47
0.1
 48
0.1
140
2.5
141
0.0
142
0.0
143
0.0393701
144
1.0
145
0.0
146
0.71
147
0.625
 71
     0
 72
     0
 73
     0
 74
     0
 75
     0
 76
     0
 77
     1
 78
     8
170
     0
171
     2
172
     1
173
     0
174
     0
175
     0
176
   256
177
   256
178
   256
270
     2
271
     4
272
     4
273
     2
274
     2
340
1B886
275
     0
280
     0
281
     0
282
     0
283
     1
284
     8
285
     8
286
     8
287
     5
288
     0
  0
DIMSTYLE
105
1B8FA
330
1B86A
100
AcDbSymbolTableRecord
100
AcDbDimStyleTableRecord
  2
AM_JIS$3
 70
     0
  3

  4
"
  5
OPEN
  6

  7

 40
1.0
 41
1.6
 42
1.0
 43
7.0
 44
1.0
 45
0.0
 46
0.0
 47
0.1
 48
0.1
140
2.5
141
0.0
142
0.0
143
0.0393701
144
1.0
145
0.0
146
0.71
147
0.625
 71
     0
 72
     0
 73
     0
 74
     0
 75
     0
 76
     0
 77
     1
 78
     8
170
     0
171
     2
172
     1
173
     0
174
     0
175
     0
176
   256
177
   256
178
   256
270
     2
271
     4
272
     4
273
     2
274
     2
340
1B886
275
     0
280
     0
281
     0
282
     0
283
     1
284
     8
285
     8
286
     8
287
     5
288
     0
  0
DIMSTYLE
105
1B8FB
330
1B86A
100
AcDbSymbolTableRecord
100
AcDbDimStyleTableRecord
  2
AM_JIS$4
 70
     0
  3

  4
"
  5
OPEN
  6

  7

 40
1.0
 41
1.6
 42
1.0
 43
7.0
 44
1.0
 45
0.0
 46
0.0
 47
0.1
 48
0.1
140
2.5
141
0.0
142
0.0
143
0.0393701
144
1.0
145
0.0
146
0.71
147
0.625
 71
     0
 72
     0
 73
     0
 74
     0
 75
     0
 76
     0
 77
     1
 78
     8
170
     0
171
     2
172
     1
173
     0
174
     0
175
     0
176
   256
177
   256
178
   256
270
     2
271
     4
272
     4
273
     2
274
     2
340
1B886
275
     0
280
     0
281
     0
282
     0
283
     1
284
     8
285
     8
286
     8
287
     5
288
     0
  0
DIMSTYLE
105
1B8FC
330
1B86A
100
AcDbSymbolTableRecord
100
AcDbDimStyleTableRecord
  2
AM_JIS$6
 70
     0
  3

  4
"
  5
OPEN
  6

  7

 40
1.0
 41
1.6
 42
1.0
 43
7.0
 44
1.0
 45
0.0
 46
0.0
 47
0.1
 48
0.1
140
2.5
141
0.0
142
0.0
143
0.0393701
144
1.0
145
0.0
146
0.71
147
0.625
 71
     0
 72
     0
 73
     0
 74
     0
 75
     0
 76
     0
 77
     0
 78
     8
170
     0
171
     2
172
     1
173
     0
174
     0
175
     0
176
   256
177
   256
178
   256
270
     2
271
     4
272
     4
273
     2
274
     2
340
1B886
275
     0
280
     0
281
     0
282
     0
283
     1
284
     8
285
     8
286
     8
287
     5
288
     0
  0
DIMSTYLE
105
1B8FD
330
1B86A
100
AcDbSymbolTableRecord
100
AcDbDimStyleTableRecord
  2
AM_JIS$7
 70
     0
  3

  4
"
  5
OPEN
  6

  7

 40
1.0
 41
1.6
 42
1.0
 43
7.0
 44
1.0
 45
0.0
 46
0.0
 47
0.1
 48
0.1
140
2.5
141
0.0
142
0.0
143
0.0393701
144
1.0
145
0.0
146
0.71
147
0.625
 71
     0
 72
     0
 73
     0
 74
     0
 75
     0
 76
     0
 77
     1
 78
     8
170
     0
171
     2
172
     1
173
     0
174
     0
175
     0
176
   256
177
   256
178
   256
270
     2
271
     4
272
     4
273
     2
274
     2
340
1B886
275
     0
280
     0
281
     0
282
     0
283
     1
284
     8
285
     8
286
     8
287
     5
288
     0
  0
DIMSTYLE
105
1B8FE
330
1B86A
100
AcDbSymbolTableRecord
100
AcDbDimStyleTableRecord
  2
AM_JIS$SF
 70
     0
  3

  4
"
  5
OPEN30
  6
OPEN30
  7
OPEN30
 40
1.0
 41
2.5
 42
1.0
 43
10.0
 44
1.0
 45
0.0
 46
0.0
 47
0.1
 48
0.1
140
3.5
141
0.0
142
0.0
143
0.0393701
144
1.0
145
0.0
146
0.71
147
1.5
 71
     0
 72
     0
 73
     0
 74
     0
 75
     1
 76
     1
 77
     3
 78
     8
170
     0
171
     2
172
     1
173
     0
174
     0
175
     0
176
   256
177
   256
178
     2
270
     2
271
     4
272
     4
273
     2
274
     2
340
1B886
275
     0
280
     0
281
     0
282
     0
283
     1
284
     8
285
     8
286
     8
287
     5
288
     0
  0
DIMSTYLE
105
1B8FF
330
1B86A
100
AcDbSymbolTableRecord
100
AcDbDimStyleTableRecord
  2
AM_JIS$SH
 70
     0
  3

  4
"
  5
OPEN30
  6
GENAXEH
  7
OPEN30
 40
1.0
 41
2.5
 42
1.0
 43
10.0
 44
1.0
 45
0.0
 46
0.0
 47
0.1
 48
0.1
140
3.5
141
0.0
142
0.0
143
0.0393701
144
2.0
145
0.0
146
0.71
147
1.5
 71
     0
 72
     0
 73
     0
 74
     0
 75
     1
 76
     1
 77
     3
 78
     8
170
     0
171
     2
172
     1
173
     1
174
     0
175
     0
176
   256
177
   256
178
     2
270
     2
271
     4
272
     4
273
     2
274
     2
340
1B886
275
     0
280
     0
281
     0
282
     0
283
     1
284
     8
285
     8
286
     8
287
     5
288
     0
  0
DIMSTYLE
105
1B900
330
1B86A
100
AcDbSymbolTableRecord
100
AcDbDimStyleTableRecord
  2
DTOS-2
 70
     0
  3

  4
"
  5
SMALL
  6

  7

 40
2.0
 41
1.0
 42
1.0
 43
7.0
 44
1.0
 45
0.0
 46
0.0
 47
0.1
 48
0.1
140
3.0
141
0.0
142
0.0
143
0.0393701
144
1.0
145
0.0
146
0.71
147
1.0
 71
     0
 72
     0
 73
     0
 74
     0
 75
     0
 76
     0
 77
     1
 78
     8
170
     0
171
     2
172
     1
173
     0
174
     1
175
     0
176
   256
177
   256
178
   256
270
     2
271
     4
272
     4
273
     2
274
     2
340
1B886
275
     0
280
     0
281
     0
282
     0
283
     1
284
     8
285
     8
286
     8
287
     5
288
     0
  0
DIMSTYLE
105
1B901
330
1B86A
100
AcDbSymbolTableRecord
100
AcDbDimStyleTableRecord
  2
STANDARD
 70
     0
  3

  4

  5

  6

  7

 40
1.0
 41
0.18
 42
0.0625
 43
0.38
 44
0.18
 45
0.0
 46
0.0
 47
0.0
 48
0.0
140
0.18
141
0.09
142
0.0
143
25.4
144
1.0
145
0.0
146
1.0
147
0.09
 71
     0
 72
     0
 73
     1
 74
     1
 75
     0
 76
     0
 77
     0
 78
     0
170
     0
171
     2
172
     0
173
     0
174
     0
175
     0
176
     0
177
     0
178
     0
270
     2
271
     4
272
     4
273
     2
274
     2
340
1B886
275
     0
280
     0
281
     0
282
     0
283
     1
284
     8
285
     8
286
     8
287
     5
288
     0
  0
DIMSTYLE
105
1B9A6
330
1B86A
100
AcDbSymbolTableRecord
100
AcDbDimStyleTableRecord
  2
AM_ANSI
 70
     0
  3

  4
mm
  5

  6

  7

 40
1.0
 41
0.1
 42
0.05
 43
0.5
 44
0.1
 45
0.0
 46
0.0
 47
0.1
 48
0.1
140
0.12
141
0.0
142
0.0
143
25.4
144
1.0
145
0.0
146
0.71
147
0.06
 71
     0
 72
     0
 73
     1
 74
     1
 75
     0
 76
     0
 77
     0
 78
     7
170
     0
171
     2
172
     0
173
     0
174
     0
175
     0
176
   256
177
   256
178
     2
270
     2
271
     4
272
     4
273
     2
274
     4
340
1B886
275
     0
280
     0
281
     0
282
     0
283
     1
284
     7
285
     0
286
     0
287
     3
288
     0
1001
ACAD_DSTYLE_DIMARC_LENGTH0
1070
   379
1070
     1
  0
DIMSTYLE
105
1B9A7
330
1B86A
100
AcDbSymbolTableRecord
100
AcDbDimStyleTableRecord
  2
AM_ANSI$3
 70
     0
  3

  4
mm
  5

  6

  7

 40
1.0
 41
0.1
 42
0.05
 43
0.5
 44
0.1
 45
0.0
 46
0.0
 47
0.1
 48
0.1
140
0.12
141
0.0
142
0.0
143
25.4
144
1.0
145
0.0
146
0.71
147
0.06
 71
     0
 72
     0
 73
     1
 74
     1
 75
     0
 76
     0
 77
     0
 78
     7
170
     0
171
     2
172
     0
173
     0
174
     0
175
     0
176
   256
177
   256
178
     2
270
     2
271
     4
272
     4
273
     2
274
     4
340
1B886
275
     0
280
     0
281
     0
282
     0
283
     1
284
     7
285
     0
286
     0
287
     0
288
     1
1001
ACAD_DSTYLE_DIMARC_LENGTH0
1070
   379
1070
     1
  0
DIMSTYLE
105
1B9A8
330
1B86A
100
AcDbSymbolTableRecord
100
AcDbDimStyleTableRecord
  2
AM_ANSI$4
 70
     0
  3

  4
mm
  5

  6

  7

 40
1.0
 41
0.1
 42
0.05
 43
0.5
 44
0.1
 45
0.0
 46
0.0
 47
0.1
 48
0.1
140
0.12
141
0.0
142
0.0
143
25.4
144
1.0
145
0.0
146
0.71
147
0.06
 71
     0
 72
     0
 73
     1
 74
     1
 75
     0
 76
     0
 77
     0
 78
     7
170
     0
171
     2
172
     0
173
     0
174
     0
175
     0
176
   256
177
   256
178
     2
270
     2
271
     4
272
     4
273
     2
274
     4
340
1B886
275
     0
280
     0
281
     0
282
     0
283
     1
284
     7
285
     0
286
     0
287
     0
288
     1
1001
ACAD_DSTYLE_DIMARC_LENGTH0
1070
   379
1070
     1
  0
DIMSTYLE
105
1B9A9
330
1B86A
100
AcDbSymbolTableRecord
100
AcDbDimStyleTableRecord
  2
AM_ANSI$7
 70
     0
  3

  4
mm
  5

  6

  7

 40
1.0
 41
0.1
 42
0.05
 43
0.5
 44
0.1
 45
0.0
 46
0.0
 47
0.1
 48
0.1
140
0.24
141
0.0
142
0.0
143
25.4
144
1.0
145
0.0
146
0.71
147
0.06
 71
     0
 72
     0
 73
     1
 74
     1
 75
     0
 76
     0
 77
     0
 78
     7
170
     0
171
     2
172
     0
173
     0
174
     0
175
     0
176
   256
177
   256
178
     2
270
     2
271
     4
272
     4
273
     2
274
     4
340
1B886
275
     0
280
     0
281
     0
282
     0
283
     1
284
     7
285
     0
286
     0
287
     3
288
     0
1001
ACAD_DSTYLE_DIMARC_LENGTH0
1070
   379
1070
     1
  0
DIMSTYLE
105
1B9AA
330
1B86A
100
AcDbSymbolTableRecord
100
AcDbDimStyleTableRecord
  2
AM_ANSI$SF
 70
     0
  3

  4
mm
  5

  6

  7

 40
1.0
 41
0.1
 42
0.05
 43
0.5
 44
0.1
 45
0.0
 46
0.0
 47
0.1
 48
0.1
140
0.12
141
0.0
142
0.0
143
25.4
144
1.0
145
0.0
146
0.71
147
0.06
 71
     0
 72
     0
 73
     1
 74
     1
 75
     1
 76
     1
 77
     0
 78
     7
170
     0
171
     2
172
     0
173
     0
174
     0
175
     0
176
   256
177
   256
178
     2
270
     2
271
     4
272
     4
273
     2
274
     4
340
1B886
275
     0
280
     0
281
     0
282
     0
283
     1
284
     7
285
     0
286
     0
287
     3
288
     0
1001
ACAD_DSTYLE_DIMARC_LENGTH0
1070
   379
1070
     1
  0
DIMSTYLE
105
1B9AB
330
1B86A
100
AcDbSymbolTableRecord
100
AcDbDimStyleTableRecord
  2
AM_ANSI$SH
 70
     0
  3

  4
mm
  5

  6
GENAXEH
  7

 40
1.0
 41
0.1
 42
0.05
 43
0.5
 44
0.1
 45
0.0
 46
0.0
 47
0.1
 48
0.1
140
0.12
141
0.0
142
0.0
143
25.4
144
1.0
145
0.0
146
0.71
147
0.06
 71
     0
 72
     0
 73
     1
 74
     1
 75
     1
 76
     1
 77
     0
 78
     7
170
     0
171
     2
172
     0
173
     1
174
     0
175
     0
176
   256
177
   256
178
     2
270
     2
271
     4
272
     4
273
     2
274
     4
340
1B886
275
     0
280
     0
281
     0
282
     0
283
     1
284
     7
285
     0
286
     0
287
     3
288
     0
1001
ACAD_DSTYLE_DIMARC_LENGTH0
1070
   379
1070
     1
  0
DIMSTYLE
105
1B9C6
330
1B86A
100
AcDbSymbolTableRecord
100
AcDbDimStyleTableRecord
  2
AM_ISO
 70
     0
  3

  4
"
  5

  6

  7

 40
1.0
 41
2.5
 42
1.0
 43
10.0
 44
1.0
 45
0.0
 46
0.0
 47
0.1
 48
0.1
140
3.5
141
0.0
142
0.0
143
0.0393701
144
1.0
145
0.0
146
0.71
147
1.5
 71
     0
 72
     0
 73
     0
 74
     0
 75
     0
 76
     0
 77
     1
 78
     8
170
     0
171
     2
172
     1
173
     0
174
     0
175
     0
176
   256
177
   256
178
     2
270
     2
271
     2
272
     3
273
     2
274
     4
340
1B886
275
     0
280
     0
281
     0
282
     0
283
     0
284
     8
285
     0
286
     0
287
     3
288
     0
1001
ACAD_DSTYLE_DIMARC_LENGTH0
1070
   379
1070
     1
  0
DIMSTYLE
105
1B9C7
330
1B86A
100
AcDbSymbolTableRecord
100
AcDbDimStyleTableRecord
  2
AM_ISO$3
 70
     0
  3

  4
"
  5

  6

  7

 40
1.0
 41
2.5
 42
1.0
 43
10.0
 44
1.0
 45
0.0
 46
0.0
 47
0.1
 48
0.1
140
3.5
141
0.0
142
0.0
143
0.0393701
144
1.0
145
0.0
146
0.71
147
1.5
 71
     0
 72
     0
 73
     0
 74
     1
 75
     0
 76
     0
 77
     1
 78
     8
170
     0
171
     2
172
     0
173
     0
174
     0
175
     0
176
   256
177
   256
178
     2
270
     2
271
     2
272
     3
273
     2
274
     4
340
1B886
275
     0
280
     0
281
     0
282
     0
283
     0
284
     8
285
     0
286
     0
287
     0
288
     1
1001
ACAD_DSTYLE_DIMARC_LENGTH0
1070
   379
1070
     1
  0
DIMSTYLE
105
1B9C8
330
1B86A
100
AcDbSymbolTableRecord
100
AcDbDimStyleTableRecord
  2
AM_ISO$4
 70
     0
  3

  4
"
  5

  6

  7

 40
1.0
 41
2.5
 42
1.0
 43
10.0
 44
1.0
 45
0.0
 46
0.0
 47
0.1
 48
0.1
140
3.5
141
0.0
142
0.0
143
0.0393701
144
1.0
145
0.0
146
0.71
147
1.5
 71
     0
 72
     0
 73
     0
 74
     1
 75
     0
 76
     0
 77
     1
 78
     8
170
     0
171
     2
172
     0
173
     0
174
     0
175
     0
176
   256
177
   256
178
     2
270
     2
271
     2
272
     3
273
     2
274
     4
340
1B886
275
     0
280
     0
281
     0
282
     0
283
     0
284
     8
285
     0
286
     0
287
     0
288
     1
1001
ACAD_DSTYLE_DIMARC_LENGTH0
1070
   379
1070
     1
  0
DIMSTYLE
105
1B9C9
330
1B86A
100
AcDbSymbolTableRecord
100
AcDbDimStyleTableRecord
  2
AM_ISO$6
 70
     0
  3

  4
"
  5

  6

  7

 40
1.0
 41
2.5
 42
1.0
 43
10.0
 44
1.0
 45
0.0
 46
0.0
 47
0.1
 48
0.1
140
3.5
141
0.0
142
0.0
143
0.0393701
144
1.0
145
0.0
146
0.71
147
1.5
 71
     0
 72
     0
 73
     0
 74
     0
 75
     0
 76
     0
 77
     0
 78
     8
170
     0
171
     2
172
     1
173
     0
174
     0
175
     0
176
   256
177
   256
178
     2
270
     2
271
     2
272
     3
273
     2
274
     4
340
1B886
275
     0
280
     0
281
     0
282
     0
283
     0
284
     8
285
     0
286
     0
287
     3
288
     0
1001
ACAD_DSTYLE_DIMARC_LENGTH0
1070
   379
1070
     1
  0
DIMSTYLE
105
1B9CA
330
1B86A
100
AcDbSymbolTableRecord
100
AcDbDimStyleTableRecord
  2
AM_ISO$7
 70
     0
  3

  4
"
  5

  6

  7

 40
1.0
 41
2.5
 42
1.0
 43
10.0
 44
1.0
 45
0.0
 46
0.0
 47
0.1
 48
0.1
140
5.0
141
0.0
142
0.0
143
0.0393701
144
1.0
145
0.0
146
0.71
147
1.5
 71
     0
 72
     0
 73
     0
 74
     0
 75
     0
 76
     0
 77
     1
 78
     8
170
     0
171
     2
172
     1
173
     0
174
     0
175
     0
176
   256
177
   256
178
     2
270
     2
271
     2
272
     3
273
     2
274
     4
340
1B886
275
     0
280
     0
281
     0
282
     0
283
     0
284
     8
285
     0
286
     0
287
     3
288
     0
1001
ACAD_DSTYLE_DIMARC_LENGTH0
1070
   379
1070
     1
  0
DIMSTYLE
105
1B9CB
330
1B86A
100
AcDbSymbolTableRecord
100
AcDbDimStyleTableRecord
  2
AM_ISO$SF
 70
     0
  3

  4
"
  5

  6

  7

 40
1.0
 41
2.5
 42
1.0
 43
10.0
 44
1.0
 45
0.0
 46
0.0
 47
0.1
 48
0.1
140
3.5
141
0.0
142
0.0
143
0.0393701
144
1.0
145
0.0
146
0.71
147
1.5
 71
     0
 72
     0
 73
     0
 74
     0
 75
     1
 76
     1
 77
     1
 78
     8
170
     0
171
     2
172
     1
173
     0
174
     0
175
     0
176
   256
177
   256
178
     2
270
     2
271
     2
272
     3
273
     2
274
     4
340
1B886
275
     0
280
     0
281
     0
282
     0
283
     0
284
     8
285
     0
286
     0
287
     3
288
     0
1001
ACAD_DSTYLE_DIMARC_LENGTH0
1070
   379
1070
     1
  0
DIMSTYLE
105
1B9CC
330
1B86A
100
AcDbSymbolTableRecord
100
AcDbDimStyleTableRecord
  2
AM_ISO$SH
 70
     0
  3

  4
"
  5

  6
GENAXEH
  7

 40
1.0
 41
2.5
 42
1.0
 43
10.0
 44
1.0
 45
0.0
 46
0.0
 47
0.1
 48
0.1
140
3.5
141
0.0
142
0.0
143
0.0393701
144
2.0
145
0.0
146
0.71
147
1.5
 71
     0
 72
     0
 73
     0
 74
     0
 75
     1
 76
     1
 77
     1
 78
     8
170
     0
171
     2
172
     1
173
     1
174
     0
175
     0
176
   256
177
   256
178
     2
270
     2
271
     2
272
     3
273
     2
274
     4
340
1B886
275
     0
280
     0
281
     0
282
     0
283
     0
284
     8
285
     0
286
     0
287
     3
288
     0
1001
ACAD_DSTYLE_DIMARC_LENGTH0
1070
   379
1070
     1
  0
ENDTAB
  0
TABLE
  2
BLOCK_RECORD
  5
1B861
330
0
100
AcDbSymbolTable
 70
     4
  0
BLOCK_RECORD
  5
1B896
102
{ACAD_XDICTIONARY
360
1B9BD
102
}
330
1B861
100
AcDbSymbolTableRecord
100
AcDbBlockTableRecord
  2
*MODEL_SPACE
  0
BLOCK_RECORD
  5
1B892
102
{ACAD_XDICTIONARY
360
1CAF9
102
}
330
1B861
100
AcDbSymbolTableRecord
100
AcDbBlockTableRecord
  2
*PAPER_SPACE
  0
BLOCK_RECORD
  5
1B89A
330
1B861
100
AcDbSymbolTableRecord
100
AcDbBlockTableRecord
  2
_OPEN30
  0
BLOCK_RECORD
  5
1B89B
330
1B861
100
AcDbSymbolTableRecord
100
AcDbBlockTableRecord
  2
GENAXEH
  0
BLOCK_RECORD
  5
1B89C
330
1B861
100
AcDbSymbolTableRecord
100
AcDbBlockTableRecord
  2
_OPEN
  0
BLOCK_RECORD
  5
1B89D
330
1B861
100
AcDbSymbolTableRecord
100
AcDbBlockTableRecord
  2
_SMALL
  0
ENDTAB
  0
ENDSEC
  0
SECTION
  2
BLOCKS
  0
BLOCK
  5
1B919
330
1B896
100
AcDbEntity
  8
0
100
AcDbBlockBegin
  2
*MODEL_SPACE
 70
     0
 10
0.0
 20
0.0
 30
0.0
  3
*MODEL_SPACE
  1

  0
ENDBLK
  5
1B91A
330
1B896
100
AcDbEntity
  8
0
100
AcDbBlockEnd
  0
BLOCK
  5
1B917
330
1B892
100
AcDbEntity
 67
     1
  8
0
100
AcDbBlockBegin
  2
*PAPER_SPACE
 70
     0
 10
0.0
 20
0.0
 30
0.0
  3
*PAPER_SPACE
  1

  0
ENDBLK
  5
1B918
330
1B892
100
AcDbEntity
 67
     1
  8
0
100
AcDbBlockEnd
  0
BLOCK
  5
1B4CE
330
1B89A
100
AcDbEntity
  8
0
100
AcDbBlockBegin
  2
_OPEN30
 70
     0
 10
0.0
 20
0.0
 30
0.0
  3
_OPEN30
  1

  0
LINE
  5
1B4D0
330
1B89A
100
AcDbEntity
  8
0
  6
BYBLOCK
 62
     0
100
AcDbLine
 10
-1.0
 20
0.26794919
 30
0.0
 11
0.0
 21
0.0
 31
0.0
  0
LINE
  5
1B4D1
330
1B89A
100
AcDbEntity
  8
0
  6
BYBLOCK
 62
     0
100
AcDbLine
 10
0.0
 20
0.0
 30
0.0
 11
-1.0
 21
-0.26794919
 31
0.0
  0
LINE
  5
1B4D2
330
1B89A
100
AcDbEntity
  8
0
  6
BYBLOCK
 62
     0
100
AcDbLine
 10
0.0
 20
0.0
 30
0.0
 11
-1.0
 21
0.0
 31
0.0
  0
ENDBLK
  5
1B4D3
330
1B89A
100
AcDbEntity
  8
0
100
AcDbBlockEnd
  0
BLOCK
  5
1B4D4
330
1B89B
100
AcDbEntity
  8
0
100
AcDbBlockBegin
  2
GENAXEH
 70
     0
 10
0.0
 20
0.0
 30
0.0
  3
GENAXEH
  1

  0
LINE
  5
1B4D6
330
1B89B
100
AcDbEntity
  8
0
100
AcDbLine
 10
-1.0
 20
0.0
 30
0.0
 11
1.0
 21
0.0
 31
0.0
  0
ENDBLK
  5
1B4D7
330
1B89B
100
AcDbEntity
  8
0
100
AcDbBlockEnd
  0
BLOCK
  5
1B4D8
330
1B89C
100
AcDbEntity
  8
0
100
AcDbBlockBegin
  2
_OPEN
 70
     0
 10
0.0
 20
0.0
 30
0.0
  3
_OPEN
  1

  0
LINE
  5
1B4DA
330
1B89C
100
AcDbEntity
  8
0
  6
BYBLOCK
 62
     0
100
AcDbLine
 10
-1.0
 20
0.1666666666666667
 30
0.0
 11
0.0
 21
0.0
 31
0.0
  0
LINE
  5
1B4DB
330
1B89C
100
AcDbEntity
  8
0
  6
BYBLOCK
 62
     0
100
AcDbLine
 10
-1.0
 20
-0.1666666666666667
 30
0.0
 11
0.0
 21
0.0
 31
0.0
  0
LINE
  5
1B4DC
330
1B89C
100
AcDbEntity
  8
0
  6
BYBLOCK
 62
     0
100
AcDbLine
 10
0.0
 20
0.0
 30
0.0
 11
-1.0
 21
0.0
 31
0.0
  0
ENDBLK
  5
1B4DD
330
1B89C
100
AcDbEntity
  8
0
100
AcDbBlockEnd
  0
BLOCK
  5
1B4DE
330
1B89D
100
AcDbEntity
  8
AM_0
100
AcDbBlockBegin
  2
_SMALL
 70
     0
 10
0.0
 20
0.0
 30
0.0
  3
_SMALL
  1

  0
CIRCLE
  5
1B4E0
330
1B89D
100
AcDbEntity
  8
0
  6
BYBLOCK
 62
     0
100
AcDbCircle
 10
0.0
 20
0.0
 30
0.0
 40
0.25
  0
ENDBLK
  5
1B4E1
330
1B89D
100
AcDbEntity
  8
AM_0
100
AcDbBlockEnd
  0
ENDSEC
  0
SECTION
  2
ENTITIES
  0
TEXT
  5
1B5DE
330
1B896
100
AcDbEntity
  8
WK
100
AcDbText
 10
4966.271788615596
 20
513.3421640467378
 30
0.0
 40
7.0
  1
大栄建材株式会社
 41
0.9
 72
     2
 11
5025.071788615596
 21
513.3421640467378
 31
0.0
100
AcDbText
  0
TEXT
  5
1B5DF
330
1B896
100
AcDbEntity
  8
WK
100
AcDbText
 10
4753.702280221578
 20
-36.2578359532622
 30
0.0
 40
3.2
  1
図名
 41
0.8299999999999998
100
AcDbText
  0
TEXT
  5
1B5E0
330
1B896
100
AcDbEntity
  8
WK
100
AcDbText
 10
4834.899146888245
 20
-48.15783595326207
 30
0.0
 40
4.0
  1
基準図
 41
0.8
100
AcDbText
  0
TEXT
  5
1B5E1
330
1B896
100
AcDbEntity
  8
WK
100
AcDbText
 10
4847.828146888245
 20
-36.2578359532622
 30
0.0
 40
3.2
  1
尺度
 41
0.8299999999999998
100
AcDbText
  0
TEXT
  5
1B5E2
330
1B896
100
AcDbEntity
  8
WK
100
AcDbText
 10
4867.952719393958
 20
-49.2578359532622
 30
0.0
 40
3.2
  1
廃止
 41
0.8299999999999998
100
AcDbText
  0
TEXT
  5
1B5E3
330
1B896
100
AcDbEntity
  8
WK
100
AcDbText
 10
4867.952719393958
 20
-43.2578359532622
 30
0.0
 40
3.2
  1
制定
 41
0.8299999999999998
100
AcDbText
  0
TEXT
  5
1B5E4
330
1B896
100
AcDbEntity
  8
WK
100
AcDbText
 10
4867.952719393958
 20
-37.2578359532622
 30
0.0
 40
3.2
  1
作成
 41
0.8299999999999998
100
AcDbText
  0
TEXT
  5
1B5E5
330
1B896
100
AcDbEntity
  8
WK
100
AcDbText
 10
4909.328146888245
 20
-36.2578359532622
 30
0.0
 40
3.2
  1
作図
 41
0.8299999999999998
100
AcDbText
  0
TEXT
  5
1B5E6
330
1B896
100
AcDbEntity
  8
WK
100
AcDbText
 10
4929.328146888245
 20
-36.2578359532622
 30
0.0
 40
3.2
  1
検図
 41
0.8299999999999998
100
AcDbText
  0
TEXT
  5
1B5E7
330
1B896
100
AcDbEntity
  8
WK
100
AcDbText
 10
4949.202280221578
 20
-36.2578359532622
 30
0.0
 40
3.2
  1
図番
 41
0.8299999999999998
100
AcDbText
  0
TEXT
  5
1B5E8
330
1B896
100
AcDbEntity
  8
WK
100
AcDbText
 10
4853.926956412054
 20
-45.75783630931378
 30
0.0
 40
3.2
  1
1:1
 41
0.8299999999999998
 72
     4
 11
4856.899146888245
 21
-44.15783630931378
 31
0.0
100
AcDbText
  0
CIRCLE
  5
1B5E9
330
1B896
100
AcDbEntity
  8
WK
100
AcDbCircle
 10
5019.208621907555
 20
-41.15783595326207
 30
0.0
 40
6.0
  0
LINE
  5
1B5EA
330
1B896
100
AcDbEntity
  8
WK
100
AcDbLine
 10
5013.208621907555
 20
-41.15783595326207
 30
0.0
 11
5025.208621907555
 21
-41.15783595326207
 31
0.0
  0
LINE
  5
1B5EB
330
1B896
100
AcDbEntity
  8
WK
100
AcDbLine
 10
4866.899146888245
 20
-38.15783595326207
 30
0.0
 11
4906.899146888245
 21
-38.15783595326207
 31
0.0
  0
LINE
  5
1B5EC
330
1B896
100
AcDbEntity
  8
WK
100
AcDbLine
 10
4866.899146888245
 20
-44.15783595326207
 30
0.0
 11
4906.899146888245
 21
-44.15783595326207
 31
0.0
  0
LINE
  5
1B5ED
330
1B896
100
AcDbEntity
  8
WK
100
AcDbLine
 10
4760.899146888244
 20
-40.15783595326207
 30
0.0
 11
4833.899146888246
 21
-40.15783595326207
 31
0.0
  0
LINE
  5
1B5EE
330
1B896
100
AcDbEntity
  8
WK
100
AcDbLine
 10
4751.899146888245
 20
-32.15783595326207
 30
0.0
 11
5026.899146888245
 21
-32.15783595326207
 31
0.0
  0
LINE
  5
1B5EF
330
1B896
100
AcDbEntity
  8
WK
100
AcDbLine
 10
4846.899146888245
 20
-32.15783595326207
 30
0.0
 11
4846.899146888245
 21
-50.15783595326207
 31
0.0
  0
LINE
  5
1B5F0
330
1B896
100
AcDbEntity
  8
WK
100
AcDbLine
 10
4866.899146888245
 20
-32.15783595326207
 30
0.0
 11
4866.899146888245
 21
-50.15783595326207
 31
0.0
  0
LINE
  5
1B5F1
330
1B896
100
AcDbEntity
  8
WK
100
AcDbLine
 10
4926.899146888246
 20
-32.15783595326207
 30
0.0
 11
4926.899146888246
 21
-50.15783595326207
 31
0.0
  0
LINE
  5
1B5F2
330
1B896
100
AcDbEntity
  8
WK
100
AcDbLine
 10
4906.899146888245
 20
-32.15783595326207
 30
0.0
 11
4906.899146888245
 21
-50.15783595326207
 31
0.0
  0
LINE
  5
1B5F3
330
1B896
100
AcDbEntity
  8
WK
100
AcDbLine
 10
4751.899146888245
 20
-32.15783595326207
 30
0.0
 11
4751.899146888245
 21
-50.15783595326207
 31
0.0
  0
LINE
  5
1B5F4
330
1B896
100
AcDbEntity
  8
WK
100
AcDbLine
 10
4946.899146888245
 20
-32.15783595326207
 30
0.0
 11
4946.899146888245
 21
-50.15783595326207
 31
0.0
  0
TEXT
  5
1B5F5
330
1B896
100
AcDbEntity
  8
WK
100
AcDbText
 10
4231.899146888244
 20
-50.15783595326207
 30
0.0
 40
3.2
  1
A1
 50
90.0
 41
0.8299999999999998
100
AcDbText
  0
LINE
  5
1B5F6
330
1B896
100
AcDbEntity
  8
WK
100
AcDbLine
 10
5026.899146888245
 20
511.3421640467378
 30
0.0
 11
5026.899146888245
 21
-50.15783595326207
 31
0.0
  0
LINE
  5
1B5F7
330
1B896
100
AcDbEntity
  8
WK
100
AcDbLine
 10
4232.899146888245
 20
511.3421640467378
 30
0.0
 11
4232.899146888245
 21
-50.15783595326207
 31
0.0
  0
LINE
  5
1B5F8
330
1B896
100
AcDbEntity
  8
WK
100
AcDbLine
 10
4232.899146888245
 20
511.3421640467378
 30
0.0
 11
5026.899146888245
 21
511.3421640467378
 31
0.0
  0
LINE
  5
1B5F9
330
1B896
100
AcDbEntity
  8
WK
100
AcDbLine
 10
4232.899146888245
 20
-50.15783595326207
 30
0.0
 11
5026.899146888245
 21
-50.15783595326207
 31
0.0
  0
TEXT
  5
1C2CF
330
1B896
100
AcDbEntity
  8
AM_5
100
AcDbText
 10
4298.704056245049
 20
360.6733067785404
 30
0.0
 40
6.0
  1
CH
 41
0.9
100
AcDbText
  0
LINE
  5
1C2D0
330
1B896
100
AcDbEntity
  8
AM_5
100
AcDbLine
 10
4304.759573840511
 20
376.3897641554056
 30
0.0
 11
4309.406328726587
 21
368.3413486024057
 31
0.0
  0
LINE
  5
1C2D1
330
1B896
100
AcDbEntity
  8
AM_5
100
AcDbLine
 10
4300.112818954437
 20
368.3413486024057
 30
0.0
 11
4309.406328726587
 21
368.3413486024057
 31
0.0
  0
LINE
  5
1C2D2
330
1B896
100
AcDbEntity
  8
AM_5
100
AcDbLine
 10
4304.759573840511
 20
376.3897641554056
 30
0.0
 11
4300.112818954437
 21
368.3413486024057
 31
0.0
  0
LINE
  5
1C2D3
330
1B896
100
AcDbEntity
  8
OS
 62
     2
100
AcDbLine
 10
4998.945237393779
 20
275.2635648455698
 30
0.0
 11
4953.945237393778
 21
230.2635648455698
 31
0.0
  0
LINE
  5
1C2D4
330
1B896
100
AcDbEntity
  8
OS
 62
     2
100
AcDbLine
 10
4953.945237393778
 20
335.2635648455698
 30
0.0
 11
4998.945237393779
 21
290.2635648455698
 31
0.0
  0
LINE
  5
1C2D5
330
1B896
100
AcDbEntity
  8
OS
 62
     2
100
AcDbLine
 10
4624.09917471584
 20
243.6096089066059
 30
0.0
 11
4637.445218776877
 21
230.2635648455698
 31
0.0
  0
LINE
  5
1C2D6
330
1B896
100
AcDbEntity
  8
OS
 62
     2
100
AcDbLine
 10
4592.445218776876
 20
275.2635648455698
 30
0.0
 11
4599.065734201611
 21
268.6430494208353
 31
0.0
  0
LINE
  5
1C2D7
330
1B896
100
AcDbEntity
  8
OS
 62
     2
100
AcDbLine
 10
4637.445218776877
 20
335.2635648455698
 30
0.0
 11
4592.445218776876
 21
290.2635648455698
 31
0.0
  0
LINE
  5
1C2D8
330
1B896
100
AcDbEntity
  8
OS
 62
     2
100
AcDbLine
 10
4326.745643269562
 20
388.8897641554056
 30
0.0
 11
4395.605387539146
 21
427.0720037466742
 31
0.0
  0
POINT
  5
1C2D9
330
1B896
100
AcDbEntity
  8
MJ
100
AcDbPoint
 10
4295.27350441146
 20
87.8897641554056
 30
0.0
  0
TEXT
  5
1C2DA
330
1B896
100
AcDbEntity
  8
AM_5
100
AcDbText
 10
4299.715858949958
 20
96.95380457100691
 30
0.0
 40
6.0
  1
FL
 41
0.9
100
AcDbText
  0
LINE
  5
1C2DB
330
1B896
100
AcDbEntity
  8
AM_5
100
AcDbLine
 10
4304.759573840511
 20
87.8897641554056
 30
0.0
 11
4309.406328726587
 21
95.93817970840564
 31
0.0
  0
LINE
  5
1C2DC
330
1B896
100
AcDbEntity
  8
AM_5
100
AcDbLine
 10
4300.112818954437
 20
95.93817970840564
 30
0.0
 11
4309.406328726587
 21
95.93817970840564
 31
0.0
  0
LINE
  5
1C2DD
330
1B896
100
AcDbEntity
  8
AM_5
100
AcDbLine
 10
4304.759573840511
 20
87.8897641554056
 30
0.0
 11
4300.112818954437
 21
95.93817970840564
 31
0.0
  0
LINE
  5
1C2DE
330
1B896
100
AcDbEntity
  8
OS
 62
     2
100
AcDbLine
 10
4534.522912045162
 20
78.28976415540558
 30
0.0
 11
4285.922781033874
 21
78.28976415540558
 31
0.0
  0
LINE
  5
1C2DF
330
1B896
100
AcDbEntity
  8
OS
 62
     2
100
AcDbLine
 10
4534.522912045162
 20
80.68976415540566
 30
0.0
 11
4285.922781033874
 21
80.68976415540566
 31
0.0
  0
LINE
  5
1C2E0
330
1B896
100
AcDbEntity
  8
OS
 62
     2
100
AcDbLine
 10
4534.522912045162
 20
83.08976415540554
 30
0.0
 11
4285.922781033874
 21
83.08976415540554
 31
0.0
  0
LINE
  5
1C2E1
330
1B896
100
AcDbEntity
  8
OS
 62
     2
100
AcDbLine
 10
4534.522912045162
 20
85.48976415540563
 30
0.0
 11
4285.922781033874
 21
85.48976415540563
 31
0.0
  0
LINE
  5
1C2E2
330
1B896
100
AcDbEntity
  8
OS
 62
     2
100
AcDbLine
 10
4534.522912045162
 20
75.8897641554056
 30
0.0
 11
4285.922781033874
 21
75.8897641554056
 31
0.0
  0
LINE
  5
1C2E3
330
1B896
100
AcDbEntity
  8
OS
 62
     2
100
AcDbLine
 10
4534.522912045162
 20
87.8897641554056
 30
0.0
 11
4285.922781033874
 21
87.8897641554056
 31
0.0
  0
LINE
  5
1C2E4
330
1B896
100
AcDbEntity
  8
OS
 62
     2
100
AcDbLine
 10
4314.245643269562
 20
87.8897641554056
 30
0.0
 11
4314.245643269562
 21
427.0720037466742
 31
0.0
  0
LINE
  5
1C2E5
330
1B896
100
AcDbEntity
  8
OS
  6
DASHED1
 62
     2
100
AcDbLine
 10
4444.245643269563
 20
376.3897641554056
 30
0.0
 11
4534.522912045162
 21
376.3897641554056
 31
0.0
  0
LINE
  5
1C2E6
330
1B896
100
AcDbEntity
  8
OS
  6
DASHED1
 62
     2
100
AcDbLine
 10
4314.245643269562
 20
376.3897641554056
 30
0.0
 11
4285.922781033874
 21
376.3897641554056
 31
0.0
  0
LINE
  5
1C2E7
330
1B896
100
AcDbEntity
  8
OS
  6
DASHED1
 62
     2
100
AcDbLine
 10
4444.245643269563
 20
388.8897641554056
 30
0.0
 11
4534.522912045162
 21
388.8897641554056
 31
0.0
  0
LINE
  5
1C2E8
330
1B896
100
AcDbEntity
  8
OS
 62
     2
100
AcDbLine
 10
4384.245643269562
 20
376.3897641554056
 30
0.0
 11
4384.245643269562
 21
87.88976415540549
 31
0.0
  0
LINE
  5
1C2E9
330
1B896
100
AcDbEntity
  8
OS
 62
     2
100
AcDbLine
 10
4431.745643269563
 20
388.8897641554056
 30
0.0
 11
4431.745643269563
 21
427.0720037466742
 31
0.0
  0
LINE
  5
1C2EA
330
1B896
100
AcDbEntity
  8
OS
 62
     2
100
AcDbLine
 10
4444.245643269563
 20
388.8897641554056
 30
0.0
 11
4314.245643269562
 21
388.8897641554056
 31
0.0
  0
LINE
  5
1C2EB
330
1B896
100
AcDbEntity
  8
OS
 62
     2
100
AcDbLine
 10
4444.245643269563
 20
376.3897641554056
 30
0.0
 11
4314.245643269562
 21
376.3897641554056
 31
0.0
  0
LINE
  5
1C2EC
330
1B896
100
AcDbEntity
  8
OS
 62
     2
100
AcDbLine
 10
4444.245643269563
 20
127.6443096099431
 30
0.0
 11
4444.245643269563
 21
333.1352187008671
 31
0.0
  0
LINE
  5
1C2ED
330
1B896
100
AcDbEntity
  8
OS
 62
     2
100
AcDbLine
 10
4326.745643269562
 20
388.8897641554056
 30
0.0
 11
4326.745643269562
 21
427.0720037466742
 31
0.0
  0
LINE
  5
1C2EE
330
1B896
100
AcDbEntity
  8
AM_2
100
AcDbLine
 10
4449.745643269572
 20
366.8897641423057
 30
0.0
 11
4449.745643269572
 21
363.8897641554056
 31
0.0
  0
LINE
  5
1C2EF
330
1B896
100
AcDbEntity
  8
AM_2
100
AcDbLine
 10
4441.745643269572
 20
366.8897641423057
 30
0.0
 11
4441.745643269572
 21
363.8897641554056
 31
0.0
  0
LINE
  5
1C2F0
330
1B896
100
AcDbEntity
  8
AM_2
100
AcDbLine
 10
4425.945641719863
 20
368.3897641554056
 30
0.0
 11
4425.945641719863
 21
366.3897641554056
 31
0.0
  0
LINE
  5
1C2F1
330
1B896
100
AcDbEntity
  8
AM_2
100
AcDbLine
 10
4425.945641719863
 20
370.3897641554056
 30
0.0
 11
4425.945641719863
 21
373.3897642504057
 31
0.0
  0
LINE
  5
1C2F2
330
1B896
100
AcDbEntity
  8
AM_2
100
AcDbLine
 10
4389.945641719863
 20
370.3897642504057
 30
0.0
 11
4389.945641719863
 21
373.3897642504057
 31
0.0
  0
LINE
  5
1C2F3
330
1B896
100
AcDbEntity
  8
AM_2
100
AcDbLine
 10
4392.964858066663
 20
370.3897642504057
 30
0.0
 11
4389.945641719863
 21
370.3897642504057
 31
0.0
  0
LINE
  5
1C2F4
330
1B896
100
AcDbEntity
  8
AM_2
100
AcDbLine
 10
4425.945641719863
 20
373.3897642504057
 30
0.0
 11
4389.945641719863
 21
373.3897642504057
 31
0.0
  0
LINE
  5
1C2F5
330
1B896
100
AcDbEntity
  8
AM_2
100
AcDbLine
 10
4429.009150218562
 20
370.3897642504057
 30
0.0
 11
4392.964858066663
 21
370.3897642504057
 31
0.0
  0
LINE
  5
1C2F6
330
1B896
100
AcDbEntity
  8
AM_2
100
AcDbLine
 10
4392.964858066663
 20
368.3897641554056
 30
0.0
 11
4392.964858066663
 21
370.3897642504057
 31
0.0
  0
LINE
  5
1C2F7
330
1B896
100
AcDbEntity
  8
AM_2
100
AcDbLine
 10
4428.945641719863
 20
368.3897641554056
 30
0.0
 11
4392.964858066663
 21
368.3897641554056
 31
0.0
  0
LINE
  5
1C2F8
330
1B896
100
AcDbEntity
  8
AM_2
100
AcDbLine
 10
4429.245641719862
 20
375.8897644533055
 30
0.0
 11
4454.245642092362
 21
375.8897644533055
 31
0.0
  0
LINE
  5
1C2F9
330
1B896
100
AcDbEntity
  8
AM_2
100
AcDbLine
 10
4429.245641719862
 20
375.8897644533055
 30
0.0
 11
4429.245641719862
 21
370.3897642503056
 31
0.0
  0
LINE
  5
1C2FA
330
1B896
100
AcDbEntity
  8
AM_2
100
AcDbLine
 10
4456.245642479763
 20
375.3897642894055
 30
0.0
 11
4429.245641719862
 21
375.3897642894055
 31
0.0
  0
LINE
  5
1C2FB
330
1B896
100
AcDbEntity
  8
AM_2
100
AcDbLine
 10
4430.945641719867
 20
368.8897642373055
 30
0.0
 11
4454.245643269563
 21
368.8897642373055
 31
0.0
  0
LINE
  5
1C2FC
330
1B896
100
AcDbEntity
  8
AM_2
100
AcDbLine
 10
4454.245643269563
 20
366.8897641423057
 30
0.0
 11
4431.134253245162
 21
366.8897641423057
 31
0.0
  0
LINE
  5
1C2FD
330
1B896
100
AcDbEntity
  8
AM_2
100
AcDbLine
 10
4426.494575329472
 20
370.3897642504057
 30
0.0
 11
4424.494575329472
 21
370.3897642504057
 31
0.0
  0
LINE
  5
1C2FE
330
1B896
100
AcDbEntity
  8
AM_2
100
AcDbLine
 10
4456.245642479763
 20
375.3897644533056
 30
0.0
 11
4456.245642479763
 21
368.8897642373055
 31
0.0
  0
ARC
  5
1C2FF
330
1B896
100
AcDbEntity
  8
AM_2
100
AcDbCircle
 10
4455.745642479763
 20
375.3897644533056
 30
0.0
 40
0.5
100
AcDbArc
 50
0.0
 51
90.0
  0
LINE
  5
1C300
330
1B896
100
AcDbEntity
  8
AM_2
100
AcDbLine
 10
4455.745642479763
 20
375.8897644533055
 30
0.0
 11
4454.245642092362
 21
375.8897644533055
 31
0.0
  0
LINE
  5
1C301
330
1B896
100
AcDbEntity
  8
AM_2
100
AcDbLine
 10
4456.245642479763
 20
368.8897642373055
 30
0.0
 11
4455.245642256262
 21
368.8897642373055
 31
0.0
  0
LINE
  5
1C302
330
1B896
100
AcDbEntity
  8
AM_2
100
AcDbLine
 10
4450.667874686763
 20
368.8897642373055
 30
0.0
 11
4455.245642256262
 21
368.8897642373055
 31
0.0
  0
ARC
  5
1C303
330
1B896
100
AcDbEntity
  8
AM_2
100
AcDbCircle
 10
4429.005471501164
 20
368.4042371281057
 30
0.0
 40
2.0
100
AcDbArc
 50
14.04970518430607
 51
83.102963565695
  0
ARC
  5
1C304
330
1B896
100
AcDbEntity
  8
AM_2
100
AcDbCircle
 10
4454.245642479762
 20
374.8897642373056
 30
0.0
 40
1.0
100
AcDbArc
 50
0.0
 51
89.99999999989578
  0
LINE
  5
1C305
330
1B896
100
AcDbEntity
  8
AM_2
100
AcDbLine
 10
4455.245642256262
 20
368.8897642373055
 30
0.0
 11
4455.245642256262
 21
374.8897642894054
 31
0.0
  0
LINE
  5
1C306
330
1B896
100
AcDbEntity
  8
AM_2
100
AcDbLine
 10
4454.245643269563
 20
368.8897642373055
 30
0.0
 11
4454.245643269563
 21
366.8897641423057
 31
0.0
  0
LINE
  5
1C307
330
1B896
100
AcDbEntity
  8
AM_2
100
AcDbLine
 10
4401.945642631864
 20
368.3897641554056
 30
0.0
 11
4401.945642631864
 21
370.3897642504057
 31
0.0
  0
LINE
  5
1C308
330
1B896
100
AcDbEntity
  8
AM_2
100
AcDbLine
 10
4412.945642572263
 20
370.3897642504057
 30
0.0
 11
4412.945642572263
 21
368.3897641554056
 31
0.0
  0
LINE
  5
1C309
330
1B896
100
AcDbEntity
  8
AM_2
100
AcDbLine
 10
4431.134253245162
 20
366.8897641423057
 30
0.0
 11
4430.882133048364
 21
366.8897641423057
 31
0.0
  0
LINE
  5
1C30A
330
1B896
100
AcDbEntity
  8
AM_2
100
AcDbLine
 10
4413.945640873462
 20
368.3897641554056
 30
0.0
 11
4428.945641469563
 21
368.3897641554056
 31
0.0
  0
ARC
  5
1C30B
330
1B896
100
AcDbEntity
  8
AM_2
100
AcDbCircle
 10
4429.009150046764
 20
368.3897641423056
 30
0.0
 40
2.0
100
AcDbArc
 50
14.47751218590402
 51
90.0
  0
ARC
  5
1C30C
330
1B896
100
AcDbEntity
  8
AM_2
100
AcDbCircle
 10
4430.882133392962
 20
368.8897641423057
 30
0.0
 40
2.0
100
AcDbArc
 50
194.4775121858977
 51
270.0
  0
LINE
  5
1C30D
330
1B896
100
AcDbEntity
  8
AM_2
100
AcDbLine
 10
4389.945641719863
 20
368.3897641554056
 30
0.0
 11
4419.945641719863
 21
368.3897641554056
 31
0.0
  0
LINE
  5
1C30E
330
1B896
100
AcDbEntity
  8
AM_2
100
AcDbLine
 10
4389.945641719863
 20
368.3897641554056
 30
0.0
 11
4389.945641719863
 21
366.3897641554056
 31
0.0
  0
LINE
  5
1C30F
330
1B896
100
AcDbEntity
  8
AM_2
100
AcDbLine
 10
4389.945641719863
 20
366.3897641554056
 30
0.0
 11
4425.945641719863
 21
366.3897641554056
 31
0.0
  0
LINE
  5
1C311
330
1B896
100
AcDbEntity
  8
AM_2
100
AcDbLine
 10
4428.245643269562
 20
363.3897641554056
 30
0.0
 11
4428.245643269562
 21
331.9472760169956
 31
0.0
  0
LINE
  5
1C312
330
1B896
100
AcDbEntity
  8
AM_2
100
AcDbLine
 10
4455.745643269394
 20
336.1834479653858
 30
0.0
 11
4455.745643269394
 21
363.8897641554056
 31
0.0
  0
ARC
  5
1C313
330
1B896
100
AcDbEntity
  8
AM_2
100
AcDbCircle
 10
4453.745643269394
 20
336.1834479653858
 30
0.0
 40
2.0
100
AcDbArc
 50
276.2258290645707
 51
0.0
  0
LINE
  5
1C314
330
1B896
100
AcDbEntity
  8
AM_2
100
AcDbLine
 10
4455.745643269394
 20
363.8897641554056
 30
0.0
 11
4429.245643269562
 21
363.8897641554056
 31
0.0
  0
ARC
  5
1C315
330
1B896
100
AcDbEntity
  8
AM_2
100
AcDbCircle
 10
4428.745643269563
 20
331.9472760169697
 30
0.0
 40
0.5
100
AcDbArc
 50
180.0
 51
276.2258290647807
  0
LINE
  5
1C316
330
1B896
100
AcDbEntity
  8
AM_2
100
AcDbLine
 10
4428.799867024654
 20
331.4502249286856
 30
0.0
 11
4453.962538289744
 21
334.1952436121658
 31
0.0
  0
ARC
  5
1C317
330
1B896
100
AcDbEntity
  8
AM_2
100
AcDbCircle
 10
4429.245643269562
 20
362.8897641554055
 30
0.0
 40
1.0
100
AcDbArc
 50
89.99999999984366
 51
180.0
  0
LINE
  5
1C318
330
1B896
100
AcDbEntity
  8
AM_0
100
AcDbLine
 10
4428.245643269562
 20
363.3897641554056
 30
0.0
 11
4388.245643269562
 21
363.3897641554056
 31
0.0
  0
LINE
  5
1C319
330
1B896
100
AcDbEntity
  8
AM_2
100
AcDbLine
 10
4441.945643269553
 20
96.88976415540572
 30
0.0
 11
4441.945643269553
 21
90.8897641815057
 31
0.0
  0
LINE
  5
1C31A
330
1B896
100
AcDbEntity
  8
AM_2
100
AcDbLine
 10
4449.545643269552
 20
96.88976415540572
 30
0.0
 11
4449.545643269552
 21
90.8897641815057
 31
0.0
  0
LINE
  5
1C31B
330
1B896
100
AcDbEntity
  8
AM_2
100
AcDbLine
 10
4432.245643269552
 20
90.8897641815057
 30
0.0
 11
4436.306146063154
 21
90.8897641815057
 31
0.0
  0
ARC
  5
1C31C
330
1B896
100
AcDbEntity
  8
AM_2
100
AcDbCircle
 10
4432.245643269552
 20
89.88976418150571
 30
0.0
 40
1.0
100
AcDbArc
 50
90.0
 51
180.0
  0
LINE
  5
1C31D
330
1B896
100
AcDbEntity
  8
AM_2
100
AcDbLine
 10
4431.245643269552
 20
89.88976418150571
 30
0.0
 11
4431.245643269552
 21
87.88976415540572
 31
0.0
  0
LINE
  5
1C31E
330
1B896
100
AcDbEntity
  8
AM_2
100
AcDbLine
 10
4470.245642677258
 20
89.88976425040574
 30
0.0
 11
4435.745643075853
 21
89.88976425040574
 31
0.0
  0
LINE
  5
1C31F
330
1B896
100
AcDbEntity
  8
AM_2
100
AcDbLine
 10
4431.495643310554
 20
87.88976415540572
 30
0.0
 11
4431.995643159654
 21
86.38976414230569
 31
0.0
  0
LINE
  5
1C320
330
1B896
100
AcDbEntity
  8
AM_2
100
AcDbLine
 10
4431.995643159654
 20
86.38976414230569
 30
0.0
 11
4432.495643474452
 21
87.88976415540572
 31
0.0
  0
LINE
  5
1C321
330
1B896
100
AcDbEntity
  8
AM_2
100
AcDbLine
 10
4434.495643336653
 20
86.38976414230569
 30
0.0
 11
4434.995643418553
 21
87.88976415540572
 31
0.0
  0
LINE
  5
1C322
330
1B896
100
AcDbEntity
  8
AM_2
100
AcDbLine
 10
4433.995643254653
 20
87.88976415540572
 30
0.0
 11
4434.495643336653
 21
86.38976414230569
 31
0.0
  0
LINE
  5
1C323
330
1B896
100
AcDbEntity
  8
AM_2
100
AcDbLine
 10
4431.245643269552
 20
87.88976415540572
 30
0.0
 11
4435.745643075853
 21
87.88976415540572
 31
0.0
  0
LINE
  5
1C324
330
1B896
100
AcDbEntity
  8
AM_2
100
AcDbLine
 10
4435.745643075853
 20
89.88976425040574
 30
0.0
 11
4431.245643269552
 21
89.88976425040574
 31
0.0
  0
LINE
  5
1C325
330
1B896
100
AcDbEntity
  8
AM_2
100
AcDbLine
 10
4435.771113351253
 20
90.19028411720569
 30
0.0
 11
4435.745643075853
 21
89.88976425040574
 31
0.0
  0
LINE
  5
1C326
330
1B896
100
AcDbEntity
  8
AM_2
100
AcDbLine
 10
4435.842828914853
 20
90.45632199860575
 30
0.0
 11
4435.771113351253
 21
90.19028411720569
 31
0.0
  0
LINE
  5
1C327
330
1B896
100
AcDbEntity
  8
AM_2
100
AcDbLine
 10
4435.956187170252
 20
90.67426219130561
 30
0.0
 11
4435.842828914853
 21
90.45632199860575
 31
0.0
  0
LINE
  5
1C328
330
1B896
100
AcDbEntity
  8
AM_2
100
AcDbLine
 10
4436.113265432654
 20
90.83017280800573
 30
0.0
 11
4435.956187170252
 21
90.67426219130561
 31
0.0
  0
LINE
  5
1C329
330
1B896
100
AcDbEntity
  8
AM_2
100
AcDbLine
 10
4436.302768156252
 20
90.88974671920572
 30
0.0
 11
4436.113265432654
 21
90.83017280800573
 31
0.0
  0
LINE
  5
1C32A
330
1B896
100
AcDbEntity
  8
AM_2
100
AcDbLine
 10
4436.306146063154
 20
90.8897641815057
 30
0.0
 11
4436.302768156252
 21
90.88974671920572
 31
0.0
  0
LINE
  5
1C32B
330
1B896
100
AcDbEntity
  8
AM_2
100
AcDbLine
 10
4436.306146063154
 20
90.8897641815057
 30
0.0
 11
4469.245644375958
 21
90.8897641815057
 31
0.0
  0
LINE
  5
1C32C
330
1B896
100
AcDbEntity
  8
AM_2
100
AcDbLine
 10
4435.745643075853
 20
87.88976415540572
 30
0.0
 11
4470.245642677258
 21
87.88976415540572
 31
0.0
  0
LINE
  5
1C32D
330
1B896
100
AcDbEntity
  8
AM_2
100
AcDbLine
 10
4435.745643075853
 20
89.88976425040574
 30
0.0
 11
4435.745643075853
 21
87.88976415540572
 31
0.0
  0
ARC
  5
1C32E
330
1B896
100
AcDbEntity
  8
AM_2
100
AcDbCircle
 10
4469.245643253456
 20
89.88976415540571
 30
0.0
 40
1.0
100
AcDbArc
 50
0.0
 51
90.0
  0
LINE
  5
1C32F
330
1B896
100
AcDbEntity
  8
AM_2
100
AcDbLine
 10
4470.245642677258
 20
87.88976415540572
 30
0.0
 11
4470.245642677258
 21
89.88976425040574
 31
0.0
  0
LINE
  5
1C330
330
1B896
100
AcDbEntity
  8
AM_2
100
AcDbLine
 10
4395.245643269563
 20
97.38976415540571
 30
0.0
 11
4395.245643269563
 21
99.88976415540571
 31
0.0
  0
LINE
  5
1C331
330
1B896
100
AcDbEntity
  8
AM_2
100
AcDbLine
 10
4428.245643269552
 20
97.88976415540572
 30
0.0
 11
4428.245643269552
 21
128.8322522938257
 31
0.0
  0
LINE
  5
1C332
330
1B896
100
AcDbEntity
  8
AM_2
100
AcDbLine
 10
4455.745643269383
 20
96.88976415540572
 30
0.0
 11
4429.245643269552
 21
96.88976415540572
 31
0.0
  0
ARC
  5
1C333
330
1B896
100
AcDbEntity
  8
AM_2
100
AcDbCircle
 10
4428.745643269563
 20
128.8322522938257
 30
0.0
 40
0.5
100
AcDbArc
 50
83.77417093668704
 51
180.0
  0
LINE
  5
1C334
330
1B896
100
AcDbEntity
  8
AM_2
100
AcDbLine
 10
4428.799867024643
 20
129.3293033821258
 30
0.0
 11
4453.962538289734
 21
126.5842846986457
 31
0.0
  0
LINE
  5
1C335
330
1B896
100
AcDbEntity
  8
AM_2
100
AcDbLine
 10
4455.745643269383
 20
124.5960803454258
 30
0.0
 11
4455.745643269383
 21
96.88976415540572
 31
0.0
  0
ARC
  5
1C336
330
1B896
100
AcDbEntity
  8
AM_2
100
AcDbCircle
 10
4453.745643269384
 20
124.5960803454258
 30
0.0
 40
2.0
100
AcDbArc
 50
0.0
 51
83.77417093553397
  0
LINE
  5
1C337
330
1B896
100
AcDbEntity
  8
AM_2
100
AcDbLine
 10
4395.245643269563
 20
97.38976415540571
 30
0.0
 11
4428.379617865772
 21
97.38976415540571
 31
0.0
  0
LINE
  5
1C338
330
1B896
100
AcDbEntity
  8
AM_2
100
AcDbLine
 10
4395.245643269563
 20
99.88976415540571
 30
0.0
 11
4428.245643269562
 21
99.88976415540571
 31
0.0
  0
ARC
  5
1C339
330
1B896
100
AcDbEntity
  8
AM_2
100
AcDbCircle
 10
4429.245643269552
 20
97.88976415541572
 30
0.0
 40
1.0
100
AcDbArc
 50
180.0
 51
270.0
  0
LINE
  5
1C33A
330
1B896
100
AcDbEntity
  8
AM_0
100
AcDbLine
 10
4428.245643269562
 20
99.88976415540571
 30
0.0
 11
4388.245643269562
 21
99.88976415540571
 31
0.0
  0
LINE
  5
1C33B
330
1B896
100
AcDbEntity
  8
AM_0
100
AcDbLine
 10
4428.245643269562
 20
363.3897641554056
 30
0.0
 11
4428.245643269562
 21
99.88976415540561
 31
0.0
  0
LINE
  5
1C33C
330
1B896
100
AcDbEntity
  8
AM_0
100
AcDbLine
 10
4388.245643269562
 20
363.3897641554056
 30
0.0
 11
4388.245643269562
 21
99.88976415540561
 31
0.0
  0
LINE
  5
1C33D
330
1B896
100
AcDbEntity
  8
________
100
AcDbLine
 10
4923.678016053652
 20
260.2635648455698
 30
0.0
 11
4998.445237393778
 21
260.2635648455698
 31
0.0
  0
POINT
  5
1C33E
330
1B896
100
AcDbEntity
  8
________
100
AcDbPoint
 10
4998.445237393778
 20
260.2635648455698
 30
0.0
  0
LINE
  5
1C33F
330
1B896
100
AcDbEntity
  8
OS
100
AcDbLine
 10
4656.945218776876
 20
210.7635648455698
 30
0.0
 11
4592.445218776876
 21
210.7635648455698
 31
0.0
  0
LINE
  5
1C340
330
1B896
100
AcDbEntity
  8
OS
100
AcDbLine
 10
4656.945218776876
 20
210.7635648455698
 30
0.0
 11
4656.945218776876
 21
242.7635648455698
 31
0.0
  0
LINE
  5
1C341
330
1B896
100
AcDbEntity
  8
OS
100
AcDbLine
 10
4649.945218776877
 20
217.7635648455698
 30
0.0
 11
4656.945218776876
 21
210.7635648455698
 31
0.0
  0
LINE
  5
1C342
330
1B896
100
AcDbEntity
  8
OS
100
AcDbLine
 10
4656.945218776876
 20
354.7635648455698
 30
0.0
 11
4656.945218776876
 21
277.7635648455698
 31
0.0
  0
LINE
  5
1C343
330
1B896
100
AcDbEntity
  8
OS
100
AcDbLine
 10
4656.945218776876
 20
354.7635648455698
 30
0.0
 11
4592.445218776876
 21
354.7635648455698
 31
0.0
  0
LINE
  5
1C344
330
1B896
100
AcDbEntity
  8
OS
100
AcDbLine
 10
4649.945218776877
 20
347.7635648455698
 30
0.0
 11
4656.945218776876
 21
354.7635648455698
 31
0.0
  0
LINE
  5
1C345
330
1B896
100
AcDbEntity
  8
AM_0
 62
     2
100
AcDbLine
 10
4599.065734201611
 20
230.2635648455698
 30
0.0
 11
4592.445218776876
 21
230.2635648455698
 31
0.0
  0
LINE
  5
1C346
330
1B896
100
AcDbEntity
  8
OS
 62
     2
100
AcDbLine
 10
4637.445218776877
 20
230.2635648455698
 30
0.0
 11
4610.248194039142
 21
230.2635648455698
 31
0.0
  0
LINE
  5
1C347
330
1B896
100
AcDbEntity
  8
OS
100
AcDbLine
 10
4934.445237393778
 20
242.7635648455698
 30
0.0
 11
4934.445237393778
 21
160.3288381509905
 31
0.0
  0
LINE
  5
1C348
330
1B896
100
AcDbEntity
  8
OS
 62
     2
100
AcDbLine
 10
4941.445237393779
 20
242.7635648455698
 30
0.0
 11
4941.445237393779
 21
160.3288381509905
 31
0.0
  0
CIRCLE
  5
1C349
330
1B896
100
AcDbEntity
  8
AM_2
  6
DASHED1
100
AcDbCircle
 10
4914.945237393778
 20
215.7635648455698
 30
0.0
 40
3.799999999999998
  0
LINE
  5
1C34A
330
1B896
100
AcDbEntity
  8
AM_2
100
AcDbLine
 10
4927.023313474218
 20
218.5726694380278
 30
0.0
 11
4924.344748752748
 21
233.7635648455678
 31
0.0
  0
ARC
  5
1C34B
330
1B896
100
AcDbEntity
  8
AM_2
100
AcDbCircle
 10
4917.175235944097
 20
216.8361876613578
 30
0.0
 40
10.0
100
AcDbArc
 50
315.0000000000114
 51
10.00000000000389
  0
ARC
  5
1C34C
330
1B896
100
AcDbEntity
  8
AM_2
100
AcDbCircle
 10
4919.087894502548
 20
210.2635648455767
 30
0.0
 40
4.0
100
AcDbArc
 50
269.9999999998436
 51
315.0000000000114
  0
LINE
  5
1C34D
330
1B896
100
AcDbEntity
  8
AM_2
100
AcDbLine
 10
4924.246303755957
 20
209.7651198494938
 30
0.0
 11
4921.916321627297
 21
207.4351377208308
 31
0.0
  0
ARC
  5
1C34E
330
1B896
100
AcDbEntity
  8
AM_2
100
AcDbCircle
 10
4911.689211020208
 20
210.2635648455998
 30
0.0
 40
4.0
100
AcDbArc
 50
205.6917843361708
 51
269.9999999998957
  0
LINE
  5
1C34F
330
1B896
100
AcDbEntity
  8
AM_2
100
AcDbLine
 10
4919.087894502548
 20
206.2635648455767
 30
0.0
 11
4911.689211020208
 21
206.2635648455948
 31
0.0
  0
ARC
  5
1C350
330
1B896
100
AcDbEntity
  8
AM_2
100
AcDbCircle
 10
4897.535546137767
 20
232.7635648455667
 30
0.0
 40
1.0
100
AcDbArc
 50
90.00000000005213
 51
205.6917843359662
  0
LINE
  5
1C351
330
1B896
100
AcDbEntity
  8
AM_2
100
AcDbLine
 10
4896.634406943167
 20
232.3300349712196
 30
0.0
 11
4908.084654241807
 21
208.5294453482007
 31
0.0
  0
LINE
  5
1C352
330
1B896
100
AcDbEntity
  8
________
  6
CONTINUOUS
100
AcDbLine
 10
4914.945237393778
 20
224.3885319336877
 30
0.0
 11
4914.945237393778
 21
208.3484327024597
 31
0.0
  0
LINE
  5
1C353
330
1B896
100
AcDbEntity
  8
________
  6
CONTINUOUS
100
AcDbLine
 10
4909.062768696898
 20
215.7635648455698
 30
0.0
 11
4920.894210209287
 21
215.7635648455698
 31
0.0
  0
LINE
  5
1C354
330
1B896
100
AcDbEntity
  8
AM_0
100
AcDbLine
 10
4930.445237393779
 20
233.7635648455698
 30
0.0
 11
4930.445237393779
 21
239.7635648455698
 31
0.0
  0
LINE
  5
1C355
330
1B896
100
AcDbEntity
  8
AM_0
100
AcDbLine
 10
4930.445237393779
 20
239.7635648455698
 30
0.0
 11
4922.445218776879
 21
239.7635648455698
 31
0.0
  0
LINE
  5
1C356
330
1B896
100
AcDbEntity
  8
AM_0
100
AcDbLine
 10
4922.445218776879
 20
273.7635648455698
 30
0.0
 11
4922.445218776879
 21
239.7635648455698
 31
0.0
  0
LINE
  5
1C357
330
1B896
100
AcDbEntity
  8
AM_0
100
AcDbLine
 10
4668.945218776876
 20
239.7635648455698
 30
0.0
 11
4668.945218776876
 21
273.7635648455698
 31
0.0
  0
LINE
  5
1C358
330
1B896
100
AcDbEntity
  8
AM_0
100
AcDbLine
 10
4668.945218776876
 20
273.7635648455698
 30
0.0
 11
4794.195218776876
 21
273.7635648455698
 31
0.0
  0
LINE
  5
1C359
330
1B896
100
AcDbEntity
  8
AM_2
100
AcDbLine
 10
4661.745218776877
 20
241.7635648455698
 30
0.0
 11
4661.745218776877
 21
240.2635648455698
 31
0.0
  0
LINE
  5
1C35A
330
1B896
100
AcDbEntity
  8
AM_2
100
AcDbLine
 10
4668.145218776877
 20
240.2635648455698
 30
0.0
 11
4668.145218776877
 21
241.7635648455698
 31
0.0
  0
LINE
  5
1C35B
330
1B896
100
AcDbEntity
  8
AM_2
100
AcDbLine
 10
4661.745218776877
 20
241.7635648455698
 30
0.0
 11
4668.145218776877
 21
241.7635648455698
 31
0.0
  0
LINE
  5
1C35C
330
1B896
100
AcDbEntity
  8
AM_2
100
AcDbLine
 10
4660.945218776876
 20
240.2635648455698
 30
0.0
 11
4660.945218776876
 21
239.7635648455698
 31
0.0
  0
LINE
  5
1C35D
330
1B896
100
AcDbEntity
  8
AM_0
100
AcDbLine
 10
4660.945218776876
 20
233.7635648455698
 30
0.0
 11
4794.195218776876
 21
233.7635648455698
 31
0.0
  0
LINE
  5
1C35E
330
1B896
100
AcDbEntity
  8
AM_0
100
AcDbLine
 10
4660.945218776876
 20
233.7635648455698
 30
0.0
 11
4660.945218776876
 21
239.7635648455698
 31
0.0
  0
LINE
  5
1C35F
330
1B896
100
AcDbEntity
  8
AM_0
100
AcDbLine
 10
4660.945218776876
 20
239.7635648455698
 30
0.0
 11
4668.945218776876
 21
239.7635648455698
 31
0.0
  0
LINE
  5
1C360
330
1B896
100
AcDbEntity
  8
AM_0
100
AcDbLine
 10
4930.445237393779
 20
233.7635648455698
 30
0.0
 11
4794.195218776876
 21
233.7635648455698
 31
0.0
  0
LINE
  5
1C361
330
1B896
100
AcDbEntity
  8
AM_0
100
AcDbLine
 10
4922.445218776879
 20
273.7635648455698
 30
0.0
 11
4794.195218776876
 21
273.7635648455698
 31
0.0
  0
LINE
  5
1C362
330
1B896
100
AcDbEntity
  8
AM_0
100
AcDbLine
 10
4922.445218776879
 20
273.7635648455698
 30
0.0
 11
4922.445218776879
 21
239.7635648455698
 31
0.0
  0
LINE
  5
1C363
330
1B896
100
AcDbEntity
  8
AM_2
100
AcDbLine
 10
4660.945218776876
 20
240.2635648455698
 30
0.0
 11
4668.945218776876
 21
240.2635648455698
 31
0.0
  0
LINE
  5
1C364
330
1B896
100
AcDbEntity
  8
AM_0
100
AcDbLine
 10
4926.445237393778
 20
266.6635648455697
 30
0.0
 11
4926.445237393778
 21
275.7635648455698
 31
0.0
  0
LINE
  5
1C365
330
1B896
100
AcDbEntity
  8
OS
 62
     2
100
AcDbLine
 10
4953.945237393778
 20
242.7635648455698
 30
0.0
 11
4953.945237393778
 21
97.16366596045361
 31
0.0
  0
LINE
  5
1C366
330
1B896
100
AcDbEntity
  8
OS
 62
     2
100
AcDbLine
 10
4649.945218776877
 20
242.7635648455698
 30
0.0
 11
4649.945218776877
 21
217.7635648455698
 31
0.0
  0
LINE
  5
1C367
330
1B896
100
AcDbEntity
  8
OS
 62
     2
100
AcDbLine
 10
4637.445218776877
 20
242.7635648455698
 30
0.0
 11
4637.445218776877
 21
217.7635648455698
 31
0.0
  0
LINE
  5
1C368
330
1B896
100
AcDbEntity
  8
OS
 62
     2
100
AcDbLine
 10
4637.445218776877
 20
347.7635648455698
 30
0.0
 11
4637.445218776877
 21
277.7635648455698
 31
0.0
  0
LINE
  5
1C369
330
1B896
100
AcDbEntity
  8
OS
 62
     2
100
AcDbLine
 10
4649.945218776877
 20
347.7635648455698
 30
0.0
 11
4649.945218776877
 21
277.7635648455698
 31
0.0
  0
LINE
  5
1C36A
330
1B896
100
AcDbEntity
  8
OS
100
AcDbLine
 10
4934.445237393778
 20
386.5277594205336
 30
0.0
 11
4934.445237393778
 21
277.7635648455698
 31
0.0
  0
LINE
  5
1C36B
330
1B896
100
AcDbEntity
  8
OS
 62
     2
100
AcDbLine
 10
4941.445237393779
 20
277.7635648455698
 30
0.0
 11
4941.445237393779
 21
386.5277594205336
 31
0.0
  0
LINE
  5
1C36C
330
1B896
100
AcDbEntity
  8
OS
 62
     2
100
AcDbLine
 10
4953.945237393778
 20
277.7635648455698
 30
0.0
 11
4953.945237393778
 21
386.5277594205336
 31
0.0
  0
LINE
  5
1C36D
330
1B896
100
AcDbEntity
  8
AM_0
100
AcDbLine
 10
4928.445237393778
 20
242.7635648455698
 30
0.0
 11
4926.445237393778
 21
244.7635648455698
 31
0.0
  0
LINE
  5
1C36E
330
1B896
100
AcDbEntity
  8
AM_0
100
AcDbLine
 10
4637.445218776877
 20
242.7635648455698
 30
0.0
 11
4637.445218776877
 21
277.7635648455698
 31
0.0
  0
LINE
  5
1C36F
330
1B896
100
AcDbEntity
  8
AM_0
100
AcDbLine
 10
4662.945218776877
 20
242.7635648455698
 30
0.0
 11
4637.445218776877
 21
242.7635648455698
 31
0.0
  0
LINE
  5
1C370
330
1B896
100
AcDbEntity
  8
AM_0
100
AcDbLine
 10
4928.445237393778
 20
242.7635648455698
 30
0.0
 11
4953.945237393778
 21
242.7635648455698
 31
0.0
  0
LINE
  5
1C373
330
1B896
100
AcDbEntity
  8
OS
 62
     2
100
AcDbLine
 10
4953.945237393778
 20
230.2635648455698
 30
0.0
 11
4998.945237393779
 21
230.2635648455698
 31
0.0
  0
LINE
  5
1C374
330
1B896
100
AcDbEntity
  8
OS
 62
     2
100
AcDbLine
 10
4953.945237393778
 20
335.2635648455698
 30
0.0
 11
4998.945237393779
 21
335.2635648455698
 31
0.0
  0
LINE
  5
1C375
330
1B896
100
AcDbEntity
  8
OS
 62
     2
100
AcDbLine
 10
4649.945218776877
 20
347.7635648455698
 30
0.0
 11
4592.445218776876
 21
347.7635648455698
 31
0.0
  0
LINE
  5
1C376
330
1B896
100
AcDbEntity
  8
OS
 62
     2
100
AcDbLine
 10
4649.945218776877
 20
347.7635648455698
 30
0.0
 11
4592.445218776876
 21
347.7635648455698
 31
0.0
  0
LINE
  5
1C377
330
1B896
100
AcDbEntity
  8
OS
 62
     2
100
AcDbLine
 10
4637.445218776877
 20
335.2635648455698
 30
0.0
 11
4592.445218776876
 21
335.2635648455698
 31
0.0
  0
LINE
  5
1C378
330
1B896
100
AcDbEntity
  8
OS
 62
     2
100
AcDbLine
 10
4649.945218776877
 20
217.7635648455698
 30
0.0
 11
4592.445218776876
 21
217.7635648455698
 31
0.0
  0
LINE
  5
1C379
330
1B896
100
AcDbEntity
  8
AM_0
100
AcDbLine
 10
4953.945237393778
 20
242.7635648455698
 30
0.0
 11
4953.945237393778
 21
277.7635648455698
 31
0.0
  0
LINE
  5
1C37A
330
1B896
100
AcDbEntity
  8
AM_0
100
AcDbLine
 10
4662.945218776877
 20
277.7635648455698
 30
0.0
 11
4637.445218776877
 21
277.7635648455698
 31
0.0
  0
LINE
  5
1C37B
330
1B896
100
AcDbEntity
  8
AM_0
100
AcDbLine
 10
4928.445237393778
 20
277.7635648455698
 30
0.0
 11
4953.945237393778
 21
277.7635648455698
 31
0.0
  0
LINE
  5
1C37C
330
1B896
100
AcDbEntity
  8
AM_0
100
AcDbLine
 10
4928.445237393778
 20
277.7635648455698
 30
0.0
 11
4926.445237393778
 21
275.7635648455698
 31
0.0
  0
LINE
  5
1C37E
330
1B896
100
AcDbEntity
  8
OS
  6
DASHED1
 62
     2
100
AcDbLine
 10
4314.245643269562
 20
388.8897641554056
 30
0.0
 11
4285.922781033874
 21
388.8897641554056
 31
0.0
  0
LINE
  5
1C37F
330
1B896
100
AcDbEntity
  8
OS
 62
     2
100
AcDbLine
 10
4444.245643269563
 20
376.3897641554056
 30
0.0
 11
4444.245643269563
 21
427.0720037466742
 31
0.0
  0
TEXT
  5
1C380
330
1B896
100
AcDbEntity
  8
AM_5
100
AcDbText
 10
4574.703361244004
 20
187.6569882953972
 30
0.0
 40
6.0
  1
巾木
 41
0.9
100
AcDbText
  0
LINE
  5
1C381
330
1B896
100
AcDbEntity
  8
________
100
AcDbLine
 10
4667.376963441756
 20
260.2635648455698
 30
0.0
 11
4623.770918007891
 21
260.2635648455698
 31
0.0
  0
TEXT
  5
1C382
330
1B896
100
AcDbEntity
  8
MJ
100
AcDbText
 10
4873.069669451093
 20
-21.50742803653952
 30
0.0
 40
7.0
  1
ssd02a01
 41
0.9
100
AcDbText
  0
TEXT
  5
1C383
330
1B896
100
AcDbEntity
  8
MJ
100
AcDbText
 10
4873.069669451093
 20
-11.50742803653952
 30
0.0
 40
7.0
  1
たて横断面
 41
0.9
100
AcDbText
  0
TEXT
  5
1C384
330
1B896
100
AcDbEntity
  8
MJ
100
AcDbText
 10
4873.069669451093
 20
8.492571963460477
 30
0.0
 40
7.0
  1
室内ドア　OHドア　2方枠
 41
0.9
100
AcDbText
  0
TEXT
  5
1C385
330
1B896
100
AcDbEntity
  8
MJ
100
AcDbText
 10
4873.069669451093
 20
18.49257196346047
 30
0.0
 40
7.0
  1
シンプル・スリム枠
 41
0.9
100
AcDbText
  0
TEXT
  5
1C386
330
1B896
100
AcDbEntity
  8
MJ
100
AcDbText
 10
4873.069669451093
 20
-1.507428036539522
 30
0.0
 40
7.0
  1
枠見込み35ｍｍ
 41
0.9
100
AcDbText
  0
LINE
  5
1C387
330
1B896
100
AcDbEntity
  8
OS
 62
     2
100
AcDbLine
 10
4419.245643269563
 20
97.38976415540571
 30
0.0
 11
4419.245643269563
 21
87.88976415540549
 31
0.0
  0
LINE
  5
1C388
330
1B896
100
AcDbEntity
  8
AM_0
100
AcDbLine
 10
4927.945237393778
 20
258.7635648455698
 30
0.0
 11
4927.945237393778
 21
253.8635648455698
 31
0.0
  0
LINE
  5
1C389
330
1B896
100
AcDbEntity
  8
AM_0
100
AcDbLine
 10
4926.445237393778
 20
253.8635648455698
 30
0.0
 11
4927.945237393778
 21
253.8635648455698
 31
0.0
  0
LINE
  5
1C38A
330
1B896
100
AcDbEntity
  8
AM_0
100
AcDbLine
 10
4927.945237393778
 20
261.7635648455698
 30
0.0
 11
4927.945237393778
 21
266.6635648455697
 31
0.0
  0
LINE
  5
1C38B
330
1B896
100
AcDbEntity
  8
AM_0
100
AcDbLine
 10
4927.945237393778
 20
261.7635648455698
 30
0.0
 11
4933.445237393779
 21
261.7635648455698
 31
0.0
  0
LINE
  5
1C38C
330
1B896
100
AcDbEntity
  8
AM_0
100
AcDbLine
 10
4926.445237393778
 20
266.6635648455697
 30
0.0
 11
4927.945237393778
 21
266.6635648455697
 31
0.0
  0
LINE
  5
1C38D
330
1B896
100
AcDbEntity
  8
AM_0
100
AcDbLine
 10
4933.445237393779
 20
258.7635648455698
 30
0.0
 11
4933.445237393779
 21
261.7635648455698
 31
0.0
  0
LINE
  5
1C38E
330
1B896
100
AcDbEntity
  8
AM_0
100
AcDbLine
 10
4927.945237393778
 20
258.7635648455698
 30
0.0
 11
4933.445237393779
 21
258.7635648455698
 31
0.0
  0
ARC
  5
1C38F
330
1B896
100
AcDbEntity
  8
AM_2
100
AcDbCircle
 10
4926.945237393778
 20
254.7635648455698
 30
0.0
 40
0.5
100
AcDbArc
 50
180.0
 51
270.0
  0
LINE
  5
1C390
330
1B896
100
AcDbEntity
  8
AM_2
100
AcDbLine
 10
4926.945237393778
 20
254.2635648455698
 30
0.0
 11
4927.945237393778
 21
254.2635648455698
 31
0.0
  0
LINE
  5
1C391
330
1B896
100
AcDbEntity
  8
AM_2
100
AcDbLine
 10
4930.945237393778
 20
258.6135648455698
 30
0.0
 11
4931.606016997494
 21
258.6135648455698
 31
0.0
  0
LINE
  5
1C392
330
1B896
100
AcDbEntity
  8
AM_2
100
AcDbLine
 10
4931.938852526506
 20
259.7635648455698
 30
0.0
 11
4930.945237393778
 21
258.6135648455698
 31
0.0
  0
LINE
  5
1C393
330
1B896
100
AcDbEntity
  8
AM_2
100
AcDbLine
 10
4932.945237393778
 20
260.1635648455699
 30
0.0
 11
4931.606016997494
 21
258.6135648455698
 31
0.0
  0
LINE
  5
1C394
330
1B896
100
AcDbEntity
  8
AM_2
100
AcDbLine
 10
4927.74523739378
 20
259.7635648455698
 30
0.0
 11
4927.945237393778
 21
254.2635648455698
 31
0.0
  0
LINE
  5
1C395
330
1B896
100
AcDbEntity
  8
AM_2
100
AcDbLine
 10
4927.74523739378
 20
259.7635648455698
 30
0.0
 11
4931.938852526506
 21
259.7635648455698
 31
0.0
  0
ARC
  5
1C396
330
1B896
100
AcDbEntity
  8
AM_2
100
AcDbCircle
 10
4926.945237393778
 20
265.7635648455698
 30
0.0
 40
0.5
100
AcDbArc
 50
90.0
 51
180.0
  0
LINE
  5
1C397
330
1B896
100
AcDbEntity
  8
AM_2
100
AcDbLine
 10
4926.945237393778
 20
266.2635648455698
 30
0.0
 11
4927.945237393778
 21
266.2635648455698
 31
0.0
  0
LINE
  5
1C398
330
1B896
100
AcDbEntity
  8
AM_2
100
AcDbLine
 10
4930.945237393778
 20
261.9135648455699
 30
0.0
 11
4931.606016997494
 21
261.9135648455699
 31
0.0
  0
LINE
  5
1C399
330
1B896
100
AcDbEntity
  8
AM_2
100
AcDbLine
 10
4931.938852526506
 20
260.7635648455698
 30
0.0
 11
4930.945237393778
 21
261.9135648455699
 31
0.0
  0
LINE
  5
1C39A
330
1B896
100
AcDbEntity
  8
AM_2
100
AcDbLine
 10
4932.945237393778
 20
260.3635648455698
 30
0.0
 11
4931.606016997494
 21
261.9135648455699
 31
0.0
  0
LINE
  5
1C39B
330
1B896
100
AcDbEntity
  8
AM_2
100
AcDbLine
 10
4927.74523739378
 20
260.7635648455698
 30
0.0
 11
4927.945237393778
 21
266.2635648455698
 31
0.0
  0
LINE
  5
1C39C
330
1B896
100
AcDbEntity
  8
AM_2
100
AcDbLine
 10
4927.74523739378
 20
260.7635648455698
 30
0.0
 11
4931.938852526506
 21
260.7635648455698
 31
0.0
  0
LINE
  5
1C39D
330
1B896
100
AcDbEntity
  8
AM_2
100
AcDbLine
 10
4926.445237393778
 20
254.7635648455698
 30
0.0
 11
4926.445237393778
 21
265.7635648455698
 31
0.0
  0
LINE
  5
1C39E
330
1B896
100
AcDbEntity
  8
AM_2
100
AcDbLine
 10
4932.945237393778
 20
260.3635648455698
 30
0.0
 11
4932.945237393778
 21
260.1635648455699
 31
0.0
  0
LINE
  5
1C39F
330
1B896
100
AcDbEntity
  8
AM_5
100
AcDbLine
 10
4926.445237393778
 20
129.3248782268271
 30
0.0
 11
4664.945218776876
 21
129.3248782268271
 31
0.0
1001
ACAD_DSTYLE_DIMINSPECT
1070
   393
1070
     0
1001
ACAD
1000
DSTYLE
1002
{
1070
   173
1070
     1
1070
   140
1040
5.0
1070
    72
1070
     0
1070
    71
1070
     0
1002
}
  0
LINE
  5
1C3A0
330
1B896
100
AcDbEntity
  8
AM_5
100
AcDbLine
 10
4502.185550021288
 20
376.3897641554056
 30
0.0
 11
4502.185550021288
 21
87.88976415540572
 31
0.0
1001
ACAD_DSTYLE_DIMINSPECT
1070
   393
1070
     0
1001
ACAD
1000
DSTYLE
1002
{
1070
   140
1040
5.0
1070
   173
1070
     1
1070
    72
1070
     0
1070
    71
1070
     0
1002
}
  0
ARC
  5
1C3A1
330
1B896
100
AcDbEntity
  8
TS
100
AcDbCircle
 10
4657.945218776876
 20
251.7635648455699
 30
0.0
 40
0.5
100
AcDbArc
 50
148.2292097835195
 51
270.0
  0
LINE
  5
1C3A2
330
1B896
100
AcDbEntity
  8
TS
100
AcDbLine
 10
4664.445218776876
 20
251.2635648455699
 30
0.0
 11
4657.945218776876
 21
251.2635648455699
 31
0.0
  0
LINE
  5
1C3A3
330
1B896
100
AcDbEntity
  8
AM_2
  6
CONTINUOUS
100
AcDbLine
 10
4668.945218776876
 20
251.2635648455699
 30
0.0
 11
4664.945218776876
 21
251.2635648455699
 31
0.0
  0
ARC
  5
1C3A4
330
1B896
100
AcDbEntity
  8
TS
100
AcDbCircle
 10
4686.270749728924
 20
234.220977225115
 30
0.0
 40
33.81783432542852
100
AcDbArc
 50
130.1945652099168
 51
148.2292097835527
  0
ARC
  5
1C3A5
330
1B896
100
AcDbEntity
  8
AM_2
  6
CONTINUOUS
100
AcDbCircle
 10
4686.270749728924
 20
234.220977225115
 30
0.0
 40
33.81783432542852
100
AcDbArc
 50
120.8184444461644
 51
129.0944134323167
  0
LINE
  5
1C3A6
330
1B896
100
AcDbEntity
  8
OS
 62
     2
100
AcDbLine
 10
4941.445237393779
 20
127.1712706135303
 30
0.0
 11
4941.445237393779
 21
97.16366596045361
 31
0.0
  0
LINE
  5
1C3A7
330
1B896
100
AcDbEntity
  8
OS
100
AcDbLine
 10
4934.445237393778
 20
127.1712706135303
 30
0.0
 11
4934.445237393778
 21
97.16366596045361
 31
0.0
  0
LINE
  5
1C3A8
330
1B896
100
AcDbEntity
  8
AM_0
100
AcDbLine
 10
4926.445237393778
 20
253.8635648455698
 30
0.0
 11
4926.445237393778
 21
244.7635648455698
 31
0.0
  0
LINE
  5
1C3A9
330
1B896
100
AcDbEntity
  8
CONT_S_2
100
AcDbLine
 10
4926.445237393778
 20
269.5639599681364
 30
0.0
 11
4934.644842271212
 21
277.7635648455698
 31
0.0
1001
GENIUS_GENOBJ-N-HTC_13
1002
{
1000
OWNER
1000
GEN
1002
}
1001
GENIUS_GENODEF_13
1002
{
1000
HIER
1070
     0
1002
}
1002
{
1000
MANEDIT
1070
     0
1002
}
1002
{
1000
NOSEL
1070
     0
1002
}
1002
{
1000
BEHIND
1070
     0
1002
}
1002
{
1000
OTHER
1070
     0
1002
}
1002
{
1000
REACTOR
1002
}
1001
GENIUS_GENHATCH_13
1002
{
1000
DATA
1040
45.0
1042
2.5
1000
_U
1070
     0
1011
4934.47835090013
1021
267.6283751338378
1031
0.0
1002
}
1002
{
1000
UCS
1010
0.0
1020
0.0
1030
0.0
1010
1.0
1020
0.0
1030
0.0
1010
0.0
1020
1.0
1030
0.0
1002
}
1001
HATCHBACKGROUNDCOLOR
1071
-939524096
1000

1000

  0
LINE
  5
1C3AA
330
1B896
100
AcDbEntity
  8
CONT_S_2
100
AcDbLine
 10
4927.945237393778
 20
262.5786785938978
 30
0.0
 11
4943.130123645449
 21
277.7635648455698
 31
0.0
1001
GENIUS_GENOBJ-N-HTC_13
1002
{
1000
OWNER
1000
GEN
1002
}
1001
GENIUS_GENODEF_13
1002
{
1000
HIER
1070
     0
1002
}
1002
{
1000
MANEDIT
1070
     0
1002
}
1002
{
1000
NOSEL
1070
     0
1002
}
1002
{
1000
BEHIND
1070
     0
1002
}
1002
{
1000
OTHER
1070
     0
1002
}
1002
{
1000
REACTOR
1002
}
1001
GENIUS_GENHATCH_13
1002
{
1000
DATA
1040
45.0
1042
2.5
1000
_U
1070
     0
1011
4934.47835090013
1021
267.6283751338378
1031
0.0
1002
}
1002
{
1000
UCS
1010
0.0
1020
0.0
1030
0.0
1010
1.0
1020
0.0
1030
0.0
1010
0.0
1020
1.0
1030
0.0
1002
}
1001
HATCHBACKGROUNDCOLOR
1071
-939524096
1000

1000

  0
LINE
  5
1C3AB
330
1B896
100
AcDbEntity
  8
CONT_S_2
100
AcDbLine
 10
4926.445237393778
 20
252.5933972196593
 30
0.0
 11
4927.715405019688
 21
253.8635648455698
 31
0.0
1001
GENIUS_GENOBJ-N-HTC_13
1002
{
1000
OWNER
1000
GEN
1002
}
1001
GENIUS_GENODEF_13
1002
{
1000
HIER
1070
     0
1002
}
1002
{
1000
MANEDIT
1070
     0
1002
}
1002
{
1000
NOSEL
1070
     0
1002
}
1002
{
1000
BEHIND
1070
     0
1002
}
1002
{
1000
OTHER
1070
     0
1002
}
1002
{
1000
REACTOR
1002
}
1001
GENIUS_GENHATCH_13
1002
{
1000
DATA
1040
45.0
1042
2.5
1000
_U
1070
     0
1011
4934.47835090013
1021
267.6283751338378
1031
0.0
1002
}
1002
{
1000
UCS
1010
0.0
1020
0.0
1030
0.0
1010
1.0
1020
0.0
1030
0.0
1010
0.0
1020
1.0
1030
0.0
1002
}
1001
HATCHBACKGROUNDCOLOR
1071
-939524096
1000

1000

  0
LINE
  5
1C3AC
330
1B896
100
AcDbEntity
  8
CONT_S_2
100
AcDbLine
 10
4927.945237393778
 20
254.0933972196593
 30
0.0
 11
4932.615405019689
 21
258.7635648455698
 31
0.0
1001
GENIUS_GENOBJ-N-HTC_13
1002
{
1000
OWNER
1000
GEN
1002
}
1001
GENIUS_GENODEF_13
1002
{
1000
HIER
1070
     0
1002
}
1002
{
1000
MANEDIT
1070
     0
1002
}
1002
{
1000
NOSEL
1070
     0
1002
}
1002
{
1000
BEHIND
1070
     0
1002
}
1002
{
1000
OTHER
1070
     0
1002
}
1002
{
1000
REACTOR
1002
}
1001
GENIUS_GENHATCH_13
1002
{
1000
DATA
1040
45.0
1042
2.5
1000
_U
1070
     0
1011
4934.47835090013
1021
267.6283751338378
1031
0.0
1002
}
1002
{
1000
UCS
1010
0.0
1020
0.0
1030
0.0
1010
1.0
1020
0.0
1030
0.0
1010
0.0
1020
1.0
1030
0.0
1002
}
1001
HATCHBACKGROUNDCOLOR
1071
-939524096
1000

1000

  0
LINE
  5
1C3AD
330
1B896
100
AcDbEntity
  8
CONT_S_2
100
AcDbLine
 10
4933.445237393779
 20
259.5933972196593
 30
0.0
 11
4951.61540501969
 21
277.7635648455698
 31
0.0
1001
GENIUS_GENOBJ-N-HTC_13
1002
{
1000
OWNER
1000
GEN
1002
}
1001
GENIUS_GENODEF_13
1002
{
1000
HIER
1070
     0
1002
}
1002
{
1000
MANEDIT
1070
     0
1002
}
1002
{
1000
NOSEL
1070
     0
1002
}
1002
{
1000
BEHIND
1070
     0
1002
}
1002
{
1000
OTHER
1070
     0
1002
}
1002
{
1000
REACTOR
1002
}
1001
GENIUS_GENHATCH_13
1002
{
1000
DATA
1040
45.0
1042
2.5
1000
_U
1070
     0
1011
4934.47835090013
1021
267.6283751338378
1031
0.0
1002
}
1002
{
1000
UCS
1010
0.0
1020
0.0
1030
0.0
1010
1.0
1020
0.0
1030
0.0
1010
0.0
1020
1.0
1030
0.0
1002
}
1001
HATCHBACKGROUNDCOLOR
1071
-939524096
1000

1000

  0
LINE
  5
1C3AE
330
1B896
100
AcDbEntity
  8
CONT_S_2
100
AcDbLine
 10
4926.772961893853
 20
244.4358403454953
 30
0.0
 11
4953.945237393778
 21
271.6081158454203
 31
0.0
1001
GENIUS_GENOBJ-N-HTC_13
1002
{
1000
OWNER
1000
GEN
1002
}
1001
GENIUS_GENODEF_13
1002
{
1000
HIER
1070
     0
1002
}
1002
{
1000
MANEDIT
1070
     0
1002
}
1002
{
1000
NOSEL
1070
     0
1002
}
1002
{
1000
BEHIND
1070
     0
1002
}
1002
{
1000
OTHER
1070
     0
1002
}
1002
{
1000
REACTOR
1002
}
1001
GENIUS_GENHATCH_13
1002
{
1000
DATA
1040
45.0
1042
2.5
1000
_U
1070
     0
1011
4934.47835090013
1021
267.6283751338378
1031
0.0
1002
}
1002
{
1000
UCS
1010
0.0
1020
0.0
1030
0.0
1010
1.0
1020
0.0
1030
0.0
1010
0.0
1020
1.0
1030
0.0
1002
}
1001
HATCHBACKGROUNDCOLOR
1071
-939524096
1000

1000

  0
LINE
  5
1C3AF
330
1B896
100
AcDbEntity
  8
CONT_S_2
100
AcDbLine
 10
4933.585967768165
 20
242.7635648455698
 30
0.0
 11
4953.945237393778
 21
263.1228344711816
 31
0.0
1001
GENIUS_GENOBJ-N-HTC_13
1002
{
1000
OWNER
1000
GEN
1002
}
1001
GENIUS_GENODEF_13
1002
{
1000
HIER
1070
     0
1002
}
1002
{
1000
MANEDIT
1070
     0
1002
}
1002
{
1000
NOSEL
1070
     0
1002
}
1002
{
1000
BEHIND
1070
     0
1002
}
1002
{
1000
OTHER
1070
     0
1002
}
1002
{
1000
REACTOR
1002
}
1001
GENIUS_GENHATCH_13
1002
{
1000
DATA
1040
45.0
1042
2.5
1000
_U
1070
     0
1011
4934.47835090013
1021
267.6283751338378
1031
0.0
1002
}
1002
{
1000
UCS
1010
0.0
1020
0.0
1030
0.0
1010
1.0
1020
0.0
1030
0.0
1010
0.0
1020
1.0
1030
0.0
1002
}
1001
HATCHBACKGROUNDCOLOR
1071
-939524096
1000

1000

  0
LINE
  5
1C3B0
330
1B896
100
AcDbEntity
  8
CONT_S_2
100
AcDbLine
 10
4942.071249142404
 20
242.7635648455698
 30
0.0
 11
4953.945237393778
 21
254.6375530969432
 31
0.0
1001
GENIUS_GENOBJ-N-HTC_13
1002
{
1000
OWNER
1000
GEN
1002
}
1001
GENIUS_GENODEF_13
1002
{
1000
HIER
1070
     0
1002
}
1002
{
1000
MANEDIT
1070
     0
1002
}
1002
{
1000
NOSEL
1070
     0
1002
}
1002
{
1000
BEHIND
1070
     0
1002
}
1002
{
1000
OTHER
1070
     0
1002
}
1002
{
1000
REACTOR
1002
}
1001
GENIUS_GENHATCH_13
1002
{
1000
DATA
1040
45.0
1042
2.5
1000
_U
1070
     0
1011
4934.47835090013
1021
267.6283751338378
1031
0.0
1002
}
1002
{
1000
UCS
1010
0.0
1020
0.0
1030
0.0
1010
1.0
1020
0.0
1030
0.0
1010
0.0
1020
1.0
1030
0.0
1002
}
1001
HATCHBACKGROUNDCOLOR
1071
-939524096
1000

1000

  0
LINE
  5
1C3B1
330
1B896
100
AcDbEntity
  8
CONT_S_2
100
AcDbLine
 10
4950.556530516642
 20
242.7635648455698
 30
0.0
 11
4953.945237393778
 21
246.1522717227046
 31
0.0
1001
GENIUS_GENOBJ-N-HTC_13
1002
{
1000
OWNER
1000
GEN
1002
}
1001
GENIUS_GENODEF_13
1002
{
1000
HIER
1070
     0
1002
}
1002
{
1000
MANEDIT
1070
     0
1002
}
1002
{
1000
NOSEL
1070
     0
1002
}
1002
{
1000
BEHIND
1070
     0
1002
}
1002
{
1000
OTHER
1070
     0
1002
}
1002
{
1000
REACTOR
1002
}
1001
GENIUS_GENHATCH_13
1002
{
1000
DATA
1040
45.0
1042
2.5
1000
_U
1070
     0
1011
4934.47835090013
1021
267.6283751338378
1031
0.0
1002
}
1002
{
1000
UCS
1010
0.0
1020
0.0
1030
0.0
1010
1.0
1020
0.0
1030
0.0
1010
0.0
1020
1.0
1030
0.0
1002
}
1001
HATCHBACKGROUNDCOLOR
1071
-939524096
1000

1000

  0
LINE
  5
1C3B2
330
1B896
100
AcDbEntity
  8
AM_5
100
AcDbLine
 10
4955.945237393779
 20
277.7635648455698
 30
0.0
 11
5000.945237393779
 21
277.7635648455698
 31
0.0
1001
ACAD_DSTYLE_DIMINSPECT
1070
   393
1070
     0
  0
LINE
  5
1C3B3
330
1B896
100
AcDbEntity
  8
AM_5
100
AcDbLine
 10
4963.061626723714
 20
260.2635648455698
 30
0.0
 11
5000.945237393779
 21
260.2635648455698
 31
0.0
1001
ACAD_DSTYLE_DIMINSPECT
1070
   393
1070
     0
  0
LINE
  5
1C3B4
330
1B896
100
AcDbEntity
  8
AM_5
100
AcDbLine
 10
4998.945237393779
 20
260.2635648455698
 30
0.0
 11
4998.945237393779
 21
236.6893278766152
 31
0.0
1001
ACAD_DSTYLE_DIMINSPECT
1070
   393
1070
     0
  0
LINE
  5
1C3B5
330
1B896
100
AcDbEntity
  8
AM_5
100
AcDbLine
 10
4998.945237393779
 20
277.7635648455698
 30
0.0
 11
4998.945237393779
 21
260.2635648455698
 31
0.0
1001
ACAD_DSTYLE_DIMINSPECT
1070
   393
1070
     0
  0
LINE
  5
1C3B6
330
1B896
100
AcDbEntity
  8
AM_5
100
AcDbLine
 10
4913.5791459721
 20
154.2215665711215
 30
0.0
 11
4921.864860257814
 21
154.2215665711215
 31
0.0
1001
ACAD_DSTYLE_DIMINSPECT
1070
   393
1070
     0
1001
ACAD
1000
DSTYLE
1002
{
1070
   173
1070
     1
1002
}
  0
LINE
  5
1C3B7
330
1B896
100
AcDbEntity
  8
AM_5
100
AcDbLine
 10
4921.864860257814
 20
154.2215665711215
 30
0.0
 11
4928.445237393778
 21
167.3248782268272
 31
0.0
1001
ACAD_DSTYLE_DIMINSPECT
1070
   393
1070
     0
1001
ACAD
1000
DSTYLE
1002
{
1070
   173
1070
     1
1002
}
  0
LINE
  5
1C3B8
330
1B896
100
AcDbEntity
  8
AM_5
100
AcDbLine
 10
4926.445237393778
 20
242.7635648455698
 30
0.0
 11
4926.445237393778
 21
165.3248782268271
 31
0.0
1001
ACAD_DSTYLE_DIMINSPECT
1070
   393
1070
     0
1001
ACAD
1000
DSTYLE
1002
{
1070
   173
1070
     1
1002
}
  0
LINE
  5
1C3B9
330
1B896
100
AcDbEntity
  8
AM_5
100
AcDbLine
 10
4930.445237393779
 20
231.7635648455698
 30
0.0
 11
4930.445237393779
 21
165.3248782268271
 31
0.0
1001
ACAD_DSTYLE_DIMINSPECT
1070
   393
1070
     0
1001
ACAD
1000
DSTYLE
1002
{
1070
   173
1070
     1
1002
}
  0
LINE
  5
1C3BA
330
1B896
100
AcDbEntity
  8
AM_5
100
AcDbLine
 10
4926.445237393778
 20
167.3248782268272
 30
0.0
 11
4930.445237393779
 21
167.3248782268272
 31
0.0
1001
ACAD_DSTYLE_DIMINSPECT
1070
   393
1070
     0
1001
ACAD
1000
DSTYLE
1002
{
1070
   173
1070
     1
1002
}
  0
LINE
  5
1C3BB
330
1B896
100
AcDbEntity
  8
AM_5
100
AcDbLine
 10
4677.183502983295
 20
155.0627483414494
 30
0.0
 11
4668.89778869758
 21
155.0627483414494
 31
0.0
1001
ACAD_DSTYLE_DIMINSPECT
1070
   393
1070
     0
1001
ACAD
1000
DSTYLE
1002
{
1070
   173
1070
     1
1002
}
  0
LINE
  5
1C3BC
330
1B896
100
AcDbEntity
  8
AM_5
100
AcDbLine
 10
4668.89778869758
 20
155.0627483414494
 30
0.0
 11
4662.945218776877
 21
167.3248782268272
 31
0.0
1001
ACAD_DSTYLE_DIMINSPECT
1070
   393
1070
     0
1001
ACAD
1000
DSTYLE
1002
{
1070
   173
1070
     1
1002
}
  0
LINE
  5
1C3BD
330
1B896
100
AcDbEntity
  8
AM_5
100
AcDbLine
 10
4664.945218776876
 20
242.7635648455698
 30
0.0
 11
4664.945218776876
 21
165.3248782268271
 31
0.0
1001
ACAD_DSTYLE_DIMINSPECT
1070
   393
1070
     0
1001
ACAD
1000
DSTYLE
1002
{
1070
   173
1070
     1
1002
}
  0
LINE
  5
1C3BE
330
1B896
100
AcDbEntity
  8
AM_5
100
AcDbLine
 10
4660.945218776876
 20
231.7635648455698
 30
0.0
 11
4660.945218776876
 21
165.3248782268271
 31
0.0
1001
ACAD_DSTYLE_DIMINSPECT
1070
   393
1070
     0
1001
ACAD
1000
DSTYLE
1002
{
1070
   173
1070
     1
1002
}
  0
LINE
  5
1C3BF
330
1B896
100
AcDbEntity
  8
AM_5
100
AcDbLine
 10
4664.945218776876
 20
167.3248782268272
 30
0.0
 11
4660.945218776876
 21
167.3248782268272
 31
0.0
1001
ACAD_DSTYLE_DIMINSPECT
1070
   393
1070
     0
1001
ACAD
1000
DSTYLE
1002
{
1070
   173
1070
     1
1002
}
  0
TEXT
  5
1C3C0
330
1B896
100
AcDbEntity
  8
AM_5
100
AcDbText
 10
4500.185550021289
 20
228.8064308220723
 30
0.0
 40
10.0
  1
H
 50
90.0
  7
SIMPLEX
100
AcDbText
1001
ACAD_DSTYLE_DIMINSPECT
1070
   393
1070
     0
1001
ACAD
1000
DSTYLE
1002
{
1070
   140
1040
5.0
1070
   173
1070
     1
1070
    72
1070
     0
1070
    71
1070
     0
1002
}
  0
TEXT
  5
1C3C1
330
1B896
100
AcDbEntity
  8
AM_5
100
AcDbText
 10
4790.933323323423
 20
131.3248782268271
 30
0.0
 40
10.0
  1
W
  7
SIMPLEX
100
AcDbText
1001
ACAD_DSTYLE_DIMINSPECT
1070
   393
1070
     0
1001
ACAD
1000
DSTYLE
1002
{
1070
   173
1070
     1
1070
   140
1040
5.0
1070
    72
1070
     0
1070
    71
1070
     0
1002
}
  0
LINE
  5
1C3C2
330
1B896
100
AcDbEntity
  8
AM_5
100
AcDbLine
 10
4671.74522605785
 20
125.2448812493165
 30
0.0
 11
4671.74522605785
 21
133.4048820493164
 31
0.0
  0
LINE
  5
1C3C3
330
1B896
100
AcDbEntity
  8
AM_5
100
AcDbLine
 10
4671.54522615785
 20
125.3648811493164
 30
0.0
 11
4671.54522615785
 21
133.2848821493165
 31
0.0
  0
LINE
  5
1C3C4
330
1B896
100
AcDbEntity
  8
AM_5
100
AcDbLine
 10
4671.345226357849
 20
125.4848810493165
 30
0.0
 11
4671.345226357849
 21
133.1648823493164
 31
0.0
  0
LINE
  5
1C3C5
330
1B896
100
AcDbEntity
  8
AM_5
100
AcDbLine
 10
4671.14522655785
 20
125.6048799493165
 30
0.0
 11
4671.14522655785
 21
133.0448824493165
 31
0.0
  0
LINE
  5
1C3C6
330
1B896
100
AcDbEntity
  8
AM_5
100
AcDbLine
 10
4670.94522675785
 20
125.7248798493165
 30
0.0
 11
4670.94522675785
 21
132.9248825493165
 31
0.0
  0
LINE
  5
1C3C7
330
1B896
100
AcDbEntity
  8
AM_5
100
AcDbLine
 10
4664.945222777698
 20
129.3248803111245
 30
0.0
 11
4674.94522285785
 21
123.3248845493164
 31
0.0
  0
LINE
  5
1C3C8
330
1B896
100
AcDbEntity
  8
AM_5
100
AcDbLine
 10
4665.145235167851
 20
129.2048727393165
 30
0.0
 11
4665.145235167851
 21
129.4448877593166
 31
0.0
  0
LINE
  5
1C3C9
330
1B896
100
AcDbEntity
  8
AM_5
100
AcDbLine
 10
4664.945218776876
 20
129.3248782268271
 30
0.0
 11
4674.94522255785
 21
135.3248801493165
 31
0.0
  0
LINE
  5
1C3CA
330
1B896
100
AcDbEntity
  8
AM_5
100
AcDbLine
 10
4665.34523211785
 20
129.0848776193165
 30
0.0
 11
4665.34523211785
 21
129.5648857393166
 31
0.0
  0
LINE
  5
1C3CB
330
1B896
100
AcDbEntity
  8
AM_5
100
AcDbLine
 10
4665.745231727849
 20
128.8448749893165
 30
0.0
 11
4665.745231727849
 21
129.8048855093164
 31
0.0
  0
LINE
  5
1C3CC
330
1B896
100
AcDbEntity
  8
AM_5
100
AcDbLine
 10
4665.545231917849
 20
128.9648777293165
 30
0.0
 11
4665.545231917849
 21
129.6848856293165
 31
0.0
  0
LINE
  5
1C3CD
330
1B896
100
AcDbEntity
  8
AM_5
100
AcDbLine
 10
4665.945231557851
 20
128.7248750993164
 30
0.0
 11
4665.945231557851
 21
129.9248853993165
 31
0.0
  0
LINE
  5
1C3CE
330
1B896
100
AcDbEntity
  8
AM_5
100
AcDbLine
 10
4666.14523135785
 20
128.6048752093165
 30
0.0
 11
4666.14523135785
 21
130.0448852893166
 31
0.0
  0
LINE
  5
1C3CF
330
1B896
100
AcDbEntity
  8
AM_5
100
AcDbLine
 10
4666.345231157849
 20
128.4848762793165
 30
0.0
 11
4666.345231157849
 21
130.1648851693165
 31
0.0
  0
LINE
  5
1C3D0
330
1B896
100
AcDbEntity
  8
AM_5
100
AcDbLine
 10
4666.54523095785
 20
128.3648763993165
 30
0.0
 11
4666.54523095785
 21
130.2848850593164
 31
0.0
  0
LINE
  5
1C3D1
330
1B896
100
AcDbEntity
  8
AM_5
100
AcDbLine
 10
4666.745230757849
 20
128.2448765493164
 30
0.0
 11
4666.745230757849
 21
130.4048849493165
 31
0.0
  0
LINE
  5
1C3D2
330
1B896
100
AcDbEntity
  8
AM_5
100
AcDbLine
 10
4667.145230357851
 20
128.0048767493165
 30
0.0
 11
4667.145230357851
 21
130.6448847493164
 31
0.0
  0
LINE
  5
1C3D3
330
1B896
100
AcDbEntity
  8
AM_5
100
AcDbLine
 10
4666.945230557851
 20
128.1248766493165
 30
0.0
 11
4666.945230557851
 21
130.5248848493166
 31
0.0
  0
LINE
  5
1C3D4
330
1B896
100
AcDbEntity
  8
AM_5
100
AcDbLine
 10
4667.34523015785
 20
127.8848768493165
 30
0.0
 11
4667.34523015785
 21
130.7648845493166
 31
0.0
  0
LINE
  5
1C3D5
330
1B896
100
AcDbEntity
  8
AM_5
100
AcDbLine
 10
4667.545230057849
 20
127.7648769493165
 30
0.0
 11
4667.545230057849
 21
130.8848844493164
 31
0.0
  0
LINE
  5
1C3D6
330
1B896
100
AcDbEntity
  8
AM_5
100
AcDbLine
 10
4667.745229857851
 20
127.6448770493165
 30
0.0
 11
4667.745229857851
 21
131.0048843493165
 31
0.0
  0
LINE
  5
1C3D7
330
1B896
100
AcDbEntity
  8
AM_5
100
AcDbLine
 10
4667.945229657852
 20
127.5248771493165
 30
0.0
 11
4667.945229657852
 21
131.1248842493165
 31
0.0
  0
LINE
  5
1C3D8
330
1B896
100
AcDbEntity
  8
AM_5
100
AcDbLine
 10
4668.14522945785
 20
127.4048773493165
 30
0.0
 11
4668.14522945785
 21
131.2448841493164
 31
0.0
  0
LINE
  5
1C3D9
330
1B896
100
AcDbEntity
  8
AM_5
100
AcDbLine
 10
4668.345229257849
 20
127.2848774493165
 30
0.0
 11
4668.345229257849
 21
131.3648840493165
 31
0.0
  0
LINE
  5
1C3DA
330
1B896
100
AcDbEntity
  8
AM_5
100
AcDbLine
 10
4668.545229057849
 20
127.1648775493166
 30
0.0
 11
4668.54522905785
 21
131.4848839493165
 31
0.0
  0
LINE
  5
1C3DB
330
1B896
100
AcDbEntity
  8
AM_5
100
AcDbLine
 10
4668.74522885785
 20
127.0448786493165
 30
0.0
 11
4668.74522885785
 21
131.6048837493165
 31
0.0
  0
LINE
  5
1C3DC
330
1B896
100
AcDbEntity
  8
AM_5
100
AcDbLine
 10
4668.94522865785
 20
126.9248787493165
 30
0.0
 11
4668.94522865785
 21
131.7248836493165
 31
0.0
  0
LINE
  5
1C3DD
330
1B896
100
AcDbEntity
  8
AM_5
100
AcDbLine
 10
4669.145228457851
 20
126.8048788493166
 30
0.0
 11
4669.145228457851
 21
131.8448835493164
 31
0.0
  0
LINE
  5
1C3DE
330
1B896
100
AcDbEntity
  8
AM_5
100
AcDbLine
 10
4669.345228257848
 20
126.6848789493165
 30
0.0
 11
4669.345228257848
 21
131.9648834493165
 31
0.0
  0
LINE
  5
1C3DF
330
1B896
100
AcDbEntity
  8
AM_5
100
AcDbLine
 10
4669.54522805785
 20
126.5648790493165
 30
0.0
 11
4669.54522805785
 21
132.0848833493165
 31
0.0
  0
LINE
  5
1C3E0
330
1B896
100
AcDbEntity
  8
AM_5
100
AcDbLine
 10
4669.745227957849
 20
126.4448791493166
 30
0.0
 11
4669.745227957849
 21
132.2048832493164
 31
0.0
  0
LINE
  5
1C3E1
330
1B896
100
AcDbEntity
  8
AM_5
100
AcDbLine
 10
4669.945227757849
 20
126.3248792493165
 30
0.0
 11
4669.945227757849
 21
132.3248831493165
 31
0.0
  0
LINE
  5
1C3E2
330
1B896
100
AcDbEntity
  8
AM_5
100
AcDbLine
 10
4670.14522755785
 20
126.2048794493166
 30
0.0
 11
4670.14522755785
 21
132.4448829493164
 31
0.0
  0
LINE
  5
1C3E3
330
1B896
100
AcDbEntity
  8
AM_5
100
AcDbLine
 10
4670.34522735785
 20
126.0848795493165
 30
0.0
 11
4670.34522735785
 21
132.5648828493165
 31
0.0
  0
LINE
  5
1C3E4
330
1B896
100
AcDbEntity
  8
AM_5
100
AcDbLine
 10
4670.545227157848
 20
125.9648796493165
 30
0.0
 11
4670.545227157848
 21
132.6848827493165
 31
0.0
  0
LINE
  5
1C3E5
330
1B896
100
AcDbEntity
  8
AM_5
100
AcDbLine
 10
4670.745226957849
 20
125.8448807493165
 30
0.0
 11
4670.745226957849
 21
132.8048826493164
 31
0.0
  0
LINE
  5
1C3E6
330
1B896
100
AcDbEntity
  8
AM_5
100
AcDbLine
 10
4672.145225657851
 20
125.0048815493165
 30
0.0
 11
4672.145225657851
 21
133.6448818493165
 31
0.0
  0
LINE
  5
1C3E7
330
1B896
100
AcDbEntity
  8
AM_5
100
AcDbLine
 10
4671.945225857849
 20
125.1248813493165
 30
0.0
 11
4671.945225857851
 21
133.5248819493165
 31
0.0
  0
LINE
  5
1C3E8
330
1B896
100
AcDbEntity
  8
AM_5
100
AcDbLine
 10
4672.345225457849
 20
124.8848816493165
 30
0.0
 11
4672.345225457849
 21
133.7648817493164
 31
0.0
  0
LINE
  5
1C3E9
330
1B896
100
AcDbEntity
  8
AM_5
100
AcDbLine
 10
4672.54522525785
 20
124.7648817493164
 30
0.0
 11
4672.54522525785
 21
133.8848816493165
 31
0.0
  0
LINE
  5
1C3EA
330
1B896
100
AcDbEntity
  8
AM_5
100
AcDbLine
 10
4672.745225057851
 20
124.6448818493165
 30
0.0
 11
4672.745225057851
 21
134.0048815493165
 31
0.0
  0
LINE
  5
1C3EB
330
1B896
100
AcDbEntity
  8
AM_5
100
AcDbLine
 10
4672.945224857851
 20
124.5248819493165
 30
0.0
 11
4672.945224857851
 21
134.1248813493165
 31
0.0
  0
LINE
  5
1C3EC
330
1B896
100
AcDbEntity
  8
AM_5
100
AcDbLine
 10
4673.145224657851
 20
124.4048820493164
 30
0.0
 11
4673.145224657851
 21
134.2448812493165
 31
0.0
  0
LINE
  5
1C3ED
330
1B896
100
AcDbEntity
  8
AM_5
100
AcDbLine
 10
4673.345224457849
 20
124.2848821493165
 30
0.0
 11
4673.345224457849
 21
134.3648811493164
 31
0.0
  0
LINE
  5
1C3EE
330
1B896
100
AcDbEntity
  8
AM_5
100
AcDbLine
 10
4673.54522425785
 20
124.1648823493164
 30
0.0
 11
4673.54522425785
 21
134.4848810493165
 31
0.0
  0
LINE
  5
1C3EF
330
1B896
100
AcDbEntity
  8
AM_5
100
AcDbLine
 10
4673.745224057849
 20
124.0448833493164
 30
0.0
 11
4673.745224057849
 21
134.6048809493165
 31
0.0
  0
LINE
  5
1C3F0
330
1B896
100
AcDbEntity
  8
AM_5
100
AcDbLine
 10
4673.94522395785
 20
123.9248834493165
 30
0.0
 11
4673.94522395785
 21
134.7248808493164
 31
0.0
  0
LINE
  5
1C3F1
330
1B896
100
AcDbEntity
  8
AM_5
100
AcDbLine
 10
4674.14522375785
 20
123.8048836493164
 30
0.0
 11
4674.14522375785
 21
134.8448807493165
 31
0.0
  0
LINE
  5
1C3F2
330
1B896
100
AcDbEntity
  8
AM_5
100
AcDbLine
 10
4674.345223557849
 20
123.6848837493165
 30
0.0
 11
4674.345223557849
 21
134.9648805493165
 31
0.0
  0
LINE
  5
1C3F3
330
1B896
100
AcDbEntity
  8
AM_5
100
AcDbLine
 10
4674.545223357849
 20
123.5648838493165
 30
0.0
 11
4674.545223357849
 21
135.0848804493165
 31
0.0
  0
LINE
  5
1C3F4
330
1B896
100
AcDbEntity
  8
AM_5
100
AcDbLine
 10
4674.745223157851
 20
123.4448839493164
 30
0.0
 11
4674.745223157851
 21
135.2048803493165
 31
0.0
  0
LINE
  5
1C3F5
330
1B896
100
AcDbEntity
  8
AM_5
100
AcDbLine
 10
4674.945222957852
 20
123.3248840493165
 30
0.0
 11
4674.945222957852
 21
135.3248802493165
 31
0.0
  0
LINE
  5
1C3F6
330
1B896
100
AcDbEntity
  8
AM_5
100
AcDbLine
 10
4919.645233850129
 20
133.4048774467329
 30
0.0
 11
4919.645233850129
 21
125.2448766467329
 31
0.0
  0
LINE
  5
1C3F7
330
1B896
100
AcDbEntity
  8
AM_5
100
AcDbLine
 10
4919.845233750129
 20
133.2848775467329
 30
0.0
 11
4919.845233750129
 21
125.3648765467329
 31
0.0
  0
LINE
  5
1C3F8
330
1B896
100
AcDbEntity
  8
AM_5
100
AcDbLine
 10
4920.04523355013
 20
133.1648776467329
 30
0.0
 11
4920.04523355013
 21
125.4848763467329
 31
0.0
  0
LINE
  5
1C3F9
330
1B896
100
AcDbEntity
  8
AM_5
100
AcDbLine
 10
4920.245233350129
 20
133.0448787467329
 30
0.0
 11
4920.245233350129
 21
125.6048762467329
 31
0.0
  0
LINE
  5
1C3FA
330
1B896
100
AcDbEntity
  8
AM_5
100
AcDbLine
 10
4920.445233150129
 20
132.9248788467328
 30
0.0
 11
4920.445233150129
 21
125.7248761467329
 31
0.0
  0
LINE
  5
1C3FB
330
1B896
100
AcDbEntity
  8
AM_5
100
AcDbLine
 10
4926.445237130281
 20
129.3248783849248
 30
0.0
 11
4916.44523705013
 21
135.3248741467328
 31
0.0
  0
LINE
  5
1C3FC
330
1B896
100
AcDbEntity
  8
AM_5
100
AcDbLine
 10
4926.245224740129
 20
129.4448859567329
 30
0.0
 11
4926.245224740129
 21
129.2048709367328
 31
0.0
  0
LINE
  5
1C3FD
330
1B896
100
AcDbEntity
  8
AM_5
100
AcDbLine
 10
4926.445241131104
 20
129.3248804692221
 30
0.0
 11
4916.445237350131
 21
123.3248785467329
 31
0.0
  0
LINE
  5
1C3FE
330
1B896
100
AcDbEntity
  8
AM_5
100
AcDbLine
 10
4926.04522779013
 20
129.5648810767329
 30
0.0
 11
4926.04522779013
 21
129.0848729567328
 31
0.0
  0
LINE
  5
1C3FF
330
1B896
100
AcDbEntity
  8
AM_5
100
AcDbLine
 10
4925.64522818013
 20
129.8048837067328
 30
0.0
 11
4925.64522818013
 21
128.844873186733
 31
0.0
  0
LINE
  5
1C400
330
1B896
100
AcDbEntity
  8
AM_5
100
AcDbLine
 10
4925.84522799013
 20
129.6848809667329
 30
0.0
 11
4925.84522799013
 21
128.9648730667329
 31
0.0
  0
LINE
  5
1C401
330
1B896
100
AcDbEntity
  8
AM_5
100
AcDbLine
 10
4925.445228350128
 20
129.924883596733
 30
0.0
 11
4925.445228350128
 21
128.7248732967328
 31
0.0
  0
LINE
  5
1C402
330
1B896
100
AcDbEntity
  8
AM_5
100
AcDbLine
 10
4925.24522855013
 20
130.0448834867329
 30
0.0
 11
4925.24522855013
 21
128.6048734067328
 31
0.0
  0
LINE
  5
1C403
330
1B896
100
AcDbEntity
  8
AM_5
100
AcDbLine
 10
4925.04522875013
 20
130.1648824167328
 30
0.0
 11
4925.04522875013
 21
128.4848735267329
 31
0.0
  0
LINE
  5
1C404
330
1B896
100
AcDbEntity
  8
AM_5
100
AcDbLine
 10
4924.845228950129
 20
130.284882296733
 30
0.0
 11
4924.845228950129
 21
128.364873636733
 31
0.0
  0
LINE
  5
1C405
330
1B896
100
AcDbEntity
  8
AM_5
100
AcDbLine
 10
4924.645229150131
 20
130.404882146733
 30
0.0
 11
4924.645229150131
 21
128.2448737467328
 31
0.0
  0
LINE
  5
1C406
330
1B896
100
AcDbEntity
  8
AM_5
100
AcDbLine
 10
4924.24522955013
 20
130.6448819467328
 30
0.0
 11
4924.24522955013
 21
128.004873946733
 31
0.0
  0
LINE
  5
1C407
330
1B896
100
AcDbEntity
  8
AM_5
100
AcDbLine
 10
4924.44522935013
 20
130.5248820467328
 30
0.0
 11
4924.44522935013
 21
128.1248738467328
 31
0.0
  0
LINE
  5
1C408
330
1B896
100
AcDbEntity
  8
AM_5
100
AcDbLine
 10
4924.045229750131
 20
130.764881846733
 30
0.0
 11
4924.045229750131
 21
127.8848741467328
 31
0.0
  0
LINE
  5
1C409
330
1B896
100
AcDbEntity
  8
AM_5
100
AcDbLine
 10
4923.84522985013
 20
130.8848817467328
 30
0.0
 11
4923.84522985013
 21
127.764874246733
 31
0.0
  0
LINE
  5
1C40A
330
1B896
100
AcDbEntity
  8
AM_5
100
AcDbLine
 10
4923.64523005013
 20
131.0048816467328
 30
0.0
 11
4923.64523005013
 21
127.6448743467328
 31
0.0
  0
LINE
  5
1C40B
330
1B896
100
AcDbEntity
  8
AM_5
100
AcDbLine
 10
4923.445230250129
 20
131.1248815467329
 30
0.0
 11
4923.445230250129
 21
127.5248744467329
 31
0.0
  0
LINE
  5
1C40C
330
1B896
100
AcDbEntity
  8
AM_5
100
AcDbLine
 10
4923.245230450129
 20
131.2448813467328
 30
0.0
 11
4923.245230450129
 21
127.404874546733
 31
0.0
  0
LINE
  5
1C40D
330
1B896
100
AcDbEntity
  8
AM_5
100
AcDbLine
 10
4923.045230650131
 20
131.364881246733
 30
0.0
 11
4923.045230650131
 21
127.2848746467328
 31
0.0
  0
LINE
  5
1C40E
330
1B896
100
AcDbEntity
  8
AM_5
100
AcDbLine
 10
4922.845230850132
 20
131.4848811467328
 30
0.0
 11
4922.845230850128
 21
127.1648747467329
 31
0.0
  0
LINE
  5
1C40F
330
1B896
100
AcDbEntity
  8
AM_5
100
AcDbLine
 10
4922.645231050131
 20
131.6048800467328
 30
0.0
 11
4922.645231050131
 21
127.0448749467328
 31
0.0
  0
LINE
  5
1C410
330
1B896
100
AcDbEntity
  8
AM_5
100
AcDbLine
 10
4922.445231250129
 20
131.7248799467329
 30
0.0
 11
4922.445231250129
 21
126.9248750467329
 31
0.0
  0
LINE
  5
1C411
330
1B896
100
AcDbEntity
  8
AM_5
100
AcDbLine
 10
4922.24523145013
 20
131.8448798467328
 30
0.0
 11
4922.24523145013
 21
126.804875146733
 31
0.0
  0
LINE
  5
1C412
330
1B896
100
AcDbEntity
  8
AM_5
100
AcDbLine
 10
4922.04523165013
 20
131.9648797467328
 30
0.0
 11
4922.04523165013
 21
126.6848752467329
 31
0.0
  0
LINE
  5
1C413
330
1B896
100
AcDbEntity
  8
AM_5
100
AcDbLine
 10
4921.84523185013
 20
132.0848796467329
 30
0.0
 11
4921.84523185013
 21
126.5648753467329
 31
0.0
  0
LINE
  5
1C414
330
1B896
100
AcDbEntity
  8
AM_5
100
AcDbLine
 10
4921.64523195013
 20
132.2048795467328
 30
0.0
 11
4921.64523195013
 21
126.4448754467329
 31
0.0
  0
LINE
  5
1C415
330
1B896
100
AcDbEntity
  8
AM_5
100
AcDbLine
 10
4921.44523215013
 20
132.3248794467329
 30
0.0
 11
4921.44523215013
 21
126.3248755467329
 31
0.0
  0
LINE
  5
1C416
330
1B896
100
AcDbEntity
  8
AM_5
100
AcDbLine
 10
4921.24523235013
 20
132.4448792467328
 30
0.0
 11
4921.24523235013
 21
126.204875746733
 31
0.0
  0
LINE
  5
1C417
330
1B896
100
AcDbEntity
  8
AM_5
100
AcDbLine
 10
4921.045232550131
 20
132.5648791467328
 30
0.0
 11
4921.045232550131
 21
126.0848758467329
 31
0.0
  0
LINE
  5
1C418
330
1B896
100
AcDbEntity
  8
AM_5
100
AcDbLine
 10
4920.845232750131
 20
132.6848790467329
 30
0.0
 11
4920.845232750131
 21
125.9648759467329
 31
0.0
  0
LINE
  5
1C419
330
1B896
100
AcDbEntity
  8
AM_5
100
AcDbLine
 10
4920.64523295013
 20
132.8048779467329
 30
0.0
 11
4920.64523295013
 21
125.8448760467329
 31
0.0
  0
LINE
  5
1C41A
330
1B896
100
AcDbEntity
  8
AM_5
100
AcDbLine
 10
4919.245234250129
 20
133.6448771467329
 30
0.0
 11
4919.245234250129
 21
125.0048768467329
 31
0.0
  0
LINE
  5
1C41B
330
1B896
100
AcDbEntity
  8
AM_5
100
AcDbLine
 10
4919.44523405013
 20
133.5248773467329
 30
0.0
 11
4919.445234050129
 21
125.1248767467329
 31
0.0
  0
LINE
  5
1C41C
330
1B896
100
AcDbEntity
  8
AM_5
100
AcDbLine
 10
4919.04523445013
 20
133.7648770467329
 30
0.0
 11
4919.04523445013
 21
124.8848769467329
 31
0.0
  0
LINE
  5
1C41D
330
1B896
100
AcDbEntity
  8
AM_5
100
AcDbLine
 10
4918.845234650131
 20
133.8848769467329
 30
0.0
 11
4918.845234650131
 21
124.7648770467329
 31
0.0
  0
LINE
  5
1C41E
330
1B896
100
AcDbEntity
  8
AM_5
100
AcDbLine
 10
4918.64523485013
 20
134.0048768467329
 30
0.0
 11
4918.64523485013
 21
124.6448771467329
 31
0.0
  0
LINE
  5
1C41F
330
1B896
100
AcDbEntity
  8
AM_5
100
AcDbLine
 10
4918.445235050128
 20
134.1248767467329
 30
0.0
 11
4918.445235050128
 21
124.5248773467329
 31
0.0
  0
LINE
  5
1C420
330
1B896
100
AcDbEntity
  8
AM_5
100
AcDbLine
 10
4918.245235250129
 20
134.2448766467329
 30
0.0
 11
4918.245235250129
 21
124.4048774467329
 31
0.0
  0
LINE
  5
1C421
330
1B896
100
AcDbEntity
  8
AM_5
100
AcDbLine
 10
4918.04523545013
 20
134.3648765467329
 30
0.0
 11
4918.04523545013
 21
124.2848775467328
 31
0.0
  0
LINE
  5
1C422
330
1B896
100
AcDbEntity
  8
AM_5
100
AcDbLine
 10
4917.84523565013
 20
134.4848763467328
 30
0.0
 11
4917.84523565013
 21
124.1648776467329
 31
0.0
  0
LINE
  5
1C423
330
1B896
100
AcDbEntity
  8
AM_5
100
AcDbLine
 10
4917.64523585013
 20
134.604875346733
 30
0.0
 11
4917.64523585013
 21
124.0448777467329
 31
0.0
  0
LINE
  5
1C424
330
1B896
100
AcDbEntity
  8
AM_5
100
AcDbLine
 10
4917.44523595013
 20
134.7248752467329
 30
0.0
 11
4917.44523595013
 21
123.9248778467328
 31
0.0
  0
LINE
  5
1C425
330
1B896
100
AcDbEntity
  8
AM_5
100
AcDbLine
 10
4917.245236150129
 20
134.844875046733
 30
0.0
 11
4917.245236150129
 21
123.8048779467329
 31
0.0
  0
LINE
  5
1C426
330
1B896
100
AcDbEntity
  8
AM_5
100
AcDbLine
 10
4917.045236350131
 20
134.9648749467329
 30
0.0
 11
4917.045236350131
 21
123.6848781467329
 31
0.0
  0
LINE
  5
1C427
330
1B896
100
AcDbEntity
  8
AM_5
100
AcDbLine
 10
4916.84523655013
 20
135.0848748467328
 30
0.0
 11
4916.84523655013
 21
123.5648782467329
 31
0.0
  0
LINE
  5
1C428
330
1B896
100
AcDbEntity
  8
AM_5
100
AcDbLine
 10
4916.64523675013
 20
135.204874746733
 30
0.0
 11
4916.64523675013
 21
123.4448783467329
 31
0.0
  0
LINE
  5
1C429
330
1B896
100
AcDbEntity
  8
AM_5
100
AcDbLine
 10
4916.445236950129
 20
135.3248746467329
 30
0.0
 11
4916.445236950129
 21
123.3248784467328
 31
0.0
  0
LINE
  5
1C42A
330
1B896
100
AcDbEntity
  8
AM_5
100
AcDbLine
 10
4506.265549399294
 20
94.68976743555742
 30
0.0
 11
4498.105548599293
 21
94.68976743555742
 31
0.0
  0
LINE
  5
1C42B
330
1B896
100
AcDbEntity
  8
AM_5
100
AcDbLine
 10
4506.145549499293
 20
94.4897675355574
 30
0.0
 11
4498.225548499293
 21
94.4897675355574
 31
0.0
  0
LINE
  5
1C42C
330
1B896
100
AcDbEntity
  8
AM_5
100
AcDbLine
 10
4506.025549599293
 20
94.28976773555644
 30
0.0
 11
4498.345548299292
 21
94.28976773555644
 31
0.0
  0
LINE
  5
1C42D
330
1B896
100
AcDbEntity
  8
AM_5
100
AcDbLine
 10
4505.905550699292
 20
94.08976793555723
 30
0.0
 11
4498.465548199292
 21
94.08976793555723
 31
0.0
  0
LINE
  5
1C42E
330
1B896
100
AcDbEntity
  8
AM_5
100
AcDbLine
 10
4505.785550799292
 20
93.88976813555803
 30
0.0
 11
4498.585548099292
 21
93.88976813555803
 31
0.0
  0
LINE
  5
1C42F
330
1B896
100
AcDbEntity
  8
AM_5
100
AcDbLine
 10
4502.185550337484
 20
87.88976415540549
 30
0.0
 11
4508.185546099293
 21
97.88976423555745
 31
0.0
  0
LINE
  5
1C430
330
1B896
100
AcDbEntity
  8
AM_5
100
AcDbLine
 10
4502.305557909292
 20
88.08977654555803
 30
0.0
 11
4502.065542889293
 21
88.08977654555803
 31
0.0
  0
LINE
  5
1C431
330
1B896
100
AcDbEntity
  8
AM_5
100
AcDbLine
 10
4502.185552421781
 20
87.88976015458377
 30
0.0
 11
4496.185550499292
 21
97.88976393555703
 31
0.0
  0
LINE
  5
1C432
330
1B896
100
AcDbEntity
  8
AM_5
100
AcDbLine
 10
4502.425553029293
 20
88.28977349555737
 30
0.0
 11
4501.945544909292
 21
88.28977349555737
 31
0.0
  0
LINE
  5
1C433
330
1B896
100
AcDbEntity
  8
AM_5
100
AcDbLine
 10
4502.665555659292
 20
88.68977310555658
 30
0.0
 11
4501.705545139293
 21
88.68977310555658
 31
0.0
  0
LINE
  5
1C434
330
1B896
100
AcDbEntity
  8
AM_5
100
AcDbLine
 10
4502.545552919293
 20
88.48977329555657
 30
0.0
 11
4501.825545019292
 21
88.48977329555657
 31
0.0
  0
LINE
  5
1C435
330
1B896
100
AcDbEntity
  8
AM_5
100
AcDbLine
 10
4502.785555549293
 20
88.8897729355582
 30
0.0
 11
4501.585545249292
 21
88.8897729355582
 31
0.0
  0
LINE
  5
1C436
330
1B896
100
AcDbEntity
  8
AM_5
100
AcDbLine
 10
4502.905555439292
 20
89.08977273555739
 30
0.0
 11
4501.465545359293
 21
89.08977273555739
 31
0.0
  0
LINE
  5
1C437
330
1B896
100
AcDbEntity
  8
AM_5
100
AcDbLine
 10
4503.025554369293
 20
89.28977253555661
 30
0.0
 11
4501.345545479293
 21
89.28977253555661
 31
0.0
  0
LINE
  5
1C438
330
1B896
100
AcDbEntity
  8
AM_5
100
AcDbLine
 10
4503.145554249293
 20
89.48977233555764
 30
0.0
 11
4501.225545589292
 21
89.48977233555764
 31
0.0
  0
LINE
  5
1C439
330
1B896
100
AcDbEntity
  8
AM_5
100
AcDbLine
 10
4503.265554099292
 20
89.68977213555684
 30
0.0
 11
4501.105545699292
 21
89.68977213555684
 31
0.0
  0
LINE
  5
1C43A
330
1B896
100
AcDbEntity
  8
AM_5
100
AcDbLine
 10
4503.505553899293
 20
90.08977173555706
 30
0.0
 11
4500.865545899292
 21
90.08977173555706
 31
0.0
  0
LINE
  5
1C43B
330
1B896
100
AcDbEntity
  8
AM_5
100
AcDbLine
 10
4503.385553999293
 20
89.88977193555786
 30
0.0
 11
4500.985545799292
 21
89.88977193555786
 31
0.0
  0
LINE
  5
1C43C
330
1B896
100
AcDbEntity
  8
AM_5
100
AcDbLine
 10
4503.625553799293
 20
90.28977153555628
 30
0.0
 11
4500.745546099294
 21
90.28977153555628
 31
0.0
  0
LINE
  5
1C43D
330
1B896
100
AcDbEntity
  8
AM_5
100
AcDbLine
 10
4503.745553699292
 20
90.48977143555623
 30
0.0
 11
4500.625546199294
 21
90.48977143555623
 31
0.0
  0
LINE
  5
1C43E
330
1B896
100
AcDbEntity
  8
AM_5
100
AcDbLine
 10
4503.865553599292
 20
90.68977123555725
 30
0.0
 11
4500.505546299293
 21
90.68977123555725
 31
0.0
  0
LINE
  5
1C43F
330
1B896
100
AcDbEntity
  8
AM_5
100
AcDbLine
 10
4503.985553499293
 20
90.88977103555828
 30
0.0
 11
4500.385546399293
 21
90.88977103555828
 31
0.0
  0
LINE
  5
1C440
330
1B896
100
AcDbEntity
  8
AM_5
100
AcDbLine
 10
4504.105553299292
 20
91.08977083555748
 30
0.0
 11
4500.265546499293
 21
91.08977083555748
 31
0.0
  0
LINE
  5
1C441
330
1B896
100
AcDbEntity
  8
AM_5
100
AcDbLine
 10
4504.225553199292
 20
91.28977063555669
 30
0.0
 11
4500.145546599293
 21
91.28977063555669
 31
0.0
  0
LINE
  5
1C442
330
1B896
100
AcDbEntity
  8
AM_5
100
AcDbLine
 10
4504.345553099292
 20
91.48977043555589
 30
0.0
 11
4500.025546699293
 21
91.48977043555772
 31
0.0
  0
LINE
  5
1C443
330
1B896
100
AcDbEntity
  8
AM_5
100
AcDbLine
 10
4504.465551999293
 20
91.68977023555692
 30
0.0
 11
4499.905546899293
 21
91.68977023555692
 31
0.0
  0
LINE
  5
1C444
330
1B896
100
AcDbEntity
  8
AM_5
100
AcDbLine
 10
4504.585551899292
 20
91.88977003555795
 30
0.0
 11
4499.785546999293
 21
91.88977003555795
 31
0.0
  0
LINE
  5
1C445
330
1B896
100
AcDbEntity
  8
AM_5
100
AcDbLine
 10
4504.705551799292
 20
92.08976983555714
 30
0.0
 11
4499.665547099293
 21
92.08976983555714
 31
0.0
  0
LINE
  5
1C446
330
1B896
100
AcDbEntity
  8
AM_5
100
AcDbLine
 10
4504.825551699292
 20
92.28976963555636
 30
0.0
 11
4499.545547199292
 21
92.28976963555636
 31
0.0
  0
LINE
  5
1C447
330
1B896
100
AcDbEntity
  8
AM_5
100
AcDbLine
 10
4504.945551599292
 20
92.48976943555737
 30
0.0
 11
4499.425547299292
 21
92.48976943555737
 31
0.0
  0
LINE
  5
1C448
330
1B896
100
AcDbEntity
  8
AM_5
100
AcDbLine
 10
4505.065551499292
 20
92.68976933555734
 30
0.0
 11
4499.305547399292
 21
92.68976933555734
 31
0.0
  0
LINE
  5
1C449
330
1B896
100
AcDbEntity
  8
AM_5
100
AcDbLine
 10
4505.185551399292
 20
92.88976913555655
 30
0.0
 11
4499.185547499292
 21
92.88976913555655
 31
0.0
  0
LINE
  5
1C44A
330
1B896
100
AcDbEntity
  8
AM_5
100
AcDbLine
 10
4505.305551199294
 20
93.08976893555756
 30
0.0
 11
4499.065547699292
 21
93.08976893555756
 31
0.0
  0
LINE
  5
1C44B
330
1B896
100
AcDbEntity
  8
AM_5
100
AcDbLine
 10
4505.425551099293
 20
93.28976873555683
 30
0.0
 11
4498.945547799293
 21
93.28976873555683
 31
0.0
  0
LINE
  5
1C44C
330
1B896
100
AcDbEntity
  8
AM_5
100
AcDbLine
 10
4505.545550999293
 20
93.48976853555598
 30
0.0
 11
4498.825547899293
 21
93.48976853555598
 31
0.0
  0
LINE
  5
1C44D
330
1B896
100
AcDbEntity
  8
AM_5
100
AcDbLine
 10
4505.665549899293
 20
93.689768335557
 30
0.0
 11
4498.705547999292
 21
93.689768335557
 31
0.0
  0
LINE
  5
1C44E
330
1B896
100
AcDbEntity
  8
AM_5
100
AcDbLine
 10
4506.505549099292
 20
95.08976703555759
 30
0.0
 11
4497.865548799293
 21
95.08976703555759
 31
0.0
  0
LINE
  5
1C44F
330
1B896
100
AcDbEntity
  8
AM_5
100
AcDbLine
 10
4506.385549299293
 20
94.88976723555664
 30
0.0
 11
4497.985548699293
 21
94.8897672355584
 31
0.0
  0
LINE
  5
1C450
330
1B896
100
AcDbEntity
  8
AM_5
100
AcDbLine
 10
4506.625548999292
 20
95.28976683555681
 30
0.0
 11
4497.745548899293
 21
95.28976683555681
 31
0.0
  0
LINE
  5
1C451
330
1B896
100
AcDbEntity
  8
AM_5
100
AcDbLine
 10
4506.745548899292
 20
95.48976663555611
 30
0.0
 11
4497.625548999293
 21
95.48976663555611
 31
0.0
  0
LINE
  5
1C452
330
1B896
100
AcDbEntity
  8
AM_5
100
AcDbLine
 10
4506.865548799292
 20
95.68976643555709
 30
0.0
 11
4497.505549099293
 21
95.68976643555709
 31
0.0
  0
LINE
  5
1C453
330
1B896
100
AcDbEntity
  8
AM_5
100
AcDbLine
 10
4506.985548699293
 20
95.88976623555812
 30
0.0
 11
4497.385549299293
 21
95.88976623555812
 31
0.0
  0
LINE
  5
1C454
330
1B896
100
AcDbEntity
  8
AM_5
100
AcDbLine
 10
4507.105548599293
 20
96.08976603555731
 30
0.0
 11
4497.265549399293
 21
96.08976603555731
 31
0.0
  0
LINE
  5
1C455
330
1B896
100
AcDbEntity
  8
AM_5
100
AcDbLine
 10
4507.225548499293
 20
96.28976583555653
 30
0.0
 11
4497.145549499292
 21
96.28976583555653
 31
0.0
  0
LINE
  5
1C456
330
1B896
100
AcDbEntity
  8
AM_5
100
AcDbLine
 10
4507.345548299292
 20
96.48976563555756
 30
0.0
 11
4497.025549599293
 21
96.48976563555756
 31
0.0
  0
LINE
  5
1C457
330
1B896
100
AcDbEntity
  8
AM_5
100
AcDbLine
 10
4507.465547299292
 20
96.6897654355567
 30
0.0
 11
4496.905549699294
 21
96.6897654355567
 31
0.0
  0
LINE
  5
1C458
330
1B896
100
AcDbEntity
  8
AM_5
100
AcDbLine
 10
4507.585547199293
 20
96.88976533555672
 30
0.0
 11
4496.785549799294
 21
96.88976533555672
 31
0.0
  0
LINE
  5
1C459
330
1B896
100
AcDbEntity
  8
AM_5
100
AcDbLine
 10
4507.705546999292
 20
97.08976513555775
 30
0.0
 11
4496.665549899293
 21
97.08976513555775
 31
0.0
  0
LINE
  5
1C45A
330
1B896
100
AcDbEntity
  8
AM_5
100
AcDbLine
 10
4507.825546899293
 20
97.28976493555695
 30
0.0
 11
4496.545550099293
 21
97.28976493555695
 31
0.0
  0
LINE
  5
1C45B
330
1B896
100
AcDbEntity
  8
AM_5
100
AcDbLine
 10
4507.945546799293
 20
97.48976473555615
 30
0.0
 11
4496.425550199293
 21
97.48976473555615
 31
0.0
  0
LINE
  5
1C45C
330
1B896
100
AcDbEntity
  8
AM_5
100
AcDbLine
 10
4508.065546699293
 20
97.68976453555723
 30
0.0
 11
4496.305550299292
 21
97.68976453555723
 31
0.0
  0
LINE
  5
1C45D
330
1B896
100
AcDbEntity
  8
AM_5
100
AcDbLine
 10
4508.185546599293
 20
97.8897643355582
 30
0.0
 11
4496.185550399292
 21
97.8897643355582
 31
0.0
  0
LINE
  5
1C45E
330
1B896
100
AcDbEntity
  8
AM_5
100
AcDbLine
 10
4498.105553043779
 20
369.5897568744319
 30
0.0
 11
4506.265553843779
 21
369.5897568744319
 31
0.0
  0
LINE
  5
1C45F
330
1B896
100
AcDbEntity
  8
AM_5
100
AcDbLine
 10
4498.225552943778
 20
369.7897567744319
 30
0.0
 11
4506.145553943779
 21
369.7897567744319
 31
0.0
  0
LINE
  5
1C460
330
1B896
100
AcDbEntity
  8
AM_5
100
AcDbLine
 10
4498.345552843779
 20
369.9897565744329
 30
0.0
 11
4506.025554143778
 21
369.9897565744329
 31
0.0
  0
LINE
  5
1C461
330
1B896
100
AcDbEntity
  8
AM_5
100
AcDbLine
 10
4498.465551743778
 20
370.1897563744321
 30
0.0
 11
4505.905554243778
 21
370.1897563744321
 31
0.0
  0
LINE
  5
1C462
330
1B896
100
AcDbEntity
  8
AM_5
100
AcDbLine
 10
4498.585551643778
 20
370.3897561744313
 30
0.0
 11
4505.785554343778
 21
370.3897561744313
 31
0.0
  0
LINE
  5
1C463
330
1B896
100
AcDbEntity
  8
AM_5
100
AcDbLine
 10
4502.185552105586
 20
376.3897601545839
 30
0.0
 11
4496.185556343778
 21
366.3897600744319
 31
0.0
  0
LINE
  5
1C464
330
1B896
100
AcDbEntity
  8
AM_5
100
AcDbLine
 10
4502.065544533778
 20
376.1897477644313
 30
0.0
 11
4502.305559553779
 21
376.1897477644313
 31
0.0
  0
LINE
  5
1C465
330
1B896
100
AcDbEntity
  8
AM_5
100
AcDbLine
 10
4502.185550021288
 20
376.3897641554056
 30
0.0
 11
4508.185551943777
 21
366.3897603744324
 31
0.0
  0
LINE
  5
1C466
330
1B896
100
AcDbEntity
  8
AM_5
100
AcDbLine
 10
4501.945549413778
 20
375.9897508144319
 30
0.0
 11
4502.425557533779
 21
375.9897508144319
 31
0.0
  0
LINE
  5
1C467
330
1B896
100
AcDbEntity
  8
AM_5
100
AcDbLine
 10
4501.705546783778
 20
375.5897512044328
 30
0.0
 11
4502.665557303777
 21
375.5897512044328
 31
0.0
  0
LINE
  5
1C468
330
1B896
100
AcDbEntity
  8
AM_5
100
AcDbLine
 10
4501.825549523777
 20
375.7897510144327
 30
0.0
 11
4502.545557423778
 21
375.7897510144327
 31
0.0
  0
LINE
  5
1C469
330
1B896
100
AcDbEntity
  8
AM_5
100
AcDbLine
 10
4501.585546893778
 20
375.3897513744312
 30
0.0
 11
4502.785557193779
 21
375.3897513744312
 31
0.0
  0
LINE
  5
1C46A
330
1B896
100
AcDbEntity
  8
AM_5
100
AcDbLine
 10
4501.465547003777
 20
375.189751574432
 30
0.0
 11
4502.905557083779
 21
375.189751574432
 31
0.0
  0
LINE
  5
1C46B
330
1B896
100
AcDbEntity
  8
AM_5
100
AcDbLine
 10
4501.345548073779
 20
374.9897517744327
 30
0.0
 11
4503.02555696378
 21
374.9897517744327
 31
0.0
  0
LINE
  5
1C46C
330
1B896
100
AcDbEntity
  8
AM_5
100
AcDbLine
 10
4501.225548193777
 20
374.7897519744317
 30
0.0
 11
4503.145556853778
 21
374.7897519744317
 31
0.0
  0
LINE
  5
1C46D
330
1B896
100
AcDbEntity
  8
AM_5
100
AcDbLine
 10
4501.105548343778
 20
374.5897521744325
 30
0.0
 11
4503.265556743778
 21
374.5897521744325
 31
0.0
  0
LINE
  5
1C46E
330
1B896
100
AcDbEntity
  8
AM_5
100
AcDbLine
 10
4500.865548543779
 20
374.1897525744322
 30
0.0
 11
4503.505556543777
 21
374.1897525744322
 31
0.0
  0
LINE
  5
1C46F
330
1B896
100
AcDbEntity
  8
AM_5
100
AcDbLine
 10
4500.985548443779
 20
374.3897523744315
 30
0.0
 11
4503.385556643777
 21
374.3897523744315
 31
0.0
  0
LINE
  5
1C470
330
1B896
100
AcDbEntity
  8
AM_5
100
AcDbLine
 10
4500.745548643779
 20
373.989752774433
 30
0.0
 11
4503.625556343779
 21
373.989752774433
 31
0.0
  0
LINE
  5
1C471
330
1B896
100
AcDbEntity
  8
AM_5
100
AcDbLine
 10
4500.625548743779
 20
373.7897528744331
 30
0.0
 11
4503.745556243777
 21
373.7897528744331
 31
0.0
  0
LINE
  5
1C472
330
1B896
100
AcDbEntity
  8
AM_5
100
AcDbLine
 10
4500.505548843778
 20
373.589753074432
 30
0.0
 11
4503.865556143777
 21
373.589753074432
 31
0.0
  0
LINE
  5
1C473
330
1B896
100
AcDbEntity
  8
AM_5
100
AcDbLine
 10
4500.385548943778
 20
373.3897532744311
 30
0.0
 11
4503.985556043777
 21
373.3897532744311
 31
0.0
  0
LINE
  5
1C474
330
1B896
100
AcDbEntity
  8
AM_5
100
AcDbLine
 10
4500.265549143779
 20
373.1897534744319
 30
0.0
 11
4504.105555943777
 21
373.1897534744319
 31
0.0
  0
LINE
  5
1C475
330
1B896
100
AcDbEntity
  8
AM_5
100
AcDbLine
 10
4500.145549243778
 20
372.9897536744327
 30
0.0
 11
4504.225555843777
 21
372.9897536744327
 31
0.0
  0
LINE
  5
1C476
330
1B896
100
AcDbEntity
  8
AM_5
100
AcDbLine
 10
4500.025549343779
 20
372.7897538744335
 30
0.0
 11
4504.345555743777
 21
372.7897538744315
 31
0.0
  0
LINE
  5
1C477
330
1B896
100
AcDbEntity
  8
AM_5
100
AcDbLine
 10
4499.905550443778
 20
372.5897540744323
 30
0.0
 11
4504.465555543778
 21
372.5897540744323
 31
0.0
  0
LINE
  5
1C478
330
1B896
100
AcDbEntity
  8
AM_5
100
AcDbLine
 10
4499.785550543778
 20
372.3897542744314
 30
0.0
 11
4504.585555443778
 21
372.3897542744314
 31
0.0
  0
LINE
  5
1C479
330
1B896
100
AcDbEntity
  8
AM_5
100
AcDbLine
 10
4499.665550643778
 20
372.1897544744322
 30
0.0
 11
4504.705555343778
 21
372.1897544744322
 31
0.0
  0
LINE
  5
1C47A
330
1B896
100
AcDbEntity
  8
AM_5
100
AcDbLine
 10
4499.545550743778
 20
371.989754674433
 30
0.0
 11
4504.825555243778
 21
371.989754674433
 31
0.0
  0
LINE
  5
1C47B
330
1B896
100
AcDbEntity
  8
AM_5
100
AcDbLine
 10
4499.425550843778
 20
371.7897548744319
 30
0.0
 11
4504.945555143778
 21
371.7897548744319
 31
0.0
  0
LINE
  5
1C47C
330
1B896
100
AcDbEntity
  8
AM_5
100
AcDbLine
 10
4499.305550943778
 20
371.589754974432
 30
0.0
 11
4505.065555043778
 21
371.589754974432
 31
0.0
  0
LINE
  5
1C47D
330
1B896
100
AcDbEntity
  8
AM_5
100
AcDbLine
 10
4499.185551043778
 20
371.3897551744328
 30
0.0
 11
4505.185554943778
 21
371.3897551744328
 31
0.0
  0
LINE
  5
1C47E
330
1B896
100
AcDbEntity
  8
AM_5
100
AcDbLine
 10
4499.065551243779
 20
371.1897553744317
 30
0.0
 11
4505.305554743778
 21
371.1897553744317
 31
0.0
  0
LINE
  5
1C47F
330
1B896
100
AcDbEntity
  8
AM_5
100
AcDbLine
 10
4498.945551343779
 20
370.9897555744325
 30
0.0
 11
4505.425554643778
 21
370.9897555744325
 31
0.0
  0
LINE
  5
1C480
330
1B896
100
AcDbEntity
  8
AM_5
100
AcDbLine
 10
4498.825551443778
 20
370.7897557744333
 30
0.0
 11
4505.545554543778
 21
370.7897557744333
 31
0.0
  0
LINE
  5
1C481
330
1B896
100
AcDbEntity
  8
AM_5
100
AcDbLine
 10
4498.705552543778
 20
370.5897559744323
 30
0.0
 11
4505.665554443778
 21
370.5897559744323
 31
0.0
  0
LINE
  5
1C482
330
1B896
100
AcDbEntity
  8
AM_5
100
AcDbLine
 10
4497.865553343777
 20
369.1897572744317
 30
0.0
 11
4506.505553643779
 21
369.1897572744317
 31
0.0
  0
LINE
  5
1C483
330
1B896
100
AcDbEntity
  8
AM_5
100
AcDbLine
 10
4497.985553143779
 20
369.3897570744327
 30
0.0
 11
4506.385553743779
 21
369.3897570744309
 31
0.0
  0
LINE
  5
1C484
330
1B896
100
AcDbEntity
  8
AM_5
100
AcDbLine
 10
4497.745553443778
 20
368.9897574744325
 30
0.0
 11
4506.625553543777
 21
368.9897574744325
 31
0.0
  0
LINE
  5
1C485
330
1B896
100
AcDbEntity
  8
AM_5
100
AcDbLine
 10
4497.625553543778
 20
368.7897576744333
 30
0.0
 11
4506.745553443777
 21
368.7897576744333
 31
0.0
  0
LINE
  5
1C486
330
1B896
100
AcDbEntity
  8
AM_5
100
AcDbLine
 10
4497.505553643779
 20
368.5897578744323
 30
0.0
 11
4506.865553343778
 21
368.5897578744323
 31
0.0
  0
LINE
  5
1C487
330
1B896
100
AcDbEntity
  8
AM_5
100
AcDbLine
 10
4497.385553743779
 20
368.3897580744312
 30
0.0
 11
4506.985553143779
 21
368.3897580744312
 31
0.0
  0
LINE
  5
1C488
330
1B896
100
AcDbEntity
  8
AM_5
100
AcDbLine
 10
4497.265553843779
 20
368.189758274432
 30
0.0
 11
4507.105553043778
 21
368.189758274432
 31
0.0
  0
LINE
  5
1C489
330
1B896
100
AcDbEntity
  8
AM_5
100
AcDbLine
 10
4497.145553943779
 20
367.9897584744328
 30
0.0
 11
4507.225552943778
 21
367.9897584744328
 31
0.0
  0
LINE
  5
1C48A
330
1B896
100
AcDbEntity
  8
AM_5
100
AcDbLine
 10
4497.025554143777
 20
367.7897586744318
 30
0.0
 11
4507.345552843779
 21
367.7897586744318
 31
0.0
  0
LINE
  5
1C48B
330
1B896
100
AcDbEntity
  8
AM_5
100
AcDbLine
 10
4496.905555143777
 20
367.5897588744326
 30
0.0
 11
4507.465552743779
 21
367.5897588744326
 31
0.0
  0
LINE
  5
1C48C
330
1B896
100
AcDbEntity
  8
AM_5
100
AcDbLine
 10
4496.785555243778
 20
367.3897589744326
 30
0.0
 11
4507.585552643777
 21
367.3897589744326
 31
0.0
  0
LINE
  5
1C48D
330
1B896
100
AcDbEntity
  8
AM_5
100
AcDbLine
 10
4496.665555443779
 20
367.1897591744316
 30
0.0
 11
4507.705552543777
 21
367.1897591744316
 31
0.0
  0
LINE
  5
1C48E
330
1B896
100
AcDbEntity
  8
AM_5
100
AcDbLine
 10
4496.545555543778
 20
366.9897593744324
 30
0.0
 11
4507.825552343778
 21
366.9897593744324
 31
0.0
  0
LINE
  5
1C48F
330
1B896
100
AcDbEntity
  8
AM_5
100
AcDbLine
 10
4496.425555643778
 20
366.7897595744332
 30
0.0
 11
4507.945552243778
 21
366.7897595744332
 31
0.0
  0
LINE
  5
1C490
330
1B896
100
AcDbEntity
  8
AM_5
100
AcDbLine
 10
4496.305555743778
 20
366.5897597744322
 30
0.0
 11
4508.065552143778
 21
366.5897597744322
 31
0.0
  0
LINE
  5
1C491
330
1B896
100
AcDbEntity
  8
AM_5
100
AcDbLine
 10
4496.185555843778
 20
366.3897599744312
 30
0.0
 11
4508.185552043778
 21
366.3897599744312
 31
0.0
  0
LINE
  5
1C492
330
1B896
100
AcDbEntity
  8
AM_5
100
AcDbLine
 10
4388.245643269562
 20
361.3897641554056
 30
0.0
 11
4388.245643269562
 21
232.5161544009608
 31
0.0
1001
ACAD_DSTYLE_DIMINSPECT
1070
   393
1070
     0
1001
ACAD
1000
DSTYLE
1002
{
1070
   174
1070
     1
1070
    40
1040
2.0
1002
}
  0
LINE
  5
1C493
330
1B896
100
AcDbEntity
  8
AM_5
100
AcDbLine
 10
4384.245643269562
 20
234.1397641554054
 30
0.0
 11
4384.245643269562
 21
236.5161544009608
 31
0.0
1001
ACAD_DSTYLE_DIMINSPECT
1070
   393
1070
     0
1001
ACAD
1000
DSTYLE
1002
{
1070
   174
1070
     1
1070
    40
1040
2.0
1002
}
  0
LINE
  5
1C494
330
1B896
100
AcDbEntity
  8
AM_5
100
AcDbLine
 10
4384.245643269562
 20
234.5161544009608
 30
0.0
 11
4372.735332362379
 21
234.5161544009608
 31
0.0
1001
ACAD_DSTYLE_DIMINSPECT
1070
   393
1070
     0
1001
ACAD
1000
DSTYLE
1002
{
1070
   174
1070
     1
1070
    40
1040
2.0
1002
}
  0
LINE
  5
1C495
330
1B896
100
AcDbEntity
  8
AM_5
100
AcDbLine
 10
4388.245643269562
 20
234.5161544009608
 30
0.0
 11
4384.245643269562
 21
234.5161544009608
 31
0.0
1001
ACAD_DSTYLE_DIMINSPECT
1070
   393
1070
     0
1001
ACAD
1000
DSTYLE
1002
{
1070
   174
1070
     1
1070
    40
1040
2.0
1002
}
  0
LINE
  5
1C4A0
330
1B896
100
AcDbEntity
  8
AM_5
100
AcDbLine
 10
4637.445218776877
 20
195.7635648455698
 30
0.0
 11
4637.445218776877
 21
108.3248782268271
 31
0.0
1001
ACAD_DSTYLE_DIMINSPECT
1070
   393
1070
     0
1001
ACAD
1000
DSTYLE
1002
{
1070
    72
1070
     0
1070
    71
1070
     0
1002
}
  0
LINE
  5
1C4A1
330
1B896
100
AcDbEntity
  8
AM_5
100
AcDbLine
 10
4953.945237393778
 20
208.2635648455698
 30
0.0
 11
4953.945237393778
 21
108.3248782268271
 31
0.0
1001
ACAD_DSTYLE_DIMINSPECT
1070
   393
1070
     0
1001
ACAD
1000
DSTYLE
1002
{
1070
    72
1070
     0
1070
    71
1070
     0
1002
}
  0
LINE
  5
1C4A2
330
1B896
100
AcDbEntity
  8
AM_5
100
AcDbLine
 10
4637.445218776877
 20
110.3248782268271
 30
0.0
 11
4953.945237393778
 21
110.3248782268271
 31
0.0
1001
ACAD_DSTYLE_DIMINSPECT
1070
   393
1070
     0
1001
ACAD
1000
DSTYLE
1002
{
1070
    72
1070
     0
1070
    71
1070
     0
1002
}
  0
LINE
  5
1C4A3
330
1B896
100
AcDbEntity
  8
AM_5
100
AcDbLine
 10
4664.945218776876
 20
232.7635648455698
 30
0.0
 11
4664.945218776876
 21
127.3248782268271
 31
0.0
1001
ACAD_DSTYLE_DIMINSPECT
1070
   393
1070
     0
1001
ACAD
1000
DSTYLE
1002
{
1070
   173
1070
     1
1070
   170
1070
     0
1070
    72
1070
     0
1070
    71
1070
     0
1002
}
  0
LINE
  5
1C4A4
330
1B896
100
AcDbEntity
  8
AM_5
100
AcDbLine
 10
4637.445218776877
 20
200.7635648455698
 30
0.0
 11
4637.445218776877
 21
127.3248782268271
 31
0.0
1001
ACAD_DSTYLE_DIMINSPECT
1070
   393
1070
     0
1001
ACAD
1000
DSTYLE
1002
{
1070
   173
1070
     1
1070
   170
1070
     0
1070
    72
1070
     0
1070
    71
1070
     0
1002
}
  0
LINE
  5
1C4A5
330
1B896
100
AcDbEntity
  8
AM_5
100
AcDbLine
 10
4664.945218776876
 20
129.3248782268271
 30
0.0
 11
4637.445218776877
 21
129.3248782268271
 31
0.0
1001
ACAD_DSTYLE_DIMINSPECT
1070
   393
1070
     0
1001
ACAD
1000
DSTYLE
1002
{
1070
   173
1070
     1
1070
   170
1070
     0
1070
    72
1070
     0
1070
    71
1070
     0
1002
}
  0
LINE
  5
1C4A6
330
1B896
100
AcDbEntity
  8
AM_5
100
AcDbLine
 10
4649.945218776877
 20
215.7635648455698
 30
0.0
 11
4649.945218776877
 21
146.3248782268272
 31
0.0
1001
ACAD_DSTYLE_DIMINSPECT
1070
   393
1070
     0
1001
ACAD
1000
DSTYLE
1002
{
1070
   174
1070
     1
1070
    40
1040
2.0
1002
}
  0
LINE
  5
1C4A7
330
1B896
100
AcDbEntity
  8
AM_5
100
AcDbLine
 10
4637.445218776877
 20
215.7635648455698
 30
0.0
 11
4637.445218776877
 21
146.3248782268272
 31
0.0
1001
ACAD_DSTYLE_DIMINSPECT
1070
   393
1070
     0
1001
ACAD
1000
DSTYLE
1002
{
1070
   174
1070
     1
1070
    40
1040
2.0
1002
}
  0
LINE
  5
1C4A8
330
1B896
100
AcDbEntity
  8
AM_5
100
AcDbLine
 10
4637.445218776877
 20
148.3248782268272
 30
0.0
 11
4614.199970924413
 21
148.3248782268272
 31
0.0
1001
ACAD_DSTYLE_DIMINSPECT
1070
   393
1070
     0
1001
ACAD
1000
DSTYLE
1002
{
1070
   174
1070
     1
1070
    40
1040
2.0
1002
}
  0
LINE
  5
1C4A9
330
1B896
100
AcDbEntity
  8
AM_5
100
AcDbLine
 10
4649.945218776877
 20
148.3248782268272
 30
0.0
 11
4637.445218776877
 21
148.3248782268272
 31
0.0
1001
ACAD_DSTYLE_DIMINSPECT
1070
   393
1070
     0
1001
ACAD
1000
DSTYLE
1002
{
1070
   174
1070
     1
1070
    40
1040
2.0
1002
}
  0
LINE
  5
1C4AA
330
1B896
100
AcDbEntity
  8
AM_5
100
AcDbLine
 10
4660.945218776876
 20
226.7635648455698
 30
0.0
 11
4660.945218776876
 21
146.3248782268272
 31
0.0
1001
ACAD_DSTYLE_DIMINSPECT
1070
   393
1070
     0
1001
ACAD
1000
DSTYLE
1002
{
1070
    72
1070
     0
1070
    71
1070
     0
1002
}
  0
LINE
  5
1C4AB
330
1B896
100
AcDbEntity
  8
AM_5
100
AcDbLine
 10
4649.945218776877
 20
215.7635648455698
 30
0.0
 11
4649.945218776877
 21
146.3248782268272
 31
0.0
1001
ACAD_DSTYLE_DIMINSPECT
1070
   393
1070
     0
1001
ACAD
1000
DSTYLE
1002
{
1070
    72
1070
     0
1070
    71
1070
     0
1002
}
  0
LINE
  5
1C4AC
330
1B896
100
AcDbEntity
  8
AM_5
100
AcDbLine
 10
4660.945218776876
 20
148.3248782268272
 30
0.0
 11
4649.945218776877
 21
148.3248782268272
 31
0.0
1001
ACAD_DSTYLE_DIMINSPECT
1070
   393
1070
     0
1001
ACAD
1000
DSTYLE
1002
{
1070
    72
1070
     0
1070
    71
1070
     0
1002
}
  0
LINE
  5
1C4AD
330
1B896
100
AcDbEntity
  8
AM_5
100
AcDbLine
 10
4930.445237393779
 20
226.7635648455698
 30
0.0
 11
4930.445237393779
 21
146.3248782268272
 31
0.0
1001
ACAD_DSTYLE_DIMINSPECT
1070
   393
1070
     0
1001
ACAD
1000
DSTYLE
1002
{
1070
    72
1070
     0
1070
    71
1070
     0
1002
}
  0
LINE
  5
1C4AE
330
1B896
100
AcDbEntity
  8
AM_5
100
AcDbLine
 10
4660.945218776876
 20
226.7635648455698
 30
0.0
 11
4660.945218776876
 21
146.3248782268272
 31
0.0
1001
ACAD_DSTYLE_DIMINSPECT
1070
   393
1070
     0
1001
ACAD
1000
DSTYLE
1002
{
1070
    72
1070
     0
1070
    71
1070
     0
1002
}
  0
LINE
  5
1C4AF
330
1B896
100
AcDbEntity
  8
AM_5
100
AcDbLine
 10
4930.445237393779
 20
148.3248782268272
 30
0.0
 11
4660.945218776876
 21
148.3248782268272
 31
0.0
1001
ACAD_DSTYLE_DIMINSPECT
1070
   393
1070
     0
1001
ACAD
1000
DSTYLE
1002
{
1070
    72
1070
     0
1070
    71
1070
     0
1002
}
  0
LINE
  5
1C4B0
330
1B896
100
AcDbEntity
  8
AM_5
100
AcDbLine
 10
4953.945237393778
 20
213.2635648455698
 30
0.0
 11
4953.945237393778
 21
127.3248782268271
 31
0.0
1001
ACAD_DSTYLE_DIMINSPECT
1070
   393
1070
     0
1001
ACAD
1000
DSTYLE
1002
{
1070
   173
1070
     1
1070
   174
1070
     1
1002
}
  0
LINE
  5
1C4B1
330
1B896
100
AcDbEntity
  8
AM_5
100
AcDbLine
 10
4926.445237393778
 20
232.7635648455698
 30
0.0
 11
4926.445237393778
 21
127.3248782268271
 31
0.0
1001
ACAD_DSTYLE_DIMINSPECT
1070
   393
1070
     0
1001
ACAD
1000
DSTYLE
1002
{
1070
   173
1070
     1
1070
   174
1070
     1
1002
}
  0
LINE
  5
1C4B2
330
1B896
100
AcDbEntity
  8
AM_5
100
AcDbLine
 10
4953.945237393778
 20
129.3248782268271
 30
0.0
 11
4926.445237393778
 21
129.3248782268271
 31
0.0
1001
ACAD_DSTYLE_DIMINSPECT
1070
   393
1070
     0
1001
ACAD
1000
DSTYLE
1002
{
1070
   173
1070
     1
1070
   174
1070
     1
1002
}
  0
LINE
  5
1C4B3
330
1B896
100
AcDbEntity
  8
AM_5
100
AcDbLine
 10
4941.445237393779
 20
226.7635648455698
 30
0.0
 11
4941.445237393779
 21
146.3248782268272
 31
0.0
1001
ACAD_DSTYLE_DIMINSPECT
1070
   393
1070
     0
1001
ACAD
1000
DSTYLE
1002
{
1070
   174
1070
     1
1070
    40
1040
2.0
1002
}
  0
LINE
  5
1C4B4
330
1B896
100
AcDbEntity
  8
AM_5
100
AcDbLine
 10
4953.945237393778
 20
218.2635648455698
 30
0.0
 11
4953.945237393778
 21
146.3248782268272
 31
0.0
1001
ACAD_DSTYLE_DIMINSPECT
1070
   393
1070
     0
1001
ACAD
1000
DSTYLE
1002
{
1070
   174
1070
     1
1070
    40
1040
2.0
1002
}
  0
LINE
  5
1C4B5
330
1B896
100
AcDbEntity
  8
AM_5
100
AcDbLine
 10
4953.945237393778
 20
148.3248782268272
 30
0.0
 11
4975.991555754256
 21
148.3248782268272
 31
0.0
1001
ACAD_DSTYLE_DIMINSPECT
1070
   393
1070
     0
1001
ACAD
1000
DSTYLE
1002
{
1070
   174
1070
     1
1070
    40
1040
2.0
1002
}
  0
LINE
  5
1C4B6
330
1B896
100
AcDbEntity
  8
AM_5
100
AcDbLine
 10
4941.445237393779
 20
148.3248782268272
 30
0.0
 11
4953.945237393778
 21
148.3248782268272
 31
0.0
1001
ACAD_DSTYLE_DIMINSPECT
1070
   393
1070
     0
1001
ACAD
1000
DSTYLE
1002
{
1070
   174
1070
     1
1070
    40
1040
2.0
1002
}
  0
LINE
  5
1C4B7
330
1B896
100
AcDbEntity
  8
AM_5
100
AcDbLine
 10
4930.445237393779
 20
226.7635648455698
 30
0.0
 11
4930.445237393779
 21
146.3248782268272
 31
0.0
1001
ACAD_DSTYLE_DIMINSPECT
1070
   393
1070
     0
1001
ACAD
1000
DSTYLE
1002
{
1070
   174
1070
     1
1002
}
  0
LINE
  5
1C4B8
330
1B896
100
AcDbEntity
  8
AM_5
100
AcDbLine
 10
4941.445237393779
 20
226.7635648455698
 30
0.0
 11
4941.445237393779
 21
146.3248782268272
 31
0.0
1001
ACAD_DSTYLE_DIMINSPECT
1070
   393
1070
     0
1001
ACAD
1000
DSTYLE
1002
{
1070
   174
1070
     1
1002
}
  0
LINE
  5
1C4B9
330
1B896
100
AcDbEntity
  8
AM_5
100
AcDbLine
 10
4930.445237393779
 20
148.3248782268272
 30
0.0
 11
4941.445237393779
 21
148.3248782268272
 31
0.0
1001
ACAD_DSTYLE_DIMINSPECT
1070
   393
1070
     0
1001
ACAD
1000
DSTYLE
1002
{
1070
   174
1070
     1
1002
}
  0
LINE
  5
1C4BA
330
1B896
100
AcDbEntity
  8
AM_5
100
AcDbLine
 10
4668.945218776876
 20
237.7635648455698
 30
0.0
 11
4668.945218776876
 21
165.3248782268271
 31
0.0
1001
ACAD_DSTYLE_DIMINSPECT
1070
   393
1070
     0
1001
ACAD
1000
DSTYLE
1002
{
1070
   173
1070
     1
1002
}
  0
LINE
  5
1C4BB
330
1B896
100
AcDbEntity
  8
AM_5
100
AcDbLine
 10
4664.945218776876
 20
242.7635648455698
 30
0.0
 11
4664.945218776876
 21
165.3248782268271
 31
0.0
1001
ACAD_DSTYLE_DIMINSPECT
1070
   393
1070
     0
1001
ACAD
1000
DSTYLE
1002
{
1070
   173
1070
     1
1002
}
  0
LINE
  5
1C4BC
330
1B896
100
AcDbEntity
  8
AM_5
100
AcDbLine
 10
4668.945218776876
 20
167.3248782268272
 30
0.0
 11
4664.945218776876
 21
167.3248782268272
 31
0.0
1001
ACAD_DSTYLE_DIMINSPECT
1070
   393
1070
     0
1001
ACAD
1000
DSTYLE
1002
{
1070
   173
1070
     1
1002
}
  0
LINE
  5
1C4BD
330
1B896
100
AcDbEntity
  8
AM_5
100
AcDbLine
 10
4922.445218776879
 20
237.7635648455698
 30
0.0
 11
4922.445218776879
 21
165.3248782268271
 31
0.0
1001
ACAD_DSTYLE_DIMINSPECT
1070
   393
1070
     0
1001
ACAD
1000
DSTYLE
1002
{
1070
    72
1070
     0
1070
    71
1070
     0
1002
}
  0
LINE
  5
1C4BE
330
1B896
100
AcDbEntity
  8
AM_5
100
AcDbLine
 10
4668.945218776876
 20
237.7635648455698
 30
0.0
 11
4668.945218776876
 21
165.3248782268271
 31
0.0
1001
ACAD_DSTYLE_DIMINSPECT
1070
   393
1070
     0
1001
ACAD
1000
DSTYLE
1002
{
1070
    72
1070
     0
1070
    71
1070
     0
1002
}
  0
LINE
  5
1C4BF
330
1B896
100
AcDbEntity
  8
AM_5
100
AcDbLine
 10
4922.445218776879
 20
167.3248782268272
 30
0.0
 11
4668.945218776876
 21
167.3248782268272
 31
0.0
1001
ACAD_DSTYLE_DIMINSPECT
1070
   393
1070
     0
1001
ACAD
1000
DSTYLE
1002
{
1070
    72
1070
     0
1070
    71
1070
     0
1002
}
  0
LINE
  5
1C4C0
330
1B896
100
AcDbEntity
  8
AM_5
100
AcDbLine
 10
4926.445237393778
 20
242.7635648455698
 30
0.0
 11
4926.445237393778
 21
165.3248782268271
 31
0.0
1001
ACAD_DSTYLE_DIMINSPECT
1070
   393
1070
     0
1001
ACAD
1000
DSTYLE
1002
{
1070
   173
1070
     1
1002
}
  0
LINE
  5
1C4C1
330
1B896
100
AcDbEntity
  8
AM_5
100
AcDbLine
 10
4922.445218776879
 20
237.7635648455698
 30
0.0
 11
4922.445218776879
 21
165.3248782268271
 31
0.0
1001
ACAD_DSTYLE_DIMINSPECT
1070
   393
1070
     0
1001
ACAD
1000
DSTYLE
1002
{
1070
   173
1070
     1
1002
}
  0
LINE
  5
1C4C2
330
1B896
100
AcDbEntity
  8
AM_5
100
AcDbLine
 10
4922.445218776879
 20
167.3248782268272
 30
0.0
 11
4910.608180240513
 21
167.3248782268272
 31
0.0
1001
ACAD_DSTYLE_DIMINSPECT
1070
   393
1070
     0
1001
ACAD
1000
DSTYLE
1002
{
1070
   173
1070
     1
1002
}
  0
LINE
  5
1C4C3
330
1B896
100
AcDbEntity
  8
AM_5
100
AcDbLine
 10
4926.445237393778
 20
167.3248782268272
 30
0.0
 11
4922.445218776879
 21
167.3248782268272
 31
0.0
1001
ACAD_DSTYLE_DIMINSPECT
1070
   393
1070
     0
1001
ACAD
1000
DSTYLE
1002
{
1070
   173
1070
     1
1002
}
  0
LINE
  5
1C4C4
330
1B896
100
AcDbEntity
  8
AM_5
100
AcDbLine
 10
4670.945218776877
 20
273.7635648455698
 30
0.0
 11
4754.646786166261
 21
273.7635648455698
 31
0.0
1001
ACAD_DSTYLE_DIMINSPECT
1070
   393
1070
     0
  0
LINE
  5
1C4C5
330
1B896
100
AcDbEntity
  8
AM_5
100
AcDbLine
 10
4662.945218776877
 20
233.7635648455698
 30
0.0
 11
4754.646786166261
 21
233.7635648455698
 31
0.0
1001
ACAD_DSTYLE_DIMINSPECT
1070
   393
1070
     0
  0
LINE
  5
1C4C6
330
1B896
100
AcDbEntity
  8
AM_5
100
AcDbLine
 10
4752.64678616626
 20
273.7635648455698
 30
0.0
 11
4752.64678616626
 21
233.7635648455698
 31
0.0
1001
ACAD_DSTYLE_DIMINSPECT
1070
   393
1070
     0
  0
LINE
  5
1C4C7
330
1B896
100
AcDbEntity
  8
AM_5
100
AcDbLine
 10
4635.445218776876
 20
242.7635648455698
 30
0.0
 11
4607.448022023692
 21
242.7635648455698
 31
0.0
1001
ACAD_DSTYLE_DIMINSPECT
1070
   393
1070
     0
1001
ACAD
1000
DSTYLE
1002
{
1070
   174
1070
     1
1070
    40
1040
2.0
1002
}
  0
LINE
  5
1C4C8
330
1B896
100
AcDbEntity
  8
AM_5
100
AcDbLine
 10
4635.445218776876
 20
217.7635648455698
 30
0.0
 11
4607.448022023692
 21
217.7635648455698
 31
0.0
1001
ACAD_DSTYLE_DIMINSPECT
1070
   393
1070
     0
1001
ACAD
1000
DSTYLE
1002
{
1070
   174
1070
     1
1070
    40
1040
2.0
1002
}
  0
LINE
  5
1C4C9
330
1B896
100
AcDbEntity
  8
AM_5
100
AcDbLine
 10
4609.448022023693
 20
242.7635648455698
 30
0.0
 11
4609.448022023693
 21
217.7635648455698
 31
0.0
1001
ACAD_DSTYLE_DIMINSPECT
1070
   393
1070
     0
1001
ACAD
1000
DSTYLE
1002
{
1070
   174
1070
     1
1070
    40
1040
2.0
1002
}
  0
LINE
  5
1C4CA
330
1B896
100
AcDbEntity
  8
AM_5
100
AcDbLine
 10
4635.445218776876
 20
242.7635648455698
 30
0.0
 11
4607.448022023692
 21
242.7635648455698
 31
0.0
1001
ACAD_DSTYLE_DIMINSPECT
1070
   393
1070
     0
1001
ACAD
1000
DSTYLE
1002
{
1070
   174
1070
     1
1002
}
  0
LINE
  5
1C4CB
330
1B896
100
AcDbEntity
  8
AM_5
100
AcDbLine
 10
4635.445218776876
 20
277.7635648455698
 30
0.0
 11
4607.448022023692
 21
277.7635648455698
 31
0.0
1001
ACAD_DSTYLE_DIMINSPECT
1070
   393
1070
     0
1001
ACAD
1000
DSTYLE
1002
{
1070
   174
1070
     1
1002
}
  0
LINE
  5
1C4CC
330
1B896
100
AcDbEntity
  8
AM_5
100
AcDbLine
 10
4609.448022023693
 20
242.7635648455698
 30
0.0
 11
4609.448022023693
 21
277.7635648455698
 31
0.0
1001
ACAD_DSTYLE_DIMINSPECT
1070
   393
1070
     0
1001
ACAD
1000
DSTYLE
1002
{
1070
   174
1070
     1
1002
}
  0
LINE
  5
1C4CD
330
1B896
100
AcDbEntity
  8
AM_5
100
AcDbLine
 10
4658.945218776876
 20
239.7635648455698
 30
0.0
 11
4619.452359853579
 21
239.7635648455698
 31
0.0
1001
ACAD_DSTYLE_DIMINSPECT
1070
   393
1070
     0
1001
ACAD
1000
DSTYLE
1002
{
1070
   173
1070
     1
1002
}
  0
LINE
  5
1C4CE
330
1B896
100
AcDbEntity
  8
AM_5
100
AcDbLine
 10
4658.945218776876
 20
233.7635648455698
 30
0.0
 11
4619.452359853579
 21
233.7635648455698
 31
0.0
1001
ACAD_DSTYLE_DIMINSPECT
1070
   393
1070
     0
1001
ACAD
1000
DSTYLE
1002
{
1070
   173
1070
     1
1002
}
  0
LINE
  5
1C4CF
330
1B896
100
AcDbEntity
  8
AM_5
100
AcDbLine
 10
4621.45235985358
 20
239.7635648455698
 30
0.0
 11
4621.45235985358
 21
233.7635648455698
 31
0.0
1001
ACAD_DSTYLE_DIMINSPECT
1070
   393
1070
     0
1001
ACAD
1000
DSTYLE
1002
{
1070
   173
1070
     1
1002
}
  0
LINE
  5
1C4D0
330
1B896
100
AcDbEntity
  8
AM_5
100
AcDbLine
 10
4621.45235985358
 20
239.7635648455698
 30
0.0
 11
4621.45235985358
 21
241.7635648455698
 31
0.0
1001
ACAD_DSTYLE_DIMINSPECT
1070
   393
1070
     0
1001
ACAD
1000
DSTYLE
1002
{
1070
   173
1070
     1
1002
}
  0
LINE
  5
1C4D1
330
1B896
100
AcDbEntity
  8
AM_5
100
AcDbLine
 10
4621.45235985358
 20
233.7635648455698
 30
0.0
 11
4621.45235985358
 21
231.7635648455698
 31
0.0
1001
ACAD_DSTYLE_DIMINSPECT
1070
   393
1070
     0
1001
ACAD
1000
DSTYLE
1002
{
1070
   173
1070
     1
1002
}
  0
LINE
  5
1C4D2
330
1B896
100
AcDbEntity
  8
AM_5
100
AcDbLine
 10
4658.945218776876
 20
239.7635648455698
 30
0.0
 11
4619.452359853579
 21
239.7635648455698
 31
0.0
1001
ACAD_DSTYLE_DIMINSPECT
1070
   393
1070
     0
1001
ACAD
1000
DSTYLE
1002
{
1070
   173
1070
     1
1002
}
  0
LINE
  5
1C4D3
330
1B896
100
AcDbEntity
  8
AM_5
100
AcDbLine
 10
4635.445218776876
 20
242.7635648455698
 30
0.0
 11
4619.452359853579
 21
242.7635648455698
 31
0.0
1001
ACAD_DSTYLE_DIMINSPECT
1070
   393
1070
     0
1001
ACAD
1000
DSTYLE
1002
{
1070
   173
1070
     1
1002
}
  0
LINE
  5
1C4D4
330
1B896
100
AcDbEntity
  8
AM_5
100
AcDbLine
 10
4621.45235985358
 20
242.7635648455698
 30
0.0
 11
4621.45235985358
 21
254.5496342048183
 31
0.0
1001
ACAD_DSTYLE_DIMINSPECT
1070
   393
1070
     0
1001
ACAD
1000
DSTYLE
1002
{
1070
   173
1070
     1
1002
}
  0
LINE
  5
1C4D5
330
1B896
100
AcDbEntity
  8
AM_5
100
AcDbLine
 10
4621.45235985358
 20
239.7635648455698
 30
0.0
 11
4621.45235985358
 21
242.7635648455698
 31
0.0
1001
ACAD_DSTYLE_DIMINSPECT
1070
   393
1070
     0
1001
ACAD
1000
DSTYLE
1002
{
1070
   173
1070
     1
1002
}
  0
LINE
  5
1C4D6
330
1B896
100
AcDbEntity
  8
AM_5
100
AcDbLine
 10
4621.45235985358
 20
239.7635648455698
 30
0.0
 11
4621.45235985358
 21
237.7635648455698
 31
0.0
1001
ACAD_DSTYLE_DIMINSPECT
1070
   393
1070
     0
1001
ACAD
1000
DSTYLE
1002
{
1070
   173
1070
     1
1002
}
  0
LINE
  5
1C4D7
330
1B896
100
AcDbEntity
  8
AM_5
100
AcDbLine
 10
4520.352605113115
 20
376.3897641554056
 30
0.0
 11
4520.352605113115
 21
376.3897641554056
 31
0.0
1001
ACAD_DSTYLE_DIMINSPECT
1070
   393
1070
     0
1001
ACAD
1000
DSTYLE
1002
{
1070
    72
1070
     0
1070
    71
1070
     0
1002
}
  0
LINE
  5
1C4D8
330
1B896
100
AcDbEntity
  8
AM_5
100
AcDbLine
 10
4482.245642677258
 20
87.88976415540572
 30
0.0
 11
4524.352605113114
 21
87.88976415540572
 31
0.0
1001
ACAD_DSTYLE_DIMINSPECT
1070
   393
1070
     0
1001
ACAD
1000
DSTYLE
1002
{
1070
    72
1070
     0
1070
    71
1070
     0
1002
}
  0
LINE
  5
1C4D9
330
1B896
100
AcDbEntity
  8
AM_5
100
AcDbLine
 10
4522.352605113115
 20
376.3897641554056
 30
0.0
 11
4522.352605113115
 21
87.88976415540572
 31
0.0
1001
ACAD_DSTYLE_DIMINSPECT
1070
   393
1070
     0
1001
ACAD
1000
DSTYLE
1002
{
1070
    72
1070
     0
1070
    71
1070
     0
1002
}
  0
LINE
  5
1C4DA
330
1B896
100
AcDbEntity
  8
AM_5
100
AcDbLine
 10
4483.185550021288
 20
363.3897641554056
 30
0.0
 11
4483.185550021288
 21
376.3897641554056
 31
0.0
1001
ACAD_DSTYLE_DIMINSPECT
1070
   393
1070
     0
1001
ACAD
1000
DSTYLE
1002
{
1070
    75
1070
     1
1070
    76
1070
     1
1070
   174
1070
     1
1070
    40
1040
2.0
1002
}
  0
LINE
  5
1C4DB
330
1B896
100
AcDbEntity
  8
AM_5
100
AcDbLine
 10
4430.245643269563
 20
99.88976415540561
 30
0.0
 11
4485.185550021288
 21
99.88976415540561
 31
0.0
1001
ACAD_DSTYLE_DIMINSPECT
1070
   393
1070
     0
1001
ACAD
1000
DSTYLE
1002
{
1070
    72
1070
     0
1070
    71
1070
     0
1002
}
  0
LINE
  5
1C4DC
330
1B896
100
AcDbEntity
  8
AM_5
100
AcDbLine
 10
4430.245643269563
 20
363.3897641554056
 30
0.0
 11
4485.185550021288
 21
363.3897641554056
 31
0.0
1001
ACAD_DSTYLE_DIMINSPECT
1070
   393
1070
     0
1001
ACAD
1000
DSTYLE
1002
{
1070
    72
1070
     0
1070
    71
1070
     0
1002
}
  0
LINE
  5
1C4DD
330
1B896
100
AcDbEntity
  8
AM_5
100
AcDbLine
 10
4483.185550021288
 20
99.88976415540561
 30
0.0
 11
4483.185550021288
 21
363.3897641554056
 31
0.0
1001
ACAD_DSTYLE_DIMINSPECT
1070
   393
1070
     0
1001
ACAD
1000
DSTYLE
1002
{
1070
    72
1070
     0
1070
    71
1070
     0
1002
}
  0
LINE
  5
1C4DE
330
1B896
100
AcDbEntity
  8
AM_5
100
AcDbLine
 10
4430.245643269563
 20
99.88976415540561
 30
0.0
 11
4485.185550021288
 21
99.88976415540561
 31
0.0
1001
ACAD_DSTYLE_DIMINSPECT
1070
   393
1070
     0
1001
ACAD
1000
DSTYLE
1002
{
1070
   174
1070
     1
1070
    40
1040
2.0
1002
}
  0
LINE
  5
1C4DF
330
1B896
100
AcDbEntity
  8
AM_5
100
AcDbLine
 10
4472.245642677258
 20
87.88976415540572
 30
0.0
 11
4485.185550021288
 21
87.88976415540572
 31
0.0
1001
ACAD_DSTYLE_DIMINSPECT
1070
   393
1070
     0
1001
ACAD
1000
DSTYLE
1002
{
1070
   174
1070
     1
1070
    40
1040
2.0
1002
}
  0
LINE
  5
1C4E0
330
1B896
100
AcDbEntity
  8
AM_5
100
AcDbLine
 10
4483.185550021288
 20
99.88976415540561
 30
0.0
 11
4483.185550021288
 21
87.88976415540572
 31
0.0
1001
ACAD_DSTYLE_DIMINSPECT
1070
   393
1070
     0
1001
ACAD
1000
DSTYLE
1002
{
1070
   174
1070
     1
1070
    40
1040
2.0
1002
}
  0
LINE
  5
1C4E1
330
1B896
100
AcDbEntity
  8
AM_5
100
AcDbLine
 10
4483.185550021288
 20
99.88976415540561
 30
0.0
 11
4483.185550021288
 21
101.8897641554056
 31
0.0
1001
ACAD_DSTYLE_DIMINSPECT
1070
   393
1070
     0
1001
ACAD
1000
DSTYLE
1002
{
1070
   174
1070
     1
1070
    40
1040
2.0
1002
}
  0
LINE
  5
1C4E3
330
1B896
100
AcDbEntity
  8
AM_5
100
AcDbLine
 10
4388.245643269562
 20
361.3897641554056
 30
0.0
 11
4388.245643269562
 21
232.5161544009608
 31
0.0
1001
ACAD_DSTYLE_DIMINSPECT
1070
   393
1070
     0
1001
ACAD
1000
DSTYLE
1002
{
1070
   174
1070
     1
1002
}
  0
LINE
  5
1C4E4
330
1B896
100
AcDbEntity
  8
AM_5
100
AcDbLine
 10
4428.245643269562
 20
361.3897641554056
 30
0.0
 11
4428.245643269562
 21
232.5161544009608
 31
0.0
1001
ACAD_DSTYLE_DIMINSPECT
1070
   393
1070
     0
1001
ACAD
1000
DSTYLE
1002
{
1070
   174
1070
     1
1002
}
  0
LINE
  5
1C4E5
330
1B896
100
AcDbEntity
  8
AM_5
100
AcDbLine
 10
4388.245643269562
 20
234.5161544009608
 30
0.0
 11
4428.245643269562
 21
234.5161544009608
 31
0.0
1001
ACAD_DSTYLE_DIMINSPECT
1070
   393
1070
     0
1001
ACAD
1000
DSTYLE
1002
{
1070
   174
1070
     1
1002
}
  0
LINE
  5
1C4E6
330
1B896
100
AcDbEntity
  8
AM_5
100
AcDbLine
 10
4291.595090243577
 20
376.3897641554056
 30
0.0
 11
4291.595090243577
 21
87.8897641554056
 31
0.0
1001
ACAD_DSTYLE_DIMINSPECT
1070
   393
1070
     0
1001
ACAD
1000
DSTYLE
1002
{
1070
    76
1070
     1
1070
    75
1070
     1
1070
    72
1070
     0
1070
    71
1070
     0
1002
}
  0
LINE
  5
1C4E7
330
1B896
100
AcDbEntity
  8
AM_5
100
AcDbLine
 10
4291.595090243577
 20
388.8897641554056
 30
0.0
 11
4291.595090243577
 21
438.8085443425505
 31
0.0
1001
ACAD_DSTYLE_DIMINSPECT
1070
   393
1070
     0
1001
ACAD
1000
DSTYLE
1002
{
1070
    76
1070
     1
1070
    75
1070
     1
1070
   170
1070
     0
1070
    72
1070
     0
1070
    71
1070
     0
1002
}
  0
LINE
  5
1C4E8
330
1B896
100
AcDbEntity
  8
AM_5
100
AcDbLine
 10
4291.595090243577
 20
388.8897641554056
 30
0.0
 11
4291.595090243577
 21
376.3897641554056
 31
0.0
1001
ACAD_DSTYLE_DIMINSPECT
1070
   393
1070
     0
1001
ACAD
1000
DSTYLE
1002
{
1070
    76
1070
     1
1070
    75
1070
     1
1070
   170
1070
     0
1070
    72
1070
     0
1070
    71
1070
     0
1002
}
  0
LINE
  5
1C4E9
330
1B896
100
AcDbEntity
  8
AM_5
100
AcDbLine
 10
4602.804267677111
 20
209.875725890689
 30
0.0
 11
4588.590724274463
 21
186.6001264131202
 31
0.0
1001
ACAD
1000
DSTYLE
1002
{
1070
    40
1040
3.0
1070
   176
1070
     4
1070
    41
1040
1.5
1070
   147
1040
1.0
1070
    77
1070
     0
1002
}
  0
LINE
  5
1C4EA
330
1B896
100
AcDbEntity
  8
AM_5
100
AcDbLine
 10
4588.590724274463
 20
186.6001264131202
 30
0.0
 11
4573.758219723169
 21
186.6001264131202
 31
0.0
1001
ACAD
1000
DSTYLE
1002
{
1070
    40
1040
3.0
1070
   176
1070
     4
1070
    41
1040
1.5
1070
   147
1040
1.0
1070
    77
1070
     0
1002
}
  0
LINE
  5
1C4EB
330
1B896
100
AcDbEntity
  8
AM_5
100
AcDbLine
 10
4603.444356690887
 20
209.4848473233017
 30
0.0
 11
4605.149539081434
 21
213.7162599733479
 31
0.0
210
0.0
220
0.0
230
-1.0
  0
LINE
  5
1C4EC
330
1B896
100
AcDbEntity
  8
AM_5
100
AcDbLine
 10
4602.164178663334
 20
210.2666044580761
 30
0.0
 11
4605.149539081434
 21
213.7162599733479
 31
0.0
210
0.0
220
0.0
230
-1.0
  0
LINE
  5
1C4ED
330
1B896
100
AcDbEntity
  8
AM_5
100
AcDbLine
 10
4605.149539081434
 20
213.7162599733479
 30
0.0
 11
4602.804267677111
 21
209.875725890689
 31
0.0
210
0.0
220
0.0
230
-1.0
  0
TEXT
  5
1C4EE
330
1B896
100
AcDbEntity
  8
AM_5
100
AcDbText
 10
4289.595090243577
 20
393.6688368059929
 30
0.0
 40
6.0
  1
12.5（9.5）
 50
90.0
  7
SIMPLEX
100
AcDbText
1001
ACAD_DSTYLE_DIMINSPECT
1070
   393
1070
     0
1001
ACAD
1000
DSTYLE
1002
{
1070
    76
1070
     1
1070
    75
1070
     1
1070
   170
1070
     0
1070
    72
1070
     0
1070
    71
1070
     0
1002
}
  0
CIRCLE
  5
1C4EF
330
1B896
100
AcDbEntity
  8
AM_5
100
AcDbCircle
 10
4291.595090243577
 20
376.3897641554056
 30
0.0
 40
0.5
  0
CIRCLE
  5
1C4F0
330
1B896
100
AcDbEntity
  8
AM_5
100
AcDbCircle
 10
4291.595090243577
 20
388.8897641554056
 30
0.0
 40
0.5
  0
TEXT
  5
1C4F1
330
1B896
100
AcDbEntity
  8
AM_5
100
AcDbText
 10
4289.595090243577
 20
220.5397641554059
 30
0.0
 40
6.0
  1
PB下H
 50
90.0
  7
SIMPLEX
100
AcDbText
1001
ACAD_DSTYLE_DIMINSPECT
1070
   393
1070
     0
1001
ACAD
1000
DSTYLE
1002
{
1070
    76
1070
     1
1070
    75
1070
     1
1070
    72
1070
     0
1070
    71
1070
     0
1002
}
  0
CIRCLE
  5
1C4F2
330
1B896
100
AcDbEntity
  8
AM_5
100
AcDbCircle
 10
4291.595090243577
 20
87.8897641554056
 30
0.0
 40
0.5
  0
CIRCLE
  5
1C4F3
330
1B896
100
AcDbEntity
  8
AM_5
100
AcDbCircle
 10
4291.595090243577
 20
376.3897641554056
 30
0.0
 40
0.5
  0
TEXT
  5
1C4F4
330
1B896
100
AcDbEntity
  8
AM_5
100
AcDbText
 10
4403.388500412421
 20
236.5161544009608
 30
0.0
 40
6.0
  1
40
  7
SIMPLEX
100
AcDbText
1001
ACAD_DSTYLE_DIMINSPECT
1070
   393
1070
     0
1001
ACAD
1000
DSTYLE
1002
{
1070
   174
1070
     1
1002
}
  0
CIRCLE
  5
1C4F5
330
1B896
100
AcDbEntity
  8
AM_5
100
AcDbCircle
 10
4428.245643269562
 20
234.5161544009608
 30
0.0
 40
0.5
  0
CIRCLE
  5
1C4F6
330
1B896
100
AcDbEntity
  8
AM_5
100
AcDbCircle
 10
4388.245643269562
 20
234.5161544009608
 30
0.0
 40
0.5
  0
TEXT
  5
1C4F7
330
1B896
100
AcDbEntity
  8
AM_5
100
AcDbText
 10
4481.185550021288
 20
89.60404986969161
 30
0.0
 40
6.0
  1
12
 50
90.0
  7
SIMPLEX
100
AcDbText
1001
ACAD_DSTYLE_DIMINSPECT
1070
   393
1070
     0
1001
ACAD
1000
DSTYLE
1002
{
1070
   174
1070
     1
1070
    40
1040
2.0
1002
}
  0
CIRCLE
  5
1C4F8
330
1B896
100
AcDbEntity
  8
AM_5
100
AcDbCircle
 10
4483.185550021288
 20
87.88976415540572
 30
0.0
 40
0.5
  0
CIRCLE
  5
1C4F9
330
1B896
100
AcDbEntity
  8
AM_5
100
AcDbCircle
 10
4483.185550021288
 20
99.88976415540561
 30
0.0
 40
0.5
  0
TEXT
  5
1C4FA
330
1B896
100
AcDbEntity
  8
AM_5
100
AcDbText
 10
4481.185550021288
 20
191.4897641554057
 30
0.0
 40
6.0
  1
ドアH（DH）＝H-25
 50
90.0
  7
SIMPLEX
100
AcDbText
1001
ACAD_DSTYLE_DIMINSPECT
1070
   393
1070
     0
1001
ACAD
1000
DSTYLE
1002
{
1070
    72
1070
     0
1070
    71
1070
     0
1002
}
  0
CIRCLE
  5
1C4FB
330
1B896
100
AcDbEntity
  8
AM_5
100
AcDbCircle
 10
4483.185550021288
 20
363.3897641554056
 30
0.0
 40
0.5
  0
CIRCLE
  5
1C4FC
330
1B896
100
AcDbEntity
  8
AM_5
100
AcDbCircle
 10
4483.185550021288
 20
99.88976415540561
 30
0.0
 40
0.5
  0
TEXT
  5
1C4FD
330
1B896
100
AcDbEntity
  8
AM_5
100
AcDbText
 10
4481.185550021288
 20
365.6040498696916
 30
0.0
 40
6.0
  1
13
 50
90.0
  7
SIMPLEX
100
AcDbText
1001
ACAD_DSTYLE_DIMINSPECT
1070
   393
1070
     0
1001
ACAD
1000
DSTYLE
1002
{
1070
    75
1070
     1
1070
    76
1070
     1
1070
   174
1070
     1
1070
    40
1040
2.0
1002
}
  0
CIRCLE
  5
1C4FE
330
1B896
100
AcDbEntity
  8
AM_5
100
AcDbCircle
 10
4483.185550021288
 20
376.3897641554056
 30
0.0
 40
0.5
  0
CIRCLE
  5
1C4FF
330
1B896
100
AcDbEntity
  8
AM_5
100
AcDbCircle
 10
4483.185550021288
 20
363.3897641554056
 30
0.0
 40
0.5
  0
TEXT
  5
1C500
330
1B896
100
AcDbEntity
  8
AM_5
100
AcDbText
 10
4520.352605113115
 20
219.8540498696916
 30
0.0
 40
6.0
  1
WH=H
 50
90.0
  7
SIMPLEX
100
AcDbText
1001
ACAD_DSTYLE_DIMINSPECT
1070
   393
1070
     0
1001
ACAD
1000
DSTYLE
1002
{
1070
    72
1070
     0
1070
    71
1070
     0
1002
}
  0
CIRCLE
  5
1C501
330
1B896
100
AcDbEntity
  8
AM_5
100
AcDbCircle
 10
4522.352605113115
 20
87.88976415540572
 30
0.0
 40
0.5
  0
CIRCLE
  5
1C502
330
1B896
100
AcDbEntity
  8
AM_5
100
AcDbCircle
 10
4522.352605113115
 20
376.3897641554056
 30
0.0
 40
0.5
  0
TEXT
  5
1C503
330
1B896
100
AcDbEntity
  8
AM_5
100
AcDbText
 10
4619.452359853579
 20
248.5496342048181
 30
0.0
 40
6.0
  1
3
 50
90.0
  7
SIMPLEX
100
AcDbText
1001
ACAD_DSTYLE_DIMINSPECT
1070
   393
1070
     0
1001
ACAD
1000
DSTYLE
1002
{
1070
   173
1070
     1
1002
}
  0
CIRCLE
  5
1C504
330
1B896
100
AcDbEntity
  8
AM_5
100
AcDbCircle
 10
4621.45235985358
 20
242.7635648455698
 30
0.0
 40
0.5
  0
CIRCLE
  5
1C505
330
1B896
100
AcDbEntity
  8
AM_5
100
AcDbCircle
 10
4621.45235985358
 20
239.7635648455698
 30
0.0
 40
0.5
  0
TEXT
  5
1C506
330
1B896
100
AcDbEntity
  8
AM_5
100
AcDbText
 10
4619.452359853579
 20
234.9064219884271
 30
0.0
 40
6.0
  1
6
 50
90.0
  7
SIMPLEX
100
AcDbText
1001
ACAD_DSTYLE_DIMINSPECT
1070
   393
1070
     0
1001
ACAD
1000
DSTYLE
1002
{
1070
   173
1070
     1
1002
}
  0
CIRCLE
  5
1C507
330
1B896
100
AcDbEntity
  8
AM_5
100
AcDbCircle
 10
4621.45235985358
 20
233.7635648455698
 30
0.0
 40
0.5
  0
CIRCLE
  5
1C508
330
1B896
100
AcDbEntity
  8
AM_5
100
AcDbCircle
 10
4621.45235985358
 20
239.7635648455698
 30
0.0
 40
0.5
  0
TEXT
  5
1C509
330
1B896
100
AcDbEntity
  8
AM_5
100
AcDbText
 10
4607.448022023692
 20
255.4064219884271
 30
0.0
 40
6.0
  1
35
 50
90.0
  7
SIMPLEX
100
AcDbText
1001
ACAD_DSTYLE_DIMINSPECT
1070
   393
1070
     0
1001
ACAD
1000
DSTYLE
1002
{
1070
   174
1070
     1
1002
}
  0
CIRCLE
  5
1C50A
330
1B896
100
AcDbEntity
  8
AM_5
100
AcDbCircle
 10
4609.448022023693
 20
277.7635648455698
 30
0.0
 40
0.5
  0
CIRCLE
  5
1C50B
330
1B896
100
AcDbEntity
  8
AM_5
100
AcDbCircle
 10
4609.448022023693
 20
242.7635648455698
 30
0.0
 40
0.5
  0
TEXT
  5
1C50C
330
1B896
100
AcDbEntity
  8
AM_5
100
AcDbText
 10
4607.448022023692
 20
225.4064219884271
 30
0.0
 40
6.0
  1
25
 50
90.0
  7
SIMPLEX
100
AcDbText
1001
ACAD_DSTYLE_DIMINSPECT
1070
   393
1070
     0
1001
ACAD
1000
DSTYLE
1002
{
1070
   174
1070
     1
1070
    40
1040
2.0
1002
}
  0
CIRCLE
  5
1C50D
330
1B896
100
AcDbEntity
  8
AM_5
100
AcDbCircle
 10
4609.448022023693
 20
217.7635648455698
 30
0.0
 40
0.5
  0
CIRCLE
  5
1C50E
330
1B896
100
AcDbEntity
  8
AM_5
100
AcDbCircle
 10
4609.448022023693
 20
242.7635648455698
 30
0.0
 40
0.5
  0
TEXT
  5
1C50F
330
1B896
100
AcDbEntity
  8
AM_5
100
AcDbText
 10
4750.64678616626
 20
248.9064219884271
 30
0.0
 40
6.0
  1
40
 50
90.0
  7
SIMPLEX
100
AcDbText
1001
ACAD_DSTYLE_DIMINSPECT
1070
   393
1070
     0
  0
CIRCLE
  5
1C510
330
1B896
100
AcDbEntity
  8
AM_5
100
AcDbCircle
 10
4752.64678616626
 20
233.7635648455698
 30
0.0
 40
0.5
  0
CIRCLE
  5
1C511
330
1B896
100
AcDbEntity
  8
AM_5
100
AcDbCircle
 10
4752.64678616626
 20
273.7635648455698
 30
0.0
 40
0.5
  0
TEXT
  5
1C512
330
1B896
100
AcDbEntity
  8
AM_5
100
AcDbText
 10
4912.608180240513
 20
169.3248782268272
 30
0.0
 40
6.0
  1
4
  7
SIMPLEX
100
AcDbText
1001
ACAD_DSTYLE_DIMINSPECT
1070
   393
1070
     0
1001
ACAD
1000
DSTYLE
1002
{
1070
   173
1070
     1
1002
}
  0
CIRCLE
  5
1C513
330
1B896
100
AcDbEntity
  8
AM_5
100
AcDbCircle
 10
4922.445218776879
 20
167.3248782268272
 30
0.0
 40
0.5
  0
CIRCLE
  5
1C514
330
1B896
100
AcDbEntity
  8
AM_5
100
AcDbCircle
 10
4926.445237393778
 20
167.3248782268272
 30
0.0
 40
0.5
  0
TEXT
  5
1C515
330
1B896
100
AcDbEntity
  8
AM_5
100
AcDbText
 10
4751.830933062591
 20
169.3248782268272
 30
0.0
 40
6.0
  1
ドアW2（DW2）＝W-8
  7
SIMPLEX
100
AcDbText
1001
ACAD_DSTYLE_DIMINSPECT
1070
   393
1070
     0
1001
ACAD
1000
DSTYLE
1002
{
1070
    72
1070
     0
1070
    71
1070
     0
1002
}
  0
CIRCLE
  5
1C516
330
1B896
100
AcDbEntity
  8
AM_5
100
AcDbCircle
 10
4668.945218776876
 20
167.3248782268272
 30
0.0
 40
0.5
  0
CIRCLE
  5
1C517
330
1B896
100
AcDbEntity
  8
AM_5
100
AcDbCircle
 10
4922.445218776879
 20
167.3248782268272
 30
0.0
 40
0.5
  0
TEXT
  5
1C518
330
1B896
100
AcDbEntity
  8
AM_5
100
AcDbText
 10
4670.228400247981
 20
168.9292638335697
 30
0.0
 40
6.0
  1
4
  7
SIMPLEX
100
AcDbText
1001
ACAD_DSTYLE_DIMINSPECT
1070
   393
1070
     0
1001
ACAD
1000
DSTYLE
1002
{
1070
   173
1070
     1
1002
}
  0
CIRCLE
  5
1C519
330
1B896
100
AcDbEntity
  8
AM_5
100
AcDbCircle
 10
4664.945218776876
 20
167.3248782268272
 30
0.0
 40
0.5
  0
CIRCLE
  5
1C51A
330
1B896
100
AcDbEntity
  8
AM_5
100
AcDbCircle
 10
4668.945218776876
 20
167.3248782268272
 30
0.0
 40
0.5
  0
TEXT
  5
1C51B
330
1B896
100
AcDbEntity
  8
AM_5
100
AcDbText
 10
4932.945237393778
 20
150.3248782268272
 30
0.0
 40
6.0
  1
11
  7
SIMPLEX
100
AcDbText
1001
ACAD_DSTYLE_DIMINSPECT
1070
   393
1070
     0
1001
ACAD
1000
DSTYLE
1002
{
1070
   174
1070
     1
1002
}
  0
CIRCLE
  5
1C51C
330
1B896
100
AcDbEntity
  8
AM_5
100
AcDbCircle
 10
4941.445237393779
 20
148.3248782268272
 30
0.0
 40
0.5
  0
CIRCLE
  5
1C51D
330
1B896
100
AcDbEntity
  8
AM_5
100
AcDbCircle
 10
4930.445237393779
 20
148.3248782268272
 30
0.0
 40
0.5
  0
TEXT
  5
1C51E
330
1B896
100
AcDbEntity
  8
AM_5
100
AcDbText
 10
4956.848698611399
 20
150.3248782268272
 30
0.0
 40
6.0
  1
12.5
  7
SIMPLEX
100
AcDbText
1001
ACAD_DSTYLE_DIMINSPECT
1070
   393
1070
     0
1001
ACAD
1000
DSTYLE
1002
{
1070
   174
1070
     1
1070
    40
1040
2.0
1002
}
  0
CIRCLE
  5
1C51F
330
1B896
100
AcDbEntity
  8
AM_5
100
AcDbCircle
 10
4953.945237393778
 20
148.3248782268272
 30
0.0
 40
0.5
  0
CIRCLE
  5
1C520
330
1B896
100
AcDbEntity
  8
AM_5
100
AcDbCircle
 10
4941.445237393779
 20
148.3248782268272
 30
0.0
 40
0.5
  0
TEXT
  5
1C521
330
1B896
100
AcDbEntity
  8
AM_5
100
AcDbText
 10
4931.052380250921
 20
131.3248782268271
 30
0.0
 40
6.0
  1
27.5
  7
SIMPLEX
100
AcDbText
1001
ACAD_DSTYLE_DIMINSPECT
1070
   393
1070
     0
1001
ACAD
1000
DSTYLE
1002
{
1070
   173
1070
     1
1070
   174
1070
     1
1002
}
  0
CIRCLE
  5
1C522
330
1B896
100
AcDbEntity
  8
AM_5
100
AcDbCircle
 10
4953.945237393778
 20
129.3248782268271
 30
0.0
 40
0.5
  0
TEXT
  5
1C523
330
1B896
100
AcDbEntity
  8
AM_5
100
AcDbText
 10
4752.9737995139
 20
150.3248782268272
 30
0.0
 40
6.0
  1
ドアW1（DW1）＝W+8
  7
SIMPLEX
100
AcDbText
1001
ACAD_DSTYLE_DIMINSPECT
1070
   393
1070
     0
1001
ACAD
1000
DSTYLE
1002
{
1070
    72
1070
     0
1070
    71
1070
     0
1002
}
  0
CIRCLE
  5
1C524
330
1B896
100
AcDbEntity
  8
AM_5
100
AcDbCircle
 10
4660.945218776876
 20
148.3248782268272
 30
0.0
 40
0.5
  0
CIRCLE
  5
1C525
330
1B896
100
AcDbEntity
  8
AM_5
100
AcDbCircle
 10
4930.445237393779
 20
148.3248782268272
 30
0.0
 40
0.5
  0
TEXT
  5
1C526
330
1B896
100
AcDbEntity
  8
AM_5
100
AcDbText
 10
4652.195218776877
 20
150.3248782268272
 30
0.0
 40
6.0
  1
11
  7
SIMPLEX
100
AcDbText
1001
ACAD_DSTYLE_DIMINSPECT
1070
   393
1070
     0
1001
ACAD
1000
DSTYLE
1002
{
1070
    72
1070
     0
1070
    71
1070
     0
1002
}
  0
CIRCLE
  5
1C527
330
1B896
100
AcDbEntity
  8
AM_5
100
AcDbCircle
 10
4649.945218776877
 20
148.3248782268272
 30
0.0
 40
0.5
  0
CIRCLE
  5
1C528
330
1B896
100
AcDbEntity
  8
AM_5
100
AcDbCircle
 10
4660.945218776876
 20
148.3248782268272
 30
0.0
 40
0.5
  0
TEXT
  5
1C529
330
1B896
100
AcDbEntity
  8
AM_5
100
AcDbText
 10
4616.199970924413
 20
150.3248782268272
 30
0.0
 40
6.0
  1
12.5
  7
SIMPLEX
100
AcDbText
1001
ACAD_DSTYLE_DIMINSPECT
1070
   393
1070
     0
1001
ACAD
1000
DSTYLE
1002
{
1070
   174
1070
     1
1070
    40
1040
2.0
1002
}
  0
CIRCLE
  5
1C52A
330
1B896
100
AcDbEntity
  8
AM_5
100
AcDbCircle
 10
4637.445218776877
 20
148.3248782268272
 30
0.0
 40
0.5
  0
CIRCLE
  5
1C52B
330
1B896
100
AcDbEntity
  8
AM_5
100
AcDbCircle
 10
4649.945218776877
 20
148.3248782268272
 30
0.0
 40
0.5
  0
TEXT
  5
1C52C
330
1B896
100
AcDbEntity
  8
AM_5
100
AcDbText
 10
4641.802361634019
 20
131.3248782268271
 30
0.0
 40
6.0
  1
27.5
  7
SIMPLEX
100
AcDbText
1001
ACAD_DSTYLE_DIMINSPECT
1070
   393
1070
     0
1001
ACAD
1000
DSTYLE
1002
{
1070
   173
1070
     1
1070
   170
1070
     0
1070
    72
1070
     0
1070
    71
1070
     0
1002
}
  0
CIRCLE
  5
1C52D
330
1B896
100
AcDbEntity
  8
AM_5
100
AcDbCircle
 10
4637.445218776877
 20
129.3248782268271
 30
0.0
 40
0.5
  0
TEXT
  5
1C52E
330
1B896
100
AcDbEntity
  8
AM_5
100
AcDbText
 10
4773.373799513898
 20
112.3248782268271
 30
0.0
 40
6.0
  1
WW=W+55
  7
SIMPLEX
100
AcDbText
1001
ACAD_DSTYLE_DIMINSPECT
1070
   393
1070
     0
1001
ACAD
1000
DSTYLE
1002
{
1070
    72
1070
     0
1070
    71
1070
     0
1002
}
  0
CIRCLE
  5
1C52F
330
1B896
100
AcDbEntity
  8
AM_5
100
AcDbCircle
 10
4953.945237393778
 20
110.3248782268271
 30
0.0
 40
0.5
  0
CIRCLE
  5
1C530
330
1B896
100
AcDbEntity
  8
AM_5
100
AcDbCircle
 10
4637.445218776877
 20
110.3248782268271
 30
0.0
 40
0.5
  0
TEXT
  5
1C531
330
1B896
100
AcDbEntity
  8
AM_5
100
AcDbText
 10
4374.735332362379
 20
236.5161544009608
 30
0.0
 40
6.0
  1
4
  7
SIMPLEX
100
AcDbText
1001
ACAD_DSTYLE_DIMINSPECT
1070
   393
1070
     0
1001
ACAD
1000
DSTYLE
1002
{
1070
   174
1070
     1
1070
    40
1040
2.0
1002
}
  0
CIRCLE
  5
1C532
330
1B896
100
AcDbEntity
  8
AM_5
100
AcDbCircle
 10
4384.245643269562
 20
234.5161544009608
 30
0.0
 40
0.5
  0
CIRCLE
  5
1C533
330
1B896
100
AcDbEntity
  8
AM_5
100
AcDbCircle
 10
4388.245643269562
 20
234.5161544009608
 30
0.0
 40
0.5
  0
TEXT
  5
1C534
330
1B896
100
AcDbEntity
  8
AM_5
100
AcDbText
 10
4670.89778869758
 20
157.0627483414494
 30
0.0
 40
6.0
  1
4
  7
SIMPLEX
100
AcDbText
1001
ACAD_DSTYLE_DIMINSPECT
1070
   393
1070
     0
1001
ACAD
1000
DSTYLE
1002
{
1070
   173
1070
     1
1002
}
  0
CIRCLE
  5
1C535
330
1B896
100
AcDbEntity
  8
AM_5
100
AcDbCircle
 10
4660.945218776876
 20
167.3248782268272
 30
0.0
 40
0.5
  0
CIRCLE
  5
1C536
330
1B896
100
AcDbEntity
  8
AM_5
100
AcDbCircle
 10
4664.945218776876
 20
167.3248782268272
 30
0.0
 40
0.5
  0
TEXT
  5
1C537
330
1B896
100
AcDbEntity
  8
AM_5
100
AcDbText
 10
4915.5791459721
 20
156.2215665711215
 30
0.0
 40
6.0
  1
4
  7
SIMPLEX
100
AcDbText
1001
ACAD_DSTYLE_DIMINSPECT
1070
   393
1070
     0
1001
ACAD
1000
DSTYLE
1002
{
1070
   173
1070
     1
1002
}
  0
CIRCLE
  5
1C538
330
1B896
100
AcDbEntity
  8
AM_5
100
AcDbCircle
 10
4930.445237393779
 20
167.3248782268272
 30
0.0
 40
0.5
  0
CIRCLE
  5
1C539
330
1B896
100
AcDbEntity
  8
AM_5
100
AcDbCircle
 10
4926.445237393778
 20
167.3248782268272
 30
0.0
 40
0.5
  0
TEXT
  5
1C53A
330
1B896
100
AcDbEntity
  8
AM_5
100
AcDbText
 10
4996.945237393778
 20
238.6893278766151
 30
0.0
 40
6.0
  1
17.5
 50
90.0
  7
SIMPLEX
100
AcDbText
1001
ACAD_DSTYLE_DIMINSPECT
1070
   393
1070
     0
  0
CIRCLE
  5
1C53B
330
1B896
100
AcDbEntity
  8
AM_5
100
AcDbCircle
 10
4998.945237393779
 20
260.2635648455698
 30
0.0
 40
0.5
  0
CIRCLE
  5
1C53C
330
1B896
100
AcDbEntity
  8
AM_5
100
AcDbCircle
 10
4998.945237393779
 20
277.7635648455698
 30
0.0
 40
0.5
  0
CIRCLE
  5
1C5C3
330
1B896
100
AcDbEntity
  8
AM_2
100
AcDbCircle
 10
4914.945236909429
 20
200.5135648455648
 30
0.0
 40
3.75
  0
LINE
  5
1C5C4
330
1B896
100
AcDbEntity
  8
AM_2
100
AcDbLine
 10
4915.345237393779
 20
202.1135648455647
 30
0.0
 11
4914.545237393778
 21
202.1135648455647
 31
0.0
  0
LINE
  5
1C5C5
330
1B896
100
AcDbEntity
  8
AM_2
100
AcDbLine
 10
4916.545237393779
 20
200.1135648455648
 30
0.0
 11
4916.545237393779
 21
200.9135648455648
 31
0.0
  0
LINE
  5
1C5C6
330
1B896
100
AcDbEntity
  8
AM_2
100
AcDbLine
 10
4914.545237393778
 20
198.9135648455648
 30
0.0
 11
4915.345237393779
 21
198.9135648455648
 31
0.0
  0
LINE
  5
1C5C7
330
1B896
100
AcDbEntity
  8
AM_2
100
AcDbLine
 10
4913.345237393779
 20
200.9135648455647
 30
0.0
 11
4913.345237393779
 21
200.1135648455647
 31
0.0
  0
LINE
  5
1C5C8
330
1B896
100
AcDbEntity
  8
AM_2
100
AcDbLine
 10
4915.645237393778
 20
200.9135648455648
 30
0.0
 11
4916.545237393779
 21
200.9135648455648
 31
0.0
  0
LINE
  5
1C5C9
330
1B896
100
AcDbEntity
  8
AM_2
100
AcDbLine
 10
4915.345237393779
 20
201.2135648455648
 30
0.0
 11
4915.345237393779
 21
202.1135648455647
 31
0.0
  0
ARC
  5
1C5CA
330
1B896
100
AcDbEntity
  8
AM_2
100
AcDbCircle
 10
4915.645237393778
 20
201.2135648455648
 30
0.0
 40
0.3
100
AcDbArc
 50
180.0
 51
270.0
  0
LINE
  5
1C5CB
330
1B896
100
AcDbEntity
  8
AM_2
100
AcDbLine
 10
4914.545237393778
 20
201.2135648455648
 30
0.0
 11
4914.545237393778
 21
202.1135648455647
 31
0.0
  0
LINE
  5
1C5CC
330
1B896
100
AcDbEntity
  8
AM_2
100
AcDbLine
 10
4914.245237393778
 20
200.9135648455648
 30
0.0
 11
4913.345237393779
 21
200.9135648455648
 31
0.0
  0
ARC
  5
1C5CD
330
1B896
100
AcDbEntity
  8
AM_2
100
AcDbCircle
 10
4914.245237393778
 20
201.2135648455648
 30
0.0
 40
0.3
100
AcDbArc
 50
270.0
 51
0.0
  0
LINE
  5
1C5CE
330
1B896
100
AcDbEntity
  8
AM_2
100
AcDbLine
 10
4914.545237393778
 20
199.8135648455648
 30
0.0
 11
4914.545237393778
 21
198.9135648455648
 31
0.0
  0
LINE
  5
1C5CF
330
1B896
100
AcDbEntity
  8
AM_2
100
AcDbLine
 10
4914.245237393778
 20
200.1135648455647
 30
0.0
 11
4913.345237393779
 21
200.1135648455647
 31
0.0
  0
ARC
  5
1C5D0
330
1B896
100
AcDbEntity
  8
AM_2
100
AcDbCircle
 10
4914.245237393778
 20
199.8135648455648
 30
0.0
 40
0.3
100
AcDbArc
 50
0.0
 51
90.0
  0
LINE
  5
1C5D1
330
1B896
100
AcDbEntity
  8
AM_2
100
AcDbLine
 10
4915.645237393778
 20
200.1135648455647
 30
0.0
 11
4916.545237393779
 21
200.1135648455647
 31
0.0
  0
LINE
  5
1C5D2
330
1B896
100
AcDbEntity
  8
AM_2
100
AcDbLine
 10
4915.345237393779
 20
199.8135648455648
 30
0.0
 11
4915.345237393779
 21
198.9135648455648
 31
0.0
  0
ARC
  5
1C5D3
330
1B896
100
AcDbEntity
  8
AM_2
100
AcDbCircle
 10
4915.645237393778
 20
199.8135648455648
 30
0.0
 40
0.3
100
AcDbArc
 50
90.0
 51
180.0
  0
LINE
  5
1C5D4
330
1B896
100
AcDbEntity
  8
AM_2
100
AcDbLine
 10
4906.345236909428
 20
210.3635648455648
 30
0.0
 11
4905.545236909429
 21
210.3635648455648
 31
0.0
  0
LINE
  5
1C5D5
330
1B896
100
AcDbEntity
  8
AM_2
100
AcDbLine
 10
4907.545236909429
 20
208.3635648455648
 30
0.0
 11
4907.545236909429
 21
209.1635648455648
 31
0.0
  0
LINE
  5
1C5D6
330
1B896
100
AcDbEntity
  8
AM_2
100
AcDbLine
 10
4905.545236909429
 20
207.1635648455648
 30
0.0
 11
4906.345236909428
 21
207.1635648455648
 31
0.0
  0
LINE
  5
1C5D7
330
1B896
100
AcDbEntity
  8
AM_2
100
AcDbLine
 10
4904.345236909428
 20
209.1635648455648
 30
0.0
 11
4904.345236909428
 21
208.3635648455648
 31
0.0
  0
LINE
  5
1C5D8
330
1B896
100
AcDbEntity
  8
AM_2
100
AcDbLine
 10
4906.645236909429
 20
209.1635648455648
 30
0.0
 11
4907.545236909429
 21
209.1635648455648
 31
0.0
  0
LINE
  5
1C5D9
330
1B896
100
AcDbEntity
  8
AM_2
100
AcDbLine
 10
4906.345236909428
 20
209.4635648455648
 30
0.0
 11
4906.345236909428
 21
210.3635648455648
 31
0.0
  0
ARC
  5
1C5DA
330
1B896
100
AcDbEntity
  8
AM_2
100
AcDbCircle
 10
4906.645236909429
 20
209.4635648455648
 30
0.0
 40
0.3
100
AcDbArc
 50
180.0
 51
270.0
  0
LINE
  5
1C5DB
330
1B896
100
AcDbEntity
  8
AM_2
100
AcDbLine
 10
4905.545236909429
 20
209.4635648455648
 30
0.0
 11
4905.545236909429
 21
210.3635648455648
 31
0.0
  0
LINE
  5
1C5DC
330
1B896
100
AcDbEntity
  8
AM_2
100
AcDbLine
 10
4905.245236909429
 20
209.1635648455648
 30
0.0
 11
4904.345236909428
 21
209.1635648455648
 31
0.0
  0
ARC
  5
1C5DD
330
1B896
100
AcDbEntity
  8
AM_2
100
AcDbCircle
 10
4905.245236909429
 20
209.4635648455648
 30
0.0
 40
0.3
100
AcDbArc
 50
270.0
 51
0.0
  0
LINE
  5
1C5DE
330
1B896
100
AcDbEntity
  8
AM_2
100
AcDbLine
 10
4905.545236909429
 20
208.0635648455648
 30
0.0
 11
4905.545236909429
 21
207.1635648455648
 31
0.0
  0
LINE
  5
1C5DF
330
1B896
100
AcDbEntity
  8
AM_2
100
AcDbLine
 10
4905.245236909429
 20
208.3635648455648
 30
0.0
 11
4904.345236909428
 21
208.3635648455648
 31
0.0
  0
ARC
  5
1C5E0
330
1B896
100
AcDbEntity
  8
AM_2
100
AcDbCircle
 10
4905.245236909429
 20
208.0635648455648
 30
0.0
 40
0.3
100
AcDbArc
 50
0.0
 51
90.0
  0
LINE
  5
1C5E1
330
1B896
100
AcDbEntity
  8
AM_2
100
AcDbLine
 10
4906.645236909429
 20
208.3635648455648
 30
0.0
 11
4907.545236909429
 21
208.3635648455648
 31
0.0
  0
LINE
  5
1C5E2
330
1B896
100
AcDbEntity
  8
AM_2
100
AcDbLine
 10
4906.345236909428
 20
208.0635648455648
 30
0.0
 11
4906.345236909428
 21
207.1635648455648
 31
0.0
  0
ARC
  5
1C5E3
330
1B896
100
AcDbEntity
  8
AM_2
100
AcDbCircle
 10
4906.645236909429
 20
208.0635648455648
 30
0.0
 40
0.3
100
AcDbArc
 50
90.0
 51
180.0
  0
LINE
  5
1C5E4
330
1B896
100
AcDbEntity
  8
AM_2
100
AcDbLine
 10
4925.545236909429
 20
208.3635648455648
 30
0.0
 11
4925.545236909429
 21
209.1635648455648
 31
0.0
  0
LINE
  5
1C5E5
330
1B896
100
AcDbEntity
  8
AM_2
100
AcDbLine
 10
4923.545236909429
 20
207.1635648455648
 30
0.0
 11
4924.345236909428
 21
207.1635648455648
 31
0.0
  0
LINE
  5
1C5E6
330
1B896
100
AcDbEntity
  8
AM_2
100
AcDbLine
 10
4924.645236909428
 20
209.1635648455648
 30
0.0
 11
4925.545236909429
 21
209.1635648455648
 31
0.0
  0
ARC
  5
1C5E7
330
1B896
100
AcDbEntity
  8
AM_2
100
AcDbCircle
 10
4924.645236909428
 20
209.4635648455648
 30
0.0
 40
0.3
100
AcDbArc
 50
180.0
 51
270.0
  0
LINE
  5
1C5E8
330
1B896
100
AcDbEntity
  8
AM_2
100
AcDbLine
 10
4923.545236909429
 20
208.0635648455648
 30
0.0
 11
4923.545236909429
 21
207.1635648455648
 31
0.0
  0
ARC
  5
1C5E9
330
1B896
100
AcDbEntity
  8
AM_2
100
AcDbCircle
 10
4923.245236909429
 20
208.0635648455648
 30
0.0
 40
0.3
100
AcDbArc
 50
0.0
 51
90.0
  0
LINE
  5
1C5EA
330
1B896
100
AcDbEntity
  8
AM_2
100
AcDbLine
 10
4924.645236909428
 20
208.3635648455648
 30
0.0
 11
4925.545236909429
 21
208.3635648455648
 31
0.0
  0
LINE
  5
1C5EB
330
1B896
100
AcDbEntity
  8
AM_2
100
AcDbLine
 10
4924.345236909428
 20
208.0635648455648
 30
0.0
 11
4924.345236909428
 21
207.1635648455648
 31
0.0
  0
ARC
  5
1C5EC
330
1B896
100
AcDbEntity
  8
AM_2
100
AcDbCircle
 10
4924.645236909428
 20
208.0635648455648
 30
0.0
 40
0.3
100
AcDbArc
 50
90.0
 51
180.0
  0
ARC
  5
1C5ED
330
1B896
100
AcDbEntity
  8
AM_2
100
AcDbCircle
 10
4914.945236909429
 20
209.9628402079647
 30
0.0
 40
18.7
100
AcDbArc
 50
137.0278363282899
 51
54.2727480120164
  0
ARC
  5
1C5EE
330
1B896
100
AcDbEntity
  8
AM_2
100
AcDbCircle
 10
4914.945236909429
 20
209.9628402079647
 30
0.0
 40
17.7
100
AcDbArc
 50
138.2978581556842
 51
50.84529794728204
  0
ARC
  5
1C5EF
330
1B896
100
AcDbEntity
  8
AM_2
100
AcDbCircle
 10
4905.945236909428
 20
208.7635648455648
 30
0.0
 40
3.75
100
AcDbArc
 50
86.54530732576775
 51
333.0557031625947
  0
ARC
  5
1C5F0
330
1B896
100
AcDbEntity
  8
AM_2
100
AcDbCircle
 10
4923.945236909428
 20
208.7635648455648
 30
0.0
 40
3.75
100
AcDbArc
 50
214.0090665530378
 51
58.47683335363637
  0
LINE
  5
1C5F1
330
1B896
100
AcDbEntity
  8
AM_2
100
AcDbLine
 10
4923.245236909429
 20
208.3635648455648
 30
0.0
 11
4922.84474875203
 21
208.3635648455648
 31
0.0
  0
LINE
  5
1C5F2
330
1B896
100
AcDbEntity
  8
AM_2
100
AcDbLine
 10
4924.345236909428
 20
209.4635648455648
 30
0.0
 11
4924.345236909428
 21
209.8640530029647
 31
0.0
  0
LINE
  5
1C848
330
1B896
100
AcDbEntity
  8
OS
 62
     2
100
AcDbLine
 10
4419.245643269563
 20
376.3897641554056
 30
0.0
 11
4419.245643269563
 21
373.3897642504057
 31
0.0
  0
LINE
  5
1C849
330
1B896
100
AcDbEntity
  8
OS
 62
     2
100
AcDbLine
 10
4419.245643269563
 20
366.3897641554056
 30
0.0
 11
4419.245643269561
 21
363.3897641554055
 31
0.0
  0
LINE
  5
1C88D
330
1B896
100
AcDbEntity
  8
AM_0
100
AcDbLine
 10
4664.945218776876
 20
253.8635648455698
 30
0.0
 11
4664.945218776876
 21
244.7635648455698
 31
0.0
  0
LINE
  5
1C88E
330
1B896
100
AcDbEntity
  8
AM_0
100
AcDbLine
 10
4662.945218776877
 20
277.7635648455698
 30
0.0
 11
4664.945218776876
 21
275.7635648455698
 31
0.0
  0
LINE
  5
1C892
330
1B896
100
AcDbEntity
  8
AM_0
100
AcDbLine
 10
4662.945218776877
 20
242.7635648455698
 30
0.0
 11
4664.945218776876
 21
244.7635648455698
 31
0.0
  0
LINE
  5
1C893
330
1B896
100
AcDbEntity
  8
AM_0
100
AcDbLine
 10
4663.445218776876
 20
261.7635648455698
 30
0.0
 11
4663.445218776876
 21
266.6635648455697
 31
0.0
  0
LINE
  5
1C894
330
1B896
100
AcDbEntity
  8
AM_0
100
AcDbLine
 10
4664.945218776876
 20
266.6635648455697
 30
0.0
 11
4663.445218776876
 21
266.6635648455697
 31
0.0
  0
LINE
  5
1C895
330
1B896
100
AcDbEntity
  8
AM_0
100
AcDbLine
 10
4663.445218776876
 20
258.7635648455698
 30
0.0
 11
4663.445218776876
 21
253.8635648455698
 31
0.0
  0
LINE
  5
1C896
330
1B896
100
AcDbEntity
  8
AM_0
100
AcDbLine
 10
4663.445218776876
 20
258.7635648455698
 30
0.0
 11
4657.945218776876
 21
258.7635648455698
 31
0.0
  0
LINE
  5
1C897
330
1B896
100
AcDbEntity
  8
AM_0
100
AcDbLine
 10
4664.945218776876
 20
253.8635648455698
 30
0.0
 11
4663.445218776876
 21
253.8635648455698
 31
0.0
  0
LINE
  5
1C898
330
1B896
100
AcDbEntity
  8
AM_0
100
AcDbLine
 10
4657.945218776876
 20
261.7635648455698
 30
0.0
 11
4657.945218776876
 21
258.7635648455698
 31
0.0
  0
LINE
  5
1C899
330
1B896
100
AcDbEntity
  8
AM_0
100
AcDbLine
 10
4663.445218776876
 20
261.7635648455698
 30
0.0
 11
4657.945218776876
 21
261.7635648455698
 31
0.0
  0
ARC
  5
1C89A
330
1B896
100
AcDbEntity
  8
AM_2
100
AcDbCircle
 10
4664.445218776876
 20
265.7635648455698
 30
0.0
 40
0.5
100
AcDbArc
 50
0.0
 51
90.0
  0
LINE
  5
1C89B
330
1B896
100
AcDbEntity
  8
AM_2
100
AcDbLine
 10
4664.445218776876
 20
266.2635648455698
 30
0.0
 11
4663.445218776876
 21
266.2635648455698
 31
0.0
  0
LINE
  5
1C89C
330
1B896
100
AcDbEntity
  8
AM_2
100
AcDbLine
 10
4660.445218776876
 20
261.9135648455698
 30
0.0
 11
4659.784439173161
 21
261.9135648455698
 31
0.0
  0
LINE
  5
1C89D
330
1B896
100
AcDbEntity
  8
AM_2
100
AcDbLine
 10
4659.451603644148
 20
260.7635648455698
 30
0.0
 11
4660.445218776876
 21
261.9135648455698
 31
0.0
  0
LINE
  5
1C89E
330
1B896
100
AcDbEntity
  8
AM_2
100
AcDbLine
 10
4658.445218776877
 20
260.3635648455697
 30
0.0
 11
4659.784439173161
 21
261.9135648455698
 31
0.0
  0
LINE
  5
1C89F
330
1B896
100
AcDbEntity
  8
AM_2
100
AcDbLine
 10
4663.645218776875
 20
260.7635648455698
 30
0.0
 11
4663.445218776876
 21
266.2635648455698
 31
0.0
  0
LINE
  5
1C8A0
330
1B896
100
AcDbEntity
  8
AM_2
100
AcDbLine
 10
4663.645218776875
 20
260.7635648455698
 30
0.0
 11
4659.451603644148
 21
260.7635648455698
 31
0.0
  0
ARC
  5
1C8A1
330
1B896
100
AcDbEntity
  8
AM_2
100
AcDbCircle
 10
4664.445218776876
 20
254.7635648455698
 30
0.0
 40
0.5
100
AcDbArc
 50
270.0
 51
0.0
  0
LINE
  5
1C8A2
330
1B896
100
AcDbEntity
  8
AM_2
100
AcDbLine
 10
4664.445218776876
 20
254.2635648455698
 30
0.0
 11
4663.445218776876
 21
254.2635648455698
 31
0.0
  0
LINE
  5
1C8A3
330
1B896
100
AcDbEntity
  8
AM_2
100
AcDbLine
 10
4660.445218776876
 20
258.6135648455697
 30
0.0
 11
4659.784439173161
 21
258.6135648455697
 31
0.0
  0
LINE
  5
1C8A4
330
1B896
100
AcDbEntity
  8
AM_2
100
AcDbLine
 10
4659.451603644148
 20
259.7635648455698
 30
0.0
 11
4660.445218776876
 21
258.6135648455697
 31
0.0
  0
LINE
  5
1C8A5
330
1B896
100
AcDbEntity
  8
AM_2
100
AcDbLine
 10
4658.445218776877
 20
260.1635648455697
 30
0.0
 11
4659.784439173161
 21
258.6135648455697
 31
0.0
  0
LINE
  5
1C8A6
330
1B896
100
AcDbEntity
  8
AM_2
100
AcDbLine
 10
4663.645218776875
 20
259.7635648455698
 30
0.0
 11
4663.445218776876
 21
254.2635648455698
 31
0.0
  0
LINE
  5
1C8A7
330
1B896
100
AcDbEntity
  8
AM_2
100
AcDbLine
 10
4663.645218776875
 20
259.7635648455698
 30
0.0
 11
4659.451603644148
 21
259.7635648455698
 31
0.0
  0
LINE
  5
1C8A8
330
1B896
100
AcDbEntity
  8
AM_2
100
AcDbLine
 10
4664.945218776876
 20
265.7635648455698
 30
0.0
 11
4664.945218776876
 21
254.7635648455698
 31
0.0
  0
LINE
  5
1C8A9
330
1B896
100
AcDbEntity
  8
AM_2
100
AcDbLine
 10
4658.445218776877
 20
260.1635648455697
 30
0.0
 11
4658.445218776877
 21
260.3635648455697
 31
0.0
  0
LINE
  5
1C8AA
330
1B896
100
AcDbEntity
  8
AM_0
100
AcDbLine
 10
4664.945218776876
 20
266.6635648455697
 30
0.0
 11
4664.945218776876
 21
275.7635648455698
 31
0.0
  0
LINE
  5
1C8AB
330
1B896
100
AcDbEntity
  8
CONT_S_2
100
AcDbLine
 10
4664.945218776876
 20
250.9631697230031
 30
0.0
 11
4656.745613899443
 21
242.7635648455698
 31
0.0
1001
GENIUS_GENOBJ-N-HTC_13
1002
{
1000
OWNER
1000
GEN
1002
}
1001
GENIUS_GENODEF_13
1002
{
1000
HIER
1070
     0
1002
}
1002
{
1000
MANEDIT
1070
     0
1002
}
1002
{
1000
NOSEL
1070
     0
1002
}
1002
{
1000
BEHIND
1070
     0
1002
}
1002
{
1000
OTHER
1070
     0
1002
}
1002
{
1000
REACTOR
1002
}
1001
GENIUS_GENHATCH_13
1002
{
1000
DATA
1040
45.0
1042
2.5
1000
_U
1070
     0
1011
4656.912105270524
1021
252.8987545573018
1031
0.0
1002
}
1002
{
1000
UCS
1010
0.0
1020
0.0
1030
0.0
1010
1.0
1020
0.0
1030
0.0
1010
0.0
1020
1.0
1030
0.0
1002
}
1001
HATCHBACKGROUNDCOLOR
1071
-939524096
1000

1000

  0
LINE
  5
1C8AC
330
1B896
100
AcDbEntity
  8
CONT_S_2
100
AcDbLine
 10
4663.445218776876
 20
257.9484510972417
 30
0.0
 11
4648.260332525206
 21
242.7635648455698
 31
0.0
1001
GENIUS_GENOBJ-N-HTC_13
1002
{
1000
OWNER
1000
GEN
1002
}
1001
GENIUS_GENODEF_13
1002
{
1000
HIER
1070
     0
1002
}
1002
{
1000
MANEDIT
1070
     0
1002
}
1002
{
1000
NOSEL
1070
     0
1002
}
1002
{
1000
BEHIND
1070
     0
1002
}
1002
{
1000
OTHER
1070
     0
1002
}
1002
{
1000
REACTOR
1002
}
1001
GENIUS_GENHATCH_13
1002
{
1000
DATA
1040
45.0
1042
2.5
1000
_U
1070
     0
1011
4656.912105270524
1021
252.8987545573018
1031
0.0
1002
}
1002
{
1000
UCS
1010
0.0
1020
0.0
1030
0.0
1010
1.0
1020
0.0
1030
0.0
1010
0.0
1020
1.0
1030
0.0
1002
}
1001
HATCHBACKGROUNDCOLOR
1071
-939524096
1000

1000

  0
LINE
  5
1C8AD
330
1B896
100
AcDbEntity
  8
CONT_S_2
100
AcDbLine
 10
4664.945218776876
 20
267.9337324714803
 30
0.0
 11
4663.675051150966
 21
266.6635648455697
 31
0.0
1001
GENIUS_GENOBJ-N-HTC_13
1002
{
1000
OWNER
1000
GEN
1002
}
1001
GENIUS_GENODEF_13
1002
{
1000
HIER
1070
     0
1002
}
1002
{
1000
MANEDIT
1070
     0
1002
}
1002
{
1000
NOSEL
1070
     0
1002
}
1002
{
1000
BEHIND
1070
     0
1002
}
1002
{
1000
OTHER
1070
     0
1002
}
1002
{
1000
REACTOR
1002
}
1001
GENIUS_GENHATCH_13
1002
{
1000
DATA
1040
45.0
1042
2.5
1000
_U
1070
     0
1011
4656.912105270524
1021
252.8987545573018
1031
0.0
1002
}
1002
{
1000
UCS
1010
0.0
1020
0.0
1030
0.0
1010
1.0
1020
0.0
1030
0.0
1010
0.0
1020
1.0
1030
0.0
1002
}
1001
HATCHBACKGROUNDCOLOR
1071
-939524096
1000

1000

  0
LINE
  5
1C8AE
330
1B896
100
AcDbEntity
  8
CONT_S_2
100
AcDbLine
 10
4663.445218776876
 20
266.4337324714803
 30
0.0
 11
4658.775051150966
 21
261.7635648455698
 31
0.0
1001
GENIUS_GENOBJ-N-HTC_13
1002
{
1000
OWNER
1000
GEN
1002
}
1001
GENIUS_GENODEF_13
1002
{
1000
HIER
1070
     0
1002
}
1002
{
1000
MANEDIT
1070
     0
1002
}
1002
{
1000
NOSEL
1070
     0
1002
}
1002
{
1000
BEHIND
1070
     0
1002
}
1002
{
1000
OTHER
1070
     0
1002
}
1002
{
1000
REACTOR
1002
}
1001
GENIUS_GENHATCH_13
1002
{
1000
DATA
1040
45.0
1042
2.5
1000
_U
1070
     0
1011
4656.912105270524
1021
252.8987545573018
1031
0.0
1002
}
1002
{
1000
UCS
1010
0.0
1020
0.0
1030
0.0
1010
1.0
1020
0.0
1030
0.0
1010
0.0
1020
1.0
1030
0.0
1002
}
1001
HATCHBACKGROUNDCOLOR
1071
-939524096
1000

1000

  0
LINE
  5
1C8AF
330
1B896
100
AcDbEntity
  8
CONT_S_2
100
AcDbLine
 10
4657.945218776876
 20
260.9337324714803
 30
0.0
 11
4639.775051150965
 21
242.7635648455698
 31
0.0
1001
GENIUS_GENOBJ-N-HTC_13
1002
{
1000
OWNER
1000
GEN
1002
}
1001
GENIUS_GENODEF_13
1002
{
1000
HIER
1070
     0
1002
}
1002
{
1000
MANEDIT
1070
     0
1002
}
1002
{
1000
NOSEL
1070
     0
1002
}
1002
{
1000
BEHIND
1070
     0
1002
}
1002
{
1000
OTHER
1070
     0
1002
}
1002
{
1000
REACTOR
1002
}
1001
GENIUS_GENHATCH_13
1002
{
1000
DATA
1040
45.0
1042
2.5
1000
_U
1070
     0
1011
4656.912105270524
1021
252.8987545573018
1031
0.0
1002
}
1002
{
1000
UCS
1010
0.0
1020
0.0
1030
0.0
1010
1.0
1020
0.0
1030
0.0
1010
0.0
1020
1.0
1030
0.0
1002
}
1001
HATCHBACKGROUNDCOLOR
1071
-939524096
1000

1000

  0
LINE
  5
1C8B0
330
1B896
100
AcDbEntity
  8
CONT_S_2
100
AcDbLine
 10
4664.617494276802
 20
276.0912893456443
 30
0.0
 11
4637.445218776877
 21
248.9190138457193
 31
0.0
1001
GENIUS_GENOBJ-N-HTC_13
1002
{
1000
OWNER
1000
GEN
1002
}
1001
GENIUS_GENODEF_13
1002
{
1000
HIER
1070
     0
1002
}
1002
{
1000
MANEDIT
1070
     0
1002
}
1002
{
1000
NOSEL
1070
     0
1002
}
1002
{
1000
BEHIND
1070
     0
1002
}
1002
{
1000
OTHER
1070
     0
1002
}
1002
{
1000
REACTOR
1002
}
1001
GENIUS_GENHATCH_13
1002
{
1000
DATA
1040
45.0
1042
2.5
1000
_U
1070
     0
1011
4656.912105270524
1021
252.8987545573018
1031
0.0
1002
}
1002
{
1000
UCS
1010
0.0
1020
0.0
1030
0.0
1010
1.0
1020
0.0
1030
0.0
1010
0.0
1020
1.0
1030
0.0
1002
}
1001
HATCHBACKGROUNDCOLOR
1071
-939524096
1000

1000

  0
LINE
  5
1C8B1
330
1B896
100
AcDbEntity
  8
CONT_S_2
100
AcDbLine
 10
4657.804488402489
 20
277.7635648455698
 30
0.0
 11
4637.445218776877
 21
257.4042952199579
 31
0.0
1001
GENIUS_GENOBJ-N-HTC_13
1002
{
1000
OWNER
1000
GEN
1002
}
1001
GENIUS_GENODEF_13
1002
{
1000
HIER
1070
     0
1002
}
1002
{
1000
MANEDIT
1070
     0
1002
}
1002
{
1000
NOSEL
1070
     0
1002
}
1002
{
1000
BEHIND
1070
     0
1002
}
1002
{
1000
OTHER
1070
     0
1002
}
1002
{
1000
REACTOR
1002
}
1001
GENIUS_GENHATCH_13
1002
{
1000
DATA
1040
45.0
1042
2.5
1000
_U
1070
     0
1011
4656.912105270524
1021
252.8987545573018
1031
0.0
1002
}
1002
{
1000
UCS
1010
0.0
1020
0.0
1030
0.0
1010
1.0
1020
0.0
1030
0.0
1010
0.0
1020
1.0
1030
0.0
1002
}
1001
HATCHBACKGROUNDCOLOR
1071
-939524096
1000

1000

  0
LINE
  5
1C8B2
330
1B896
100
AcDbEntity
  8
CONT_S_2
100
AcDbLine
 10
4649.31920702825
 20
277.7635648455698
 30
0.0
 11
4637.445218776877
 21
265.8895765941963
 31
0.0
1001
GENIUS_GENOBJ-N-HTC_13
1002
{
1000
OWNER
1000
GEN
1002
}
1001
GENIUS_GENODEF_13
1002
{
1000
HIER
1070
     0
1002
}
1002
{
1000
MANEDIT
1070
     0
1002
}
1002
{
1000
NOSEL
1070
     0
1002
}
1002
{
1000
BEHIND
1070
     0
1002
}
1002
{
1000
OTHER
1070
     0
1002
}
1002
{
1000
REACTOR
1002
}
1001
GENIUS_GENHATCH_13
1002
{
1000
DATA
1040
45.0
1042
2.5
1000
_U
1070
     0
1011
4656.912105270524
1021
252.8987545573018
1031
0.0
1002
}
1002
{
1000
UCS
1010
0.0
1020
0.0
1030
0.0
1010
1.0
1020
0.0
1030
0.0
1010
0.0
1020
1.0
1030
0.0
1002
}
1001
HATCHBACKGROUNDCOLOR
1071
-939524096
1000

1000

  0
LINE
  5
1C8B3
330
1B896
100
AcDbEntity
  8
CONT_S_2
100
AcDbLine
 10
4640.833925654012
 20
277.7635648455698
 30
0.0
 11
4637.445218776877
 21
274.3748579684349
 31
0.0
1001
GENIUS_GENOBJ-N-HTC_13
1002
{
1000
OWNER
1000
GEN
1002
}
1001
GENIUS_GENODEF_13
1002
{
1000
HIER
1070
     0
1002
}
1002
{
1000
MANEDIT
1070
     0
1002
}
1002
{
1000
NOSEL
1070
     0
1002
}
1002
{
1000
BEHIND
1070
     0
1002
}
1002
{
1000
OTHER
1070
     0
1002
}
1002
{
1000
REACTOR
1002
}
1001
GENIUS_GENHATCH_13
1002
{
1000
DATA
1040
45.0
1042
2.5
1000
_U
1070
     0
1011
4656.912105270524
1021
252.8987545573018
1031
0.0
1002
}
1002
{
1000
UCS
1010
0.0
1020
0.0
1030
0.0
1010
1.0
1020
0.0
1030
0.0
1010
0.0
1020
1.0
1030
0.0
1002
}
1001
HATCHBACKGROUNDCOLOR
1071
-939524096
1000

1000

  0
TEXT
  5
1CABA
330
1B896
100
AcDbEntity
  8
AM_5
100
AcDbText
 10
4836.362484938122
 20
216.6899214232259
 30
0.0
 40
6.0
  1
ピボットヒンジ
 41
0.9
100
AcDbText
  0
LINE
  5
1CABB
330
1B896
100
AcDbEntity
  8
AM_5
100
AcDbLine
 10
4895.969908031528
 20
223.5161414469798
 30
0.0
 11
4882.746185235077
 21
215.0899214232258
 31
0.0
1001
ACAD
1000
DSTYLE
1002
{
1070
    40
1040
3.0
1070
   176
1070
     4
1070
    41
1040
1.5
1070
   147
1040
1.0
1070
    77
1070
     0
1002
}
  0
LINE
  5
1CABC
330
1B896
100
AcDbEntity
  8
AM_5
100
AcDbLine
 10
4834.362484938122
 20
215.0899214232258
 30
0.0
 11
4882.746185235077
 21
215.0899214232258
 31
0.0
1001
ACAD
1000
DSTYLE
1002
{
1070
    40
1040
3.0
1070
   176
1070
     4
1070
    41
1040
1.5
1070
   147
1040
1.0
1070
    77
1070
     0
1002
}
  0
LINE
  5
1CABD
330
1B896
100
AcDbEntity
  8
AM_5
100
AcDbLine
 10
4896.377604389196
 20
222.886630779918
 30
0.0
 11
4899.746972033899
 21
225.9623195929852
 31
0.0
210
0.0
220
0.0
230
-1.0
  0
LINE
  5
1CABE
330
1B896
100
AcDbEntity
  8
AM_5
100
AcDbLine
 10
4895.56221167386
 20
224.1456521140416
 30
0.0
 11
4899.746972033899
 21
225.9623195929852
 31
0.0
210
0.0
220
0.0
230
-1.0
  0
LINE
  5
1CABF
330
1B896
100
AcDbEntity
  8
AM_5
100
AcDbLine
 10
4899.746972033899
 20
225.9623195929852
 30
0.0
 11
4895.969908031528
 21
223.5161414469798
 31
0.0
210
0.0
220
0.0
230
-1.0
  0
TEXT
  5
1CAC0
330
1B896
100
AcDbEntity
  8
AM_5
100
AcDbText
 10
4863.444788957011
 20
196.9024827002848
 30
0.0
 40
6.0
  1
下受け
 41
0.9
100
AcDbText
  0
LINE
  5
1CAC1
330
1B896
100
AcDbEntity
  8
AM_5
100
AcDbLine
 10
4893.264404680669
 20
202.1727716433892
 30
0.0
 11
4882.747206108811
 21
195.3024827002847
 31
0.0
1001
ACAD
1000
DSTYLE
1002
{
1070
    40
1040
3.0
1070
   176
1070
     4
1070
    41
1040
1.5
1070
   147
1040
1.0
1070
    77
1070
     0
1002
}
  0
LINE
  5
1CAC2
330
1B896
100
AcDbEntity
  8
AM_5
100
AcDbLine
 10
4861.444788957011
 20
195.3024827002847
 30
0.0
 11
4882.747206108811
 21
195.3024827002847
 31
0.0
1001
ACAD
1000
DSTYLE
1002
{
1070
    40
1040
3.0
1070
   176
1070
     4
1070
    41
1040
1.5
1070
   147
1040
1.0
1070
    77
1070
     0
1002
}
  0
LINE
  5
1CAC3
330
1B896
100
AcDbEntity
  8
AM_5
100
AcDbLine
 10
4893.672101038337
 20
201.5432609763274
 30
0.0
 11
4897.04146868304
 21
204.6189497893946
 31
0.0
210
0.0
220
0.0
230
-1.0
  0
LINE
  5
1CAC4
330
1B896
100
AcDbEntity
  8
AM_5
100
AcDbLine
 10
4892.856708323002
 20
202.802282310451
 30
0.0
 11
4897.04146868304
 21
204.6189497893946
 31
0.0
210
0.0
220
0.0
230
-1.0
  0
LINE
  5
1CAC5
330
1B896
100
AcDbEntity
  8
AM_5
100
AcDbLine
 10
4897.04146868304
 20
204.6189497893946
 30
0.0
 11
4893.264404680669
 21
202.1727716433892
 31
0.0
210
0.0
220
0.0
230
-1.0
  0
VIEWPORT
  5
1B810
102
{ACAD_XDICTIONARY
360
1C84E
102
}
330
1B892
100
AcDbEntity
 67
     1
  8
0
100
AcDbViewport
 10
219.1102749664252
 20
32.94755905506355
 30
0.0
 40
192.1439262016693
 41
94.52341437258136
 68
     2
 69
     1
1001
ACAD
1000
MVIEW
1002
{
1070
    16
1010
0.0
1020
0.0
1030
0.0
1010
0.0
1020
0.0
1030
1.0
1040
0.0
1040
94.52341437258136
1040
219.1102749664252
1040
32.94755905506355
1040
50.0
1040
0.0
1040
0.0
1070
    16
1070
   100
1070
     1
1070
     1
1070
     0
1070
     0
1070
     0
1070
     0
1040
0.0
1040
0.0
1040
0.0
1040
10.0
1040
10.0
1040
10.0
1040
10.0
1070
     0
1002
{
1002
}
1002
}
1001
GENIUS_GENOBJ-N-SDF_13
1002
{
1000
OWNER
1000
GEN
1002
}
1001
GENIUS_GENODEF_13
1002
{
1000
HIER
1070
     0
1002
}
1002
{
1000
MANEDIT
1070
     0
1002
}
1002
{
1000
NOSEL
1070
     0
1002
}
1002
{
1000
BEHIND
1070
     0
1002
}
1002
{
1000
OTHER
1070
     0
1002
}
1002
{
1000
REACTOR
1002
}
1001
GENIUS_GENSCREG_15
1000
PF
1040
1.0
1000
DF
1040
1.0
1000
MIN
1011
123.0383118655905
1021
-14.31414813122712
1031
0.0
1000
MAX
1011
315.1822380672598
1021
80.20926624135423
1031
0.0
1000
FLAGS
1070
     2
  0
VIEWPORT
  5
1B811
102
{ACAD_XDICTIONARY
360
1C850
102
}
330
1B892
100
AcDbEntity
 67
     1
  8
AM_0
100
AcDbViewport
 10
133.3499908447265
 20
101.5999970436096
 30
0.0
 40
429.1987358241462
 41
228.4221935424805
 68
     1
 69
     2
1001
ACAD
1000
MVIEW
1002
{
1070
    16
1010
0.0
1020
0.0
1030
0.0
1010
0.0
1020
0.0
1030
1.0
1040
0.0
1040
576.69270833791
1040
-202.0655327728323
1040
665.3552720770292
1040
50.0
1040
0.0
1040
0.0
1070
     0
1070
   100
1070
     1
1070
     1
1070
     0
1070
     0
1070
     0
1070
     0
1040
0.0
1040
0.0
1040
0.0
1040
5.0
1040
5.0
1040
20.0
1040
20.0
1070
     0
1002
{
1002
}
1002
}
1001
GENIUS_GENOBJ-N-SDF_13
1002
{
1000
OWNER
1000
GEN
1002
}
1001
GENIUS_GENODEF_13
1002
{
1000
HIER
1070
     0
1002
}
1002
{
1000
MANEDIT
1070
     0
1002
}
1002
{
1000
NOSEL
1070
     0
1002
}
1002
{
1000
BEHIND
1070
     0
1002
}
1002
{
1000
OTHER
1070
     0
1002
}
1002
{
1000
REACTOR
1002
}
1001
GENIUS_GENSCREG_15
1000
PF
1040
9.752589343509985
1000
DF
1040
1.0
1000
MIN
1011
-81.24937706734659
1021
-12.61109972763063
1031
0.0
1000
MAX
1011
347.9493587567997
1021
215.8110938148498
1031
0.0
1000
FLAGS
1070
     2
  0
ENDSEC
  0
SECTION
  2
OBJECTS
  0
DICTIONARY
  5
1B86C
330
0
100
AcDbDictionary
  3
ACAD_2007HEADERVARS_RT
350
1C84C
  3
ACAD_COLOR
350
1B88F
  3
ACAD_GROUP
350
1B86D
  3
ACAD_LAYOUT
350
1B88E
  3
ACAD_MATERIAL
350
1B870
  3
ACAD_MLINESTYLE
350
1B88B
  3
ACAD_PLOTSETTINGS
350
1B88D
  3
ACAD_TABLESTYLE
350
1B890
  3
ACAD_VISUALSTYLE
350
1B874
  3
ACMDICTIONARY
350
1B979
  3
AMG
350
1B921
  3
AMGSNAPSETTINGS
350
1B9AE
  3
DWGPROPS
350
1C84B
1001
ACAD
1000
TREAT_AS_HARD
1070
     0
  0
DICTIONARY
  5
1BB85
330
1B868
100
AcDbDictionary
  3
ACAD_XREC_ROUNDTRIP
350
1C852
1001
ACAD
1000
TREAT_AS_HARD
1070
     1
  0
DICTIONARY
  5
1B9CE
330
1B862
100
AcDbDictionary
  3
ACAD_LAYERFILTERS
350
1BD4D
  3
ACAD_LAYERSTATES
350
1B9CF
  3
ACLYDICTIONARY
350
1BD4C
1001
ACAD
1000
TREAT_AS_HARD
1070
     1
  0
DICTIONARY
  5
1C859
330
1B885
100
AcDbDictionary
  3
ACAD_XREC_ROUNDTRIP
350
1C85A
1001
ACAD
1000
TREAT_AS_HARD
1070
     1
  0
DICTIONARY
  5
1C86D
330
1B905
100
AcDbDictionary
  3
ACAD_XREC_ROUNDTRIP
350
1C86E
1001
ACAD
1000
TREAT_AS_HARD
1070
     1
  0
DICTIONARY
  5
1C86F
330
1B906
100
AcDbDictionary
  3
ACAD_XREC_ROUNDTRIP
350
1C870
1001
ACAD
1000
TREAT_AS_HARD
1070
     1
  0
DICTIONARY
  5
1C871
330
1B907
100
AcDbDictionary
  3
ACAD_XREC_ROUNDTRIP
350
1C872
1001
ACAD
1000
TREAT_AS_HARD
1070
     1
  0
DICTIONARY
  5
1C873
330
1B908
100
AcDbDictionary
  3
ACAD_XREC_ROUNDTRIP
350
1C874
1001
ACAD
1000
TREAT_AS_HARD
1070
     1
  0
DICTIONARY
  5
1C875
330
1B909
100
AcDbDictionary
  3
ACAD_XREC_ROUNDTRIP
350
1C876
1001
ACAD
1000
TREAT_AS_HARD
1070
     1
  0
DICTIONARY
  5
1C877
330
1B90A
100
AcDbDictionary
  3
ACAD_XREC_ROUNDTRIP
350
1C878
1001
ACAD
1000
TREAT_AS_HARD
1070
     1
  0
DICTIONARY
  5
1C879
330
1B90B
100
AcDbDictionary
  3
ACAD_XREC_ROUNDTRIP
350
1C87A
1001
ACAD
1000
TREAT_AS_HARD
1070
     1
  0
DICTIONARY
  5
1C87B
330
1B90C
100
AcDbDictionary
  3
ACAD_XREC_ROUNDTRIP
350
1C87C
1001
ACAD
1000
TREAT_AS_HARD
1070
     1
  0
DICTIONARY
  5
1C87D
330
1B90D
100
AcDbDictionary
  3
ACAD_XREC_ROUNDTRIP
350
1C87E
1001
ACAD
1000
TREAT_AS_HARD
1070
     1
  0
DICTIONARY
  5
1C87F
330
1B90E
100
AcDbDictionary
  3
ACAD_XREC_ROUNDTRIP
350
1C880
1001
ACAD
1000
TREAT_AS_HARD
1070
     1
  0
DICTIONARY
  5
1CA2B
330
1CA2A
100
AcDbDictionary
  3
ACAD_XREC_ROUNDTRIP
350
1CA2C
  3
ADSK_XREC_LAYER_RECONCILED
350
1CA2D
1001
ACAD
1000
TREAT_AS_HARD
1070
     1
  0
DICTIONARY
  5
1C861
330
1B8AE
100
AcDbDictionary
  3
ACAD_XREC_ROUNDTRIP
350
1C862
1001
ACAD
1000
TREAT_AS_HARD
1070
     1
  0
DICTIONARY
  5
1C863
330
1B8AF
100
AcDbDictionary
  3
ACAD_XREC_ROUNDTRIP
350
1C864
1001
ACAD
1000
TREAT_AS_HARD
1070
     1
  0
DICTIONARY
  5
1C865
330
1B8B0
100
AcDbDictionary
  3
ACAD_XREC_ROUNDTRIP
350
1C866
1001
ACAD
1000
TREAT_AS_HARD
1070
     1
  0
DICTIONARY
  5
1C867
330
1B8B1
100
AcDbDictionary
  3
ACAD_XREC_ROUNDTRIP
350
1C868
1001
ACAD
1000
TREAT_AS_HARD
1070
     1
  0
DICTIONARY
  5
1C869
330
1B8B2
100
AcDbDictionary
  3
ACAD_XREC_ROUNDTRIP
350
1C86A
1001
ACAD
1000
TREAT_AS_HARD
1070
     1
  0
DICTIONARY
  5
1C86B
330
1B8B3
100
AcDbDictionary
  3
ACAD_XREC_ROUNDTRIP
350
1C86C
1001
ACAD
1000
TREAT_AS_HARD
1070
     1
  0
DICTIONARY
  5
1B9BD
330
1B896
100
AcDbDictionary
  3
ACAD_LAYOUTSELFREF
350
1CAFB
  3
ACAD_SORTENTS
350
1B9BE
1001
ACAD
1000
TREAT_AS_HARD
1070
     1
  0
DICTIONARY
  5
1CAF9
330
1B892
100
AcDbDictionary
  3
ACAD_LAYOUTSELFREF
350
1CAFA
  0
DICTIONARY
  5
1C84E
330
1B810
100
AcDbDictionary
  3
ACAD_XREC_ROUNDTRIP
350
1C84F
1001
ACAD
1000
TREAT_AS_HARD
1070
     1
  0
DICTIONARY
  5
1C850
330
1B811
100
AcDbDictionary
  3
ACAD_XREC_ROUNDTRIP
350
1C851
1001
ACAD
1000
TREAT_AS_HARD
1070
     1
  0
DICTIONARY
  5
1C84C
102
{ACAD_REACTORS
330
1B86C
102
}
330
1B86C
100
AcDbDictionary
  3
DIMARCSYM
350
1C84D
1001
ACAD
1000
TREAT_AS_HARD
1070
     0
  0
DICTIONARY
  5
1B88F
102
{ACAD_REACTORS
330
1B86C
102
}
330
1B86C
100
AcDbDictionary
1001
ACAD
1000
TREAT_AS_HARD
1070
     0
  0
DICTIONARY
  5
1B86D
102
{ACAD_REACTORS
330
1B86C
102
}
330
1B86C
100
AcDbDictionary
1001
ACAD
1000
TREAT_AS_HARD
1070
     0
  0
DICTIONARY
  5
1B88E
102
{ACAD_REACTORS
330
1B86C
102
}
330
1B86C
100
AcDbDictionary
1001
ACAD
1000
TREAT_AS_HARD
1070
     0
  0
DICTIONARY
  5
1B870
102
{ACAD_REACTORS
330
1B86C
102
}
330
1B86C
100
AcDbDictionary
  3
BYBLOCK
350
1B872
  3
BYLAYER
350
1B871
  3
GLOBAL
350
1B873
1001
ACAD
1000
TREAT_AS_HARD
1070
     0
  0
DICTIONARY
  5
1B88B
102
{ACAD_REACTORS
330
1B86C
102
}
330
1B86C
100
AcDbDictionary
  3
STANDARD
350
1B88C
1001
ACAD
1000
TREAT_AS_HARD
1070
     0
  0
DICTIONARY
  5
1B88D
102
{ACAD_REACTORS
330
1B86C
102
}
330
1B86C
100
AcDbDictionary
1001
ACAD
1000
TREAT_AS_HARD
1070
     0
  0
DICTIONARY
  5
1B890
102
{ACAD_REACTORS
330
1B86C
102
}
330
1B86C
100
AcDbDictionary
  3
STANDARD
350
1B891
1001
ACAD
1000
TREAT_AS_HARD
1070
     0
  0
DICTIONARY
  5
1B874
102
{ACAD_REACTORS
330
1B86C
102
}
330
1B86C
100
AcDbDictionary
  3
2DWIREFRAME
350
1B87A
  3
3D_HIDDEN
350
1B87C
  3
3DWIREFRAME
350
1B87B
  3
BASIC
350
1B879
  3
BRIGHTEN
350
1B880
  3
COLORCHANGE
350
1B884
  3
CONCEPTUAL
350
1B87D
  3
DIM
350
1B87F
  3
FACEPATTERN
350
1B883
  3
FLAT
350
1B875
  3
FLATWITHEDGES
350
1B876
  3
GOURAUD
350
1B877
  3
GOURAUDWITHEDGES
350
1B878
  3
LINEPATTERN
350
1B882
  3
REALISTIC
350
1B87E
  3
THICKEN
350
1B881
1001
ACAD
1000
TREAT_AS_HARD
1070
     0
  0
DICTIONARY
  5
1B979
102
{ACAD_REACTORS
330
1B86C
102
}
330
1B86C
100
AcDbDictionary
  3
ACMSTDDICTIONARY
350
1B984
  3
AMDTSECTSYM_ARROWCOLOR
350
1B99D
1001
ACAD
1000
TREAT_AS_HARD
1070
     0
  0
DICTIONARY
  5
1B921
102
{ACAD_REACTORS
330
1B86C
102
}
330
1B86C
100
AcDbDictionary
1001
ACAD
1000
TREAT_AS_HARD
1070
     0
  0
DICTIONARY
  5
1B9AE
102
{ACAD_REACTORS
330
1B86C
102
}
330
1B86C
100
AcDbDictionary
1001
ACAD
1000
TREAT_AS_HARD
1070
     0
  0
XRECORD
  5
1C84B
102
{ACAD_REACTORS
330
1B86C
102
}
330
1B86C
100
AcDbXrecord
  1
DWGPROPS COOKIE
  2

  3

  4

  6

  7

  8
c-ikeda
  9

300
=
301
=
302
=
303
=
304
=
305
=
306
=
307
=
308
=
309
=
 40
0.8464238657407406
 41
2454489.086194294
 42
2460349.596472256
  1

 90
        0
  0
XRECORD
  5
1C852
102
{ACAD_REACTORS
330
1BB85
102
}
330
1BB85
100
AcDbXrecord
102
VTR_0.000_0.000_1.000_1.000_VISUALSTYLE
340
1B87A
102
VTR_0.000_0.000_1.000_1.000_GRIDDISPLAY
 70
     3
102
VTR_0.000_0.000_1.000_1.000_GRIDMAJOR
 70
     5
102
VTR_0.000_0.000_1.000_1.000_DEFAULTLIGHTING
280
     1
102
VTR_0.000_0.000_1.000_1.000_DEFAULTLIGHTINGTYPE
 70
     0
102
VTR_0.000_0.000_1.000_1.000_BRIGHTNESS
141
0.0
102
VTR_0.000_0.000_1.000_1.000_CONTRAST
142
0.0
  0
DICTIONARY
  5
1BD4D
102
{ACAD_REACTORS
330
1B9CE
102
}
330
1B9CE
100
AcDbDictionary
1001
ACAD
1000
TREAT_AS_HARD
1070
     0
  0
DICTIONARY
  5
1B9CF
102
{ACAD_REACTORS
330
1B9CE
102
}
330
1B9CE
100
AcDbDictionary
1001
ACAD
1000
TREAT_AS_HARD
1070
     0
  0
DICTIONARY
  5
1BD4C
102
{ACAD_REACTORS
330
1B9CE
102
}
330
1B9CE
100
AcDbDictionary
1001
ACAD
1000
<All
1000
TREAT_AS_HARD
1070
     0
  0
XRECORD
  5
1C85A
102
{ACAD_REACTORS
330
1C859
102
}
330
1C859
100
AcDbXrecord
102
MATERIAL
340
1B873
  0
XRECORD
  5
1C86E
102
{ACAD_REACTORS
330
1C86D
102
}
330
1C86D
100
AcDbXrecord
102
MATERIAL
340
1B873
  0
XRECORD
  5
1C870
102
{ACAD_REACTORS
330
1C86F
102
}
330
1C86F
100
AcDbXrecord
102
MATERIAL
340
1B873
  0
XRECORD
  5
1C872
102
{ACAD_REACTORS
330
1C871
102
}
330
1C871
100
AcDbXrecord
102
MATERIAL
340
1B873
  0
XRECORD
  5
1C874
102
{ACAD_REACTORS
330
1C873
102
}
330
1C873
100
AcDbXrecord
102
MATERIAL
340
1B873
  0
XRECORD
  5
1C876
102
{ACAD_REACTORS
330
1C875
102
}
330
1C875
100
AcDbXrecord
102
MATERIAL
340
1B873
  0
XRECORD
  5
1C878
102
{ACAD_REACTORS
330
1C877
102
}
330
1C877
100
AcDbXrecord
102
MATERIAL
340
1B873
  0
XRECORD
  5
1C87A
102
{ACAD_REACTORS
330
1C879
102
}
330
1C879
100
AcDbXrecord
102
MATERIAL
340
1B873
  0
XRECORD
  5
1C87C
102
{ACAD_REACTORS
330
1C87B
102
}
330
1C87B
100
AcDbXrecord
102
MATERIAL
340
1B873
  0
XRECORD
  5
1C87E
102
{ACAD_REACTORS
330
1C87D
102
}
330
1C87D
100
AcDbXrecord
102
MATERIAL
340
1B873
  0
XRECORD
  5
1C880
102
{ACAD_REACTORS
330
1C87F
102
}
330
1C87F
100
AcDbXrecord
102
MATERIAL
340
1B873
  0
XRECORD
  5
1CA2C
102
{ACAD_REACTORS
330
1CA2B
102
}
330
1CA2B
100
AcDbXrecord
102
MATERIAL
340
0
  0
XRECORD
  5
1CA2D
102
{ACAD_REACTORS
330
1CA2B
102
}
330
1CA2B
100
AcDbXrecord
290
     0
  0
XRECORD
  5
1C862
102
{ACAD_REACTORS
330
1C861
102
}
330
1C861
100
AcDbXrecord
102
CAMERAPLOTTABLE
 70
     0
102
VISUALSTYLENONE
 70
     1
  0
XRECORD
  5
1C864
102
{ACAD_REACTORS
330
1C863
102
}
330
1C863
100
AcDbXrecord
102
CAMERAPLOTTABLE
 70
     0
102
VISUALSTYLENONE
 70
     1
  0
XRECORD
  5
1C866
102
{ACAD_REACTORS
330
1C865
102
}
330
1C865
100
AcDbXrecord
102
CAMERAPLOTTABLE
 70
     0
102
VISUALSTYLENONE
 70
     1
  0
XRECORD
  5
1C868
102
{ACAD_REACTORS
330
1C867
102
}
330
1C867
100
AcDbXrecord
102
CAMERAPLOTTABLE
 70
     0
102
VISUALSTYLENONE
 70
     1
  0
XRECORD
  5
1C86A
102
{ACAD_REACTORS
330
1C869
102
}
330
1C869
100
AcDbXrecord
102
CAMERAPLOTTABLE
 70
     0
102
VISUALSTYLENONE
 70
     1
  0
XRECORD
  5
1C86C
102
{ACAD_REACTORS
330
1C86B
102
}
330
1C86B
100
AcDbXrecord
102
CAMERAPLOTTABLE
 70
     0
102
VISUALSTYLENONE
 70
     1
  0
XRECORD
  5
1CAFB
102
{ACAD_REACTORS
330
1B9BD
102
}
330
1B9BD
100
AcDbXrecord
340
1B896
  0
SORTENTSTABLE
  5
1B9BE
102
{ACAD_REACTORS
330
1B9BD
102
}
330
1B9BD
100
AcDbSortentsTable
330
1B896
331
1B5E1
  5
1B5E3
331
1C378
  5
1C378
331
1C339
  5
1C339
331
1C302
  5
1C302
331
1B5E9
  5
1B5EB
331
1C521
  5
1C521
331
1C4EA
  5
1C4EA
331
1C4AB
  5
1C4AB
331
1C46C
  5
1C46C
331
1C42D
  5
1C42D
331
1C3F6
  5
1C3F6
331
1C380
  5
1C380
331
1C341
  5
1C341
331
1C30A
  5
1C30A
331
1B5F1
  5
1B5F3
331
1C3B7
  5
1C3B7
331
1C5E0
  5
1C5E0
331
1C5E8
  5
1C5E8
331
1C4F2
  5
1C4F2
331
1C4B3
  5
1C4B3
331
1C474
  5
1C474
331
1C435
  5
1C435
331
1C3FE
  5
1C3FE
331
1C388
  5
1C388
331
1C312
  5
1C312
331
1C2D3
  5
1C2D3
331
1C349
  5
1C349
331
1C3BF
  5
1C3BF
331
1C529
  5
1C529
331
1C5F0
  5
1C5F0
331
1C4FA
  5
1C4FA
331
1C4BB
  5
1C4BB
331
1C47C
  5
1C47C
331
1C406
  5
1C406
331
1C2DB
  5
1C2DB
331
1C351
  5
1C351
331
1C3C7
  5
1C3C7
331
1C43D
  5
1C43D
331
1C531
  5
1C531
331
1C539
  5
1C539
331
1C4C3
  5
1C4C3
331
1C445
  5
1C445
331
1C3CF
  5
1C3CF
331
1B5F9
  5
1B5FB
331
1C359
  5
1C359
331
1C31A
  5
1C31A
331
1C2E3
  5
1C2E3
331
1C390
  5
1C390
331
1C502
  5
1C502
331
1C4CB
  5
1C4CB
331
1C484
  5
1C484
331
1C40E
  5
1C40E
331
1C3D7
  5
1C3D7
331
1C361
  5
1C361
331
1C322
  5
1C322
331
1C2EB
  5
1C2EB
331
1C398
  5
1C398
331
1C44D
  5
1C44D
331
1C848
  5
1C848
331
1C50A
  5
1C50A
331
1C4D3
  5
1C4D3
331
1C48C
  5
1C48C
331
1C455
  5
1C455
331
1C416
  5
1C416
331
1C3DF
  5
1C3DF
331
1C369
  5
1C369
331
1C32A
  5
1C32A
331
1C2F3
  5
1C2F3
331
1C3A0
  5
1C3A0
331
1C5C9
  5
1C5C9
331
1C5D1
  5
1C5D1
331
1C512
  5
1C512
331
1C4DB
  5
1C4DB
331
1C494
  5
1C494
331
1C45D
  5
1C45D
331
1C41E
  5
1C41E
331
1C332
  5
1C332
331
1C2FB
  5
1C2FB
331
1C3A8
  5
1C3A8
331
1C3E7
  5
1C3E7
331
1C51A
  5
1C51A
331
1C4E3
  5
1C4E3
331
1C4A4
  5
1C4A4
331
1C465
  5
1C465
331
1C426
  5
1C426
331
1C3EF
  5
1C3EF
331
1C5D9
  5
1C5D9
331
1B5E2
  5
1B5E4
331
1C379
  5
1C379
331
1C33A
  5
1C33A
331
1C303
  5
1C303
331
1B5EA
  5
1B5EC
331
1C3B0
  5
1C3B0
331
1C5E1
  5
1C5E1
331
1C522
  5
1C522
331
1C4EB
  5
1C4EB
331
1C4AC
  5
1C4AC
331
1C46D
  5
1C46D
331
1C42E
  5
1C42E
331
1C3F7
  5
1C3F7
331
1C342
  5
1C342
331
1C30B
  5
1C30B
331
1B5F2
  5
1B5F4
331
1C381
  5
1C381
331
1C3B8
  5
1C3B8
331
1C5E9
  5
1C5E9
331
1C4F3
  5
1C4F3
331
1C4B4
  5
1C4B4
331
1C475
  5
1C475
331
1C3FF
  5
1C3FF
331
1C389
  5
1C389
331
1C313
  5
1C313
331
1C2D4
  5
1C2D4
331
1C34A
  5
1C34A
331
1C3C0
  5
1C3C0
331
1C436
  5
1C436
331
1C52A
  5
1C52A
331
1C5F1
  5
1C5F1
331
1C4FB
  5
1C4FB
331
1C4BC
  5
1C4BC
331
1C47D
  5
1C47D
331
1C407
  5
1C407
331
1C352
  5
1C352
331
1C2DC
  5
1C2DC
331
1C3C8
  5
1C3C8
331
1C43E
  5
1C43E
331
1C532
  5
1C532
331
1C53A
  5
1C53A
331
1C4C4
  5
1C4C4
331
1C446
  5
1C446
331
1C3D0
  5
1C3D0
331
1C35A
  5
1C35A
331
1C31B
  5
1C31B
331
1C2E4
  5
1C2E4
331
1C391
  5
1C391
331
1C503
  5
1C503
331
1C4CC
  5
1C4CC
331
1C485
  5
1C485
331
1C44E
  5
1C44E
331
1C40F
  5
1C40F
331
1C3D8
  5
1C3D8
331
1C362
  5
1C362
331
1C323
  5
1C323
331
1C2EC
  5
1C2EC
331
1C399
  5
1C399
331
1C849
  5
1C849
331
1C5CA
  5
1C5CA
331
1C50B
  5
1C50B
331
1C4D4
  5
1C4D4
331
1C48D
  5
1C48D
331
1C456
  5
1C456
331
1C417
  5
1C417
331
1C3E0
  5
1C3E0
331
1C32B
  5
1C32B
331
1C2F4
  5
1C2F4
331
1C36A
  5
1C36A
331
1C3A1
  5
1C3A1
331
1C513
  5
1C513
331
1C4DC
  5
1C4DC
331
1C495
  5
1C495
331
1C45E
  5
1C45E
331
1C3E8
  5
1C3E8
331
1C333
  5
1C333
331
1C2FC
  5
1C2FC
331
1C3A9
  5
1C3A9
331
1C41F
  5
1C41F
331
1C5D2
  5
1C5D2
331
1C5DA
  5
1C5DA
331
1C51B
  5
1C51B
331
1C4E4
  5
1C4E4
331
1C4A5
  5
1C4A5
331
1C466
  5
1C466
331
1C427
  5
1C427
331
1B5E3
  5
1B5E5
331
1C33B
  5
1C33B
331
1C304
  5
1C304
331
1B5EB
  5
1B5ED
331
1C37A
  5
1C37A
331
1C3B1
  5
1C3B1
331
1C3F0
  5
1C3F0
331
1C5E2
  5
1C5E2
331
1C523
  5
1C523
331
1C4EC
  5
1C4EC
331
1C4AD
  5
1C4AD
331
1C46E
  5
1C46E
331
1C382
  5
1C382
331
1C343
  5
1C343
331
1C30C
  5
1C30C
331
1B5F3
  5
1B5F5
331
1C3B9
  5
1C3B9
331
1C3F8
  5
1C3F8
331
1C42F
  5
1C42F
331
1C5EA
  5
1C5EA
331
1C4F4
  5
1C4F4
331
1C4B5
  5
1C4B5
331
1C476
  5
1C476
331
1C38A
  5
1C38A
331
1C314
  5
1C314
331
1C2D5
  5
1C2D5
331
1C34B
  5
1C34B
331
1C3C1
  5
1C3C1
331
1C400
  5
1C400
331
1C437
  5
1C437
331
1C52B
  5
1C52B
331
1C5F2
  5
1C5F2
331
1C4FC
  5
1C4FC
331
1C47E
  5
1C47E
331
1C353
  5
1C353
331
1C2DD
  5
1C2DD
331
1C3C9
  5
1C3C9
331
1C43F
  5
1C43F
331
1C4BD
  5
1C4BD
331
1C533
  5
1C533
331
1C4C5
  5
1C4C5
331
1C447
  5
1C447
331
1C53B
  5
1C53B
331
1C35B
  5
1C35B
331
1C31C
  5
1C31C
331
1C2E5
  5
1C2E5
331
1C392
  5
1C392
331
1C3D1
  5
1C3D1
331
1C408
  5
1C408
331
1C5C3
  5
1C5C3
331
1C504
  5
1C504
331
1C4CD
  5
1C4CD
331
1C486
  5
1C486
331
1C44F
  5
1C44F
331
1C324
  5
1C324
331
1C2ED
  5
1C2ED
331
1C363
  5
1C363
331
1C39A
  5
1C39A
331
1C3D9
  5
1C3D9
331
1C410
  5
1C410
331
1C5CB
  5
1C5CB
331
1C50C
  5
1C50C
331
1C4D5
  5
1C4D5
331
1C48E
  5
1C48E
331
1C457
  5
1C457
331
1C36B
  5
1C36B
331
1C32C
  5
1C32C
331
1C2F5
  5
1C2F5
331
1C3A2
  5
1C3A2
331
1C3E1
  5
1C3E1
331
1C418
  5
1C418
331
1C5D3
  5
1C5D3
331
1C514
  5
1C514
331
1C4DD
  5
1C4DD
331
1C420
  5
1C420
331
1C334
  5
1C334
331
1C2FD
  5
1C2FD
331
1C373
  5
1C373
331
1C3AA
  5
1C3AA
331
1C3E9
  5
1C3E9
331
1C45F
  5
1C45F
331
1C5DB
  5
1C5DB
331
1C51C
  5
1C51C
331
1C4E5
  5
1C4E5
331
1C4A6
  5
1C4A6
331
1C467
  5
1C467
331
1B5E4
  5
1B5E6
331
1C37B
  5
1C37B
331
1C33C
  5
1C33C
331
1C305
  5
1C305
331
1B5EC
  5
1B5EE
331
1C3B2
  5
1C3B2
331
1C3F1
  5
1C3F1
331
1C428
  5
1C428
331
1C5E3
  5
1C5E3
331
1C4ED
  5
1C4ED
331
1C4AE
  5
1C4AE
331
1C46F
  5
1C46F
331
1C383
  5
1C383
331
1C344
  5
1C344
331
1C30D
  5
1C30D
331
1B5F4
  5
1B5F6
331
1C3BA
  5
1C3BA
331
1C3F9
  5
1C3F9
331
1C430
  5
1C430
331
1C524
  5
1C524
331
1C5EB
  5
1C5EB
331
1C4F5
  5
1C4F5
331
1C4B6
  5
1C4B6
331
1C477
  5
1C477
331
1C38B
  5
1C38B
331
1C315
  5
1C315
331
1C2D6
  5
1C2D6
331
1C34C
  5
1C34C
331
1C3C2
  5
1C3C2
331
1C401
  5
1C401
331
1C438
  5
1C438
331
1C52C
  5
1C52C
331
1C4FD
  5
1C4FD
331
1C4BE
  5
1C4BE
331
1C47F
  5
1C47F
331
1C354
  5
1C354
331
1C2DE
  5
1C2DE
331
1C3CA
  5
1C3CA
331
1C440
  5
1C440
331
1C534
  5
1C534
331
1C53C
  5
1C53C
331
1C4C6
  5
1C4C6
331
1C448
  5
1C448
331
1C31D
  5
1C31D
331
1C2E6
  5
1C2E6
331
1C35C
  5
1C35C
331
1C393
  5
1C393
331
1C3D2
  5
1C3D2
331
1C409
  5
1C409
331
1C5C4
  5
1C5C4
331
1C505
  5
1C505
331
1C4CE
  5
1C4CE
331
1C487
  5
1C487
331
1C450
  5
1C450
331
1C364
  5
1C364
331
1C325
  5
1C325
331
1C2EE
  5
1C2EE
331
1C39B
  5
1C39B
331
1C3DA
  5
1C3DA
331
1C411
  5
1C411
331
1C5CC
  5
1C5CC
331
1C4D6
  5
1C4D6
331
1C458
  5
1C458
331
1C36C
  5
1C36C
331
1C32D
  5
1C32D
331
1C2F6
  5
1C2F6
331
1C3A3
  5
1C3A3
331
1C3E2
  5
1C3E2
331
1C419
  5
1C419
331
1C48F
  5
1C48F
331
1C50D
  5
1C50D
331
1C5D4
  5
1C5D4
331
1C515
  5
1C515
331
1C4DE
  5
1C4DE
331
1C460
  5
1C460
331
1C374
  5
1C374
331
1C335
  5
1C335
331
1C2FE
  5
1C2FE
331
1C3AB
  5
1C3AB
331
1C3EA
  5
1C3EA
331
1C421
  5
1C421
331
1C5DC
  5
1C5DC
331
1C4E6
  5
1C4E6
331
1C4A7
  5
1C4A7
331
1C51D
  5
1C51D
331
1B5E5
  5
1B5E7
331
1C468
  5
1C468
331
1C3B3
  5
1C3B3
331
1C37C
  5
1C37C
331
1C33D
  5
1C33D
331
1B5ED
  5
1B5EF
331
1C306
  5
1C306
331
1C3F2
  5
1C3F2
331
1C429
  5
1C429
331
1C5E4
  5
1C5E4
331
1C525
  5
1C525
331
1C4EE
  5
1C4EE
331
1C4AF
  5
1C4AF
331
1C470
  5
1C470
331
1C3BB
  5
1C3BB
331
1C384
  5
1C384
331
1C30E
  5
1C30E
331
1B5F5
  5
1B5F7
331
1C2CF
  5
1C2CF
331
1C345
  5
1C345
331
1C3FA
  5
1C3FA
331
1C431
  5
1C431
331
1C5EC
  5
1C5EC
331
1C4F6
  5
1C4F6
331
1C478
  5
1C478
331
1C3C3
  5
1C3C3
331
1C38C
  5
1C38C
331
1C316
  5
1C316
331
1C2D7
  5
1C2D7
331
1C34D
  5
1C34D
331
1C402
  5
1C402
331
1C439
  5
1C439
331
1C4B7
  5
1C4B7
331
1C52D
  5
1C52D
331
1C4FE
  5
1C4FE
331
1C4BF
  5
1C4BF
331
1C3CB
  5
1C3CB
331
1C2DF
  5
1C2DF
331
1C355
  5
1C355
331
1C441
  5
1C441
331
1C535
  5
1C535
331
1C4C7
  5
1C4C7
331
1C480
  5
1C480
331
1C449
  5
1C449
331
1C394
  5
1C394
331
1C35D
  5
1C35D
331
1C31E
  5
1C31E
331
1C2E7
  5
1C2E7
331
1C3D3
  5
1C3D3
331
1C40A
  5
1C40A
331
1C5C5
  5
1C5C5
331
1C4CF
  5
1C4CF
331
1C451
  5
1C451
331
1C39C
  5
1C39C
331
1C365
  5
1C365
331
1C326
  5
1C326
331
1C2EF
  5
1C2EF
331
1C3DB
  5
1C3DB
331
1C412
  5
1C412
331
1C488
  5
1C488
331
1C506
  5
1C506
331
1C5CD
  5
1C5CD
331
1C50E
  5
1C50E
331
1C4D7
  5
1C4D7
331
1C490
  5
1C490
331
1C459
  5
1C459
331
1C3A4
  5
1C3A4
331
1C36D
  5
1C36D
331
1C2F7
  5
1C2F7
331
1C32E
  5
1C32E
331
1C3E3
  5
1C3E3
331
1C41A
  5
1C41A
331
1C5D5
  5
1C5D5
331
1C4DF
  5
1C4DF
331
1C4A0
  5
1C4A0
331
1C461
  5
1C461
331
1C3AC
  5
1C3AC
331
1C375
  5
1C375
331
1C336
  5
1C336
331
1C2FF
  5
1C2FF
331
1C3EB
  5
1C3EB
331
1C422
  5
1C422
331
1C516
  5
1C516
331
1C5DD
  5
1C5DD
331
1C51E
  5
1C51E
331
1C4E7
  5
1C4E7
331
1B5DE
  5
1B5E0
331
1B5E6
  5
1B5E8
331
1C4A8
  5
1C4A8
331
1C469
  5
1C469
331
1C3B4
  5
1C3B4
331
1B5EE
  5
1B5F0
331
1C307
  5
1C307
331
1C33E
  5
1C33E
331
1C3F3
  5
1C3F3
331
1C42A
  5
1C42A
331
1C5E5
  5
1C5E5
331
1C526
  5
1C526
331
1C4EF
  5
1C4EF
331
1C4B0
  5
1C4B0
331
1C471
  5
1C471
331
1C3BC
  5
1C3BC
331
1C385
  5
1C385
331
1C346
  5
1C346
331
1C30F
  5
1C30F
331
1B5F6
  5
1B5F8
331
1C2D0
  5
1C2D0
331
1C3FB
  5
1C3FB
331
1C432
  5
1C432
331
1C5ED
  5
1C5ED
331
1C4F7
  5
1C4F7
331
1C4B8
  5
1C4B8
331
1C479
  5
1C479
331
1C3C4
  5
1C3C4
331
1C38D
  5
1C38D
331
1C317
  5
1C317
331
1C2D8
  5
1C2D8
331
1C34E
  5
1C34E
331
1C403
  5
1C403
331
1C43A
  5
1C43A
331
1C52E
  5
1C52E
331
1C4FF
  5
1C4FF
331
1C4C0
  5
1C4C0
331
1C3CC
  5
1C3CC
331
1C356
  5
1C356
331
1C442
  5
1C442
331
1C536
  5
1C536
331
1C2E0
  5
1C2E0
331
1C4C8
  5
1C4C8
331
1C44A
  5
1C44A
331
1C395
  5
1C395
331
1C35E
  5
1C35E
331
1C31F
  5
1C31F
331
1C2E8
  5
1C2E8
331
1C3D4
  5
1C3D4
331
1C40B
  5
1C40B
331
1C481
  5
1C481
331
1C5C6
  5
1C5C6
331
1C507
  5
1C507
331
1C4D0
  5
1C4D0
331
1C489
  5
1C489
331
1C452
  5
1C452
331
1C39D
  5
1C39D
331
1C366
  5
1C366
331
1C2F0
  5
1C2F0
331
1C327
  5
1C327
331
1C3DC
  5
1C3DC
331
1C413
  5
1C413
331
1C5CE
  5
1C5CE
331
1C4D8
  5
1C4D8
331
1C491
  5
1C491
331
1C45A
  5
1C45A
331
1C3A5
  5
1C3A5
331
1C36E
  5
1C36E
331
1C2F8
  5
1C2F8
331
1C32F
  5
1C32F
331
1C3E4
  5
1C3E4
331
1C41B
  5
1C41B
331
1C50F
  5
1C50F
331
1C5D6
  5
1C5D6
331
1C517
  5
1C517
331
1C4E0
  5
1C4E0
331
1C4A1
  5
1C4A1
331
1C462
  5
1C462
331
1C3AD
  5
1C3AD
331
1C376
  5
1C376
331
1C337
  5
1C337
331
1C3EC
  5
1C3EC
331
1C423
  5
1C423
331
1C5DE
  5
1C5DE
331
1C51F
  5
1C51F
331
1B5DF
  5
1B5E1
331
1C300
  5
1C300
331
1B5E7
  5
1B5E9
331
1C4E8
  5
1C4E8
331
1C4A9
  5
1C4A9
331
1C46A
  5
1C46A
331
1C308
  5
1C308
331
1B5EF
  5
1B5F1
331
1C33F
  5
1C33F
331
1C37E
  5
1C37E
331
1C3B5
  5
1C3B5
331
1C3F4
  5
1C3F4
331
1C42B
  5
1C42B
331
1C5E6
  5
1C5E6
331
1C4F0
  5
1C4F0
331
1C4B1
  5
1C4B1
331
1C2D1
  5
1C2D1
331
1B5F7
  5
1B5F9
331
1C347
  5
1C347
331
1C386
  5
1C386
331
1C3BD
  5
1C3BD
331
1C3FC
  5
1C3FC
331
1C433
  5
1C433
331
1C472
  5
1C472
331
1C527
  5
1C527
331
1C5EE
  5
1C5EE
331
1C4F8
  5
1C4F8
331
1C4B9
  5
1C4B9
331
1C47A
  5
1C47A
331
1C2D9
  5
1C2D9
331
1C34F
  5
1C34F
331
1C38E
  5
1C38E
331
1C3C5
  5
1C3C5
331
1C404
  5
1C404
331
1C43B
  5
1C43B
331
1C52F
  5
1C52F
331
1C4C1
  5
1C4C1
331
1C357
  5
1C357
331
1C3CD
  5
1C3CD
331
1C443
  5
1C443
331
1C537
  5
1C537
331
1C2E1
  5
1C2E1
331
1C318
  5
1C318
331
1C500
  5
1C500
331
1C4C9
  5
1C4C9
331
1C482
  5
1C482
331
1C44B
  5
1C44B
331
1C2E9
  5
1C2E9
331
1C320
  5
1C320
331
1C35F
  5
1C35F
331
1C396
  5
1C396
331
1C3D5
  5
1C3D5
331
1C40C
  5
1C40C
331
1C5C7
  5
1C5C7
331
1C508
  5
1C508
331
1C4D1
  5
1C4D1
331
1C48A
  5
1C48A
331
1C453
  5
1C453
331
1C2F1
  5
1C2F1
331
1C328
  5
1C328
331
1C367
  5
1C367
331
1C39E
  5
1C39E
331
1C3DD
  5
1C3DD
331
1C414
  5
1C414
331
1C510
  5
1C510
331
1C4D9
  5
1C4D9
331
1C492
  5
1C492
331
1C2F9
  5
1C2F9
331
1C330
  5
1C330
331
1C36F
  5
1C36F
331
1C3A6
  5
1C3A6
331
1C3E5
  5
1C3E5
331
1C41C
  5
1C41C
331
1C45B
  5
1C45B
331
1C5CF
  5
1C5CF
331
1C5D7
  5
1C5D7
331
1C518
  5
1C518
331
1C4E1
  5
1C4E1
331
1C4A2
  5
1C4A2
331
1C463
  5
1C463
331
1C377
  5
1C377
331
1C3AE
  5
1C3AE
331
1C3ED
  5
1C3ED
331
1C424
  5
1C424
331
1C5DF
  5
1C5DF
331
1B5E0
  5
1B5E2
331
1C301
  5
1C301
331
1B5E8
  5
1B5EA
331
1C338
  5
1C338
331
1C520
  5
1C520
331
1C4AA
  5
1C4AA
331
1C42C
  5
1C42C
331
1C309
  5
1C309
331
1B5F0
  5
1B5F2
331
1C340
  5
1C340
331
1C37F
  5
1C37F
331
1C3B6
  5
1C3B6
331
1C3F5
  5
1C3F5
331
1C46B
  5
1C46B
331
1C4E9
  5
1C4E9
331
1C4F1
  5
1C4F1
331
1C4B2
  5
1C4B2
331
1C473
  5
1C473
331
1C311
  5
1C311
331
1C2D2
  5
1C2D2
331
1C348
  5
1C348
331
1C387
  5
1C387
331
1C3BE
  5
1C3BE
331
1C3FD
  5
1C3FD
331
1C434
  5
1C434
331
1C528
  5
1C528
331
1C5E7
  5
1C5E7
331
1C5EF
  5
1C5EF
331
1C4F9
  5
1C4F9
331
1C4BA
  5
1C4BA
331
1C47B
  5
1C47B
331
1C2DA
  5
1C2DA
331
1C350
  5
1C350
331
1C38F
  5
1C38F
331
1C3C6
  5
1C3C6
331
1C405
  5
1C405
331
1C43C
  5
1C43C
331
1C530
  5
1C530
331
1C538
  5
1C538
331
1C4C2
  5
1C4C2
331
1C3CE
  5
1C3CE
331
1C444
  5
1C444
331
1B5F8
  5
1B5FA
331
1C2E2
  5
1C2E2
331
1C319
  5
1C319
331
1C358
  5
1C358
331
1C501
  5
1C501
331
1C4CA
  5
1C4CA
331
1C483
  5
1C483
331
1C44C
  5
1C44C
331
1C2EA
  5
1C2EA
331
1C321
  5
1C321
331
1C360
  5
1C360
331
1C397
  5
1C397
331
1C3D6
  5
1C3D6
331
1C40D
  5
1C40D
331
1C5C8
  5
1C5C8
331
1C509
  5
1C509
331
1C4D2
  5
1C4D2
331
1C48B
  5
1C48B
331
1C2F2
  5
1C2F2
331
1C329
  5
1C329
331
1C368
  5
1C368
331
1C39F
  5
1C39F
331
1C3DE
  5
1C3DE
331
1C415
  5
1C415
331
1C454
  5
1C454
331
1C5D0
  5
1C5D0
331
1C511
  5
1C511
331
1C493
  5
1C493
331
1C45C
  5
1C45C
331
1C2FA
  5
1C2FA
331
1C331
  5
1C331
331
1C370
  5
1C370
331
1C3A7
  5
1C3A7
331
1C3E6
  5
1C3E6
331
1C41D
  5
1C41D
331
1C4DA
  5
1C4DA
331
1C5D8
  5
1C5D8
331
1C4A3
  5
1C4A3
331
1C3AF
  5
1C3AF
331
1C3EE
  5
1C3EE
331
1C425
  5
1C425
331
1C464
  5
1C464
331
1C519
  5
1C519
  0
XRECORD
  5
1CAFA
102
{ACAD_REACTORS
330
1CAF9
102
}
330
1CAF9
100
AcDbXrecord
340
1B892
  0
XRECORD
  5
1C84F
102
{ACAD_REACTORS
330
1C84E
102
}
330
1C84E
100
AcDbXrecord
102
SHADEPLOT
 70
     0
102
VISUALSTYLE
340
1B87A
102
GRIDDISPLAY
 70
     0
102
GRIDMAJOR
 70
     5
102
DEFAULTLIGHTING
280
     1
102
DEFAULTLIGHTINGTYPE
 70
     1
102
BRIGHTNESS
141
0.0
102
CONTRAST
142
0.0
  0
XRECORD
  5
1C851
102
{ACAD_REACTORS
330
1C850
102
}
330
1C850
100
AcDbXrecord
102
SHADEPLOT
 70
     0
102
VISUALSTYLE
340
1B87A
102
GRIDDISPLAY
 70
     0
102
GRIDMAJOR
 70
     5
102
DEFAULTLIGHTING
280
     1
102
DEFAULTLIGHTINGTYPE
 70
     1
102
BRIGHTNESS
141
0.0
102
CONTRAST
142
0.0
  0
XRECORD
  5
1C84D
102
{ACAD_REACTORS
330
1C84C
102
}
330
1C84C
100
AcDbXrecord
 70
     1
  0
ACAD_ZOMBIE_OBJECT
  5
1B872
102
{ACAD_XDICTIONARY
360
1C855
102
}
102
{ACAD_REACTORS
330
1B870
102
}
330
1B870
100
AcDbZombieObject
 90
      499
 91
      593
 93
      582
310
42109E509B1BD8DAC02004014040405AA6A9AA4060050101016A9AA6A9018000000000000E03F4040405AA6A9AA40650101016A9AA6A90190101016A9AA6A90194040405AA6A9AA403
 94
        0
1001
ACAD
1000
AcadProxyRoundTripData
1071
      501
1071
   917527
1070
     0
  0
ACAD_ZOMBIE_OBJECT
  5
1B871
102
{ACAD_XDICTIONARY
360
1C853
102
}
102
{ACAD_REACTORS
330
1B870
102
}
330
1B870
100
AcDbZombieObject
 90
      499
 91
      593
 93
      582
310
42109E53185E595C802004014040405AA6A9AA4060050101016A9AA6A9018000000000000E03F4040405AA6A9AA40650101016A9AA6A90190101016A9AA6A90194040405AA6A9AA403
 94
        0
1001
ACAD
1000
AcadProxyRoundTripData
1071
      501
1071
   917527
1070
     0
  0
ACAD_ZOMBIE_OBJECT
  5
1B873
102
{ACAD_XDICTIONARY
360
1C857
102
}
102
{ACAD_REACTORS
330
1B870
102
}
330
1B870
100
AcDbZombieObject
 90
      499
 91
      593
 93
      574
310
41D1DB1BD8985B002004014040405AA6A9AA4060050101016A9AA6A9018000000000000E03F4040405AA6A9AA40650101016A9AA6A90190101016A9AA6A90194040405AA6A9AA400
 94
        0
1001
ACAD
1000
AcadProxyRoundTripData
1071
      501
1071
   917527
1070
     0
  0
MLINESTYLE
  5
1B88C
102
{ACAD_REACTORS
330
1B88B
102
}
330
1B88B
100
AcDbMlineStyle
  2
STANDARD
 70
     0
  3

 62
   256
 51
90.0
 52
90.0
 71
     2
 49
0.5
 62
   256
  6
BYLAYER
 49
-0.5
 62
   256
  6
BYLAYER
  0
ACAD_ZOMBIE_OBJECT
  5
1B891
102
{ACAD_XDICTIONARY
360
1C85B
102
}
102
{ACAD_REACTORS
330
1B890
102
}
330
1B890
100
AcDbZombieObject
 90
      499
 91
      593
 93
     1849
310
4254DD185B99185C990028B81E85EB51B8AE3F2E07A17AD46E2B8FC02B5E8DC0F42B1CFD028000000C1008070000C3001FDFF8000000C1003FBFF000000182007F7FE00000030400FEFFC00000060801FDFF8000000C1003FBFF00000018200000000000000681FA0B0000001820100E000186003FBFF000000182007F7FE0
310
0000030400FEFFC00000060801FDFF8000000C1003FBFF000000182007F7FE000000304000AD7A3703D0AC73F4160000003040201C00030C007F7FE00000030400FEFFC00000060801FDFF8000000C1003FBFF000000182007F7FE00000030400FEFFC000000608016
340
1B886
340
1B886
340
1B886
 94
        0
1001
ACAD
1000
AcadProxyRoundTripData
1071
      503
1071
   917527
1070
     0
  0
ACAD_ZOMBIE_OBJECT
  5
1B87A
102
{ACAD_REACTORS
330
1B874
102
}
330
1B874
100
AcDbZombieObject
 90
      499
 91
      593
 93
      444
310
430C9915DA5C99599C985B59401049028333333333333E3BF0000000000000FB0107901411070040501600405405064090741402480A0340
 94
        0
1001
ACAD
1000
AcDbSavedByObjectVersion
1070
     0
1000
AcadProxyRoundTripData
1071
      502
1071
   917527
1070
     0
  0
ACAD_ZOMBIE_OBJECT
  5
1B87C
102
{ACAD_REACTORS
330
1B874
102
}
330
1B874
100
AcDbZombieObject
 90
      499
 91
      593
 93
      508
310
428CD108121A5919195B8010640502408333333333333E3BF0000000000000FB01079024090700405020000000000001110200405405064090740C02480A0344
 94
        0
1001
ACAD
1000
AcDbSavedByObjectVersion
1070
     0
1000
AcadProxyRoundTripData
1071
      502
1071
   917527
1070
     0
  0
ACAD_ZOMBIE_OBJECT
  5
1B87B
102
{ACAD_REACTORS
330
1B874
102
}
330
1B874
100
AcDbZombieObject
 90
      499
 91
      593
 93
      444
310
430CD915DA5C99599C985B59401059028333333333333E3BF0000000000000FB0107901411070040501600405405064090741402480A0340
 94
        0
1001
ACAD
1000
AcDbSavedByObjectVersion
1070
     0
1000
AcadProxyRoundTripData
1071
      502
1071
   917527
1070
     0
  0
ACAD_ZOMBIE_OBJECT
  5
1B879
102
{ACAD_REACTORS
330
1B874
102
}
330
1B874
100
AcDbZombieObject
 90
      499
 91
      593
 93
      396
310
4190985CDA58C0107406404333333333333E3BF0000000000000FB0107A41107004050150841D405064090741402480A0356
 94
        0
1001
ACAD
1000
AcDbSavedByObjectVersion
1070
     0
1000
AcadProxyRoundTripData
1071
      502
1071
   917527
1070
     0
  0
ACAD_ZOMBIE_OBJECT
  5
1B880
102
{ACAD_REACTORS
330
1B874
102
}
330
1B874
100
AcDbZombieObject
 90
      499
 91
      593
 93
      436
310
42509C9A59DA1D195B8010C409028333333333333E3BF0000000000000FB010790141107004050150841D405064090741402480A029956
 94
        0
1001
ACAD
1000
AcDbSavedByObjectVersion
1070
     0
1000
AcadProxyRoundTripData
1071
      502
1071
   917527
1070
     0
  0
ACAD_ZOMBIE_OBJECT
  5
1B884
102
{ACAD_REACTORS
330
1B874
102
}
330
1B874
100
AcDbZombieObject
 90
      499
 91
      593
 93
      460
310
4310DBDB1BDC90DA185B99D9401104090240C333333333333E3BF0000000000000FB0108901411070040501508421405064090741402480A0354
 94
        0
1001
ACAD
1000
AcDbSavedByObjectVersion
1070
     0
1000
AcadProxyRoundTripData
1071
      502
1071
   917527
1070
     0
  0
ACAD_ZOMBIE_OBJECT
  5
1B87D
102
{ACAD_REACTORS
330
1B874
102
}
330
1B874
100
AcDbZombieObject
 90
      499
 91
      593
 93
      508
310
42D0DBDB98D95C1D1D585B0010940D028333333333333E3BF0000000000000FB0107902409070040501000000000000111010841D405064090740C02480A0344
 94
        0
1001
ACAD
1000
AcDbSavedByObjectVersion
1070
     0
1000
AcadProxyRoundTripData
1071
      502
1071
   917527
1070
     0
  0
ACAD_ZOMBIE_OBJECT
  5
1B87F
102
{ACAD_REACTORS
330
1B874
102
}
330
1B874
100
AcDbZombieObject
 90
      499
 91
      593
 93
      420
310
41111A5B4010B409028333333333333E3BF0000000000000FB010790141107004050150841D405064090741402480A02677FFFFFDB
 94
        0
1001
ACAD
1000
AcDbSavedByObjectVersion
1070
     0
1000
AcadProxyRoundTripData
1071
      502
1071
   917527
1070
     0
  0
ACAD_ZOMBIE_OBJECT
  5
1B883
102
{ACAD_REACTORS
330
1B874
102
}
330
1B874
100
AcDbZombieObject
 90
      499
 91
      593
 93
      452
310
43119858D95C185D1D195C9B8010F409028333333333333E3BF0000000000000FB010790141107004050150841D405064090741402480A0350
 94
        0
1001
ACAD
1000
AcDbSavedByObjectVersion
1070
     0
1000
AcadProxyRoundTripData
1071
      502
1071
   917527
1070
     0
  0
ACAD_ZOMBIE_OBJECT
  5
1B875
102
{ACAD_REACTORS
330
1B874
102
}
330
1B874
100
AcDbZombieObject
 90
      499
 91
      593
 93
      396
310
41519B185D00240901404333333333333E3BF0000000000000F9010740A41107004050150841D405064090741402480A1B56
 94
        0
1001
ACAD
1000
AcDbSavedByObjectVersion
1070
     0
1000
AcadProxyRoundTripData
1071
      502
1071
   917527
1070
     0
  0
ACAD_ZOMBIE_OBJECT
  5
1B876
102
{ACAD_REACTORS
330
1B874
102
}
330
1B874
100
AcDbZombieObject
 90
      499
 91
      593
 93
      484
310
43919B185D15DA5D1A115919D95CC010140901404333333333333E3BF0000000000000F9010740901411070040501600405405064090741402480A1B56
 94
        0
1001
ACAD
1000
AcDbSavedByObjectVersion
1070
     0
1000
AcadProxyRoundTripData
1071
      502
1071
   917527
1070
     0
  0
ACAD_ZOMBIE_OBJECT
  5
1B877
102
{ACAD_REACTORS
330
1B874
102
}
330
1B874
100
AcDbZombieObject
 90
      499
 91
      593
 93
      420
310
4211DBDD5C985D590010240902404333333333333E3BF0000000000000F9010740A411070040501641D405064090741402480A1B50
 94
        0
1001
ACAD
1000
AcDbSavedByObjectVersion
1070
     0
1000
AcadProxyRoundTripData
1071
      502
1071
   917527
1070
     0
  0
ACAD_ZOMBIE_OBJECT
  5
1B878
102
{ACAD_REACTORS
330
1B874
102
}
330
1B874
100
AcDbZombieObject
 90
      499
 91
      593
 93
      508
310
4451DBDD5C985D5915DA5D1A115919D95CC010340902404333333333333E3BF0000000000000F9010740901411070040501600405405064090741402480A1B54
 94
        0
1001
ACAD
1000
AcDbSavedByObjectVersion
1070
     0
1000
AcadProxyRoundTripData
1071
      502
1071
   917527
1070
     0
  0
ACAD_ZOMBIE_OBJECT
  5
1B882
102
{ACAD_REACTORS
330
1B874
102
}
330
1B874
100
AcDbZombieObject
 90
      499
 91
      593
 93
      452
310
43131A5B995C185D1D195C9B8010E409028333333333333E3BF0000000000000FB010790141107004050750841D405064090741402483A0350
 94
        0
1001
ACAD
1000
AcDbSavedByObjectVersion
1070
     0
1000
AcadProxyRoundTripData
1071
      502
1071
   917527
1070
     0
  0
ACAD_ZOMBIE_OBJECT
  5
1B87E
102
{ACAD_REACTORS
330
1B874
102
}
330
1B874
100
AcDbZombieObject
 90
      499
 91
      593
 93
      428
310
429499585B1A5CDD1A58C0108409028333333333333E3BF0000000000000FB01079019070040501508421405064090741402480A1B45
 94
        0
1001
ACAD
1000
AcDbSavedByObjectVersion
1070
     0
1000
AcadProxyRoundTripData
1071
      502
1071
   917527
1070
     0
  0
ACAD_ZOMBIE_OBJECT
  5
1B881
102
{ACAD_REACTORS
330
1B874
102
}
330
1B874
100
AcDbZombieObject
 90
      499
 91
      593
 93
      420
310
42151A1A58DAD95B8010D409028333333333333E3BF0000000000000FB010790141107004050150C41D405064090741402480A0352
 94
        0
1001
ACAD
1000
AcDbSavedByObjectVersion
1070
     0
1000
AcadProxyRoundTripData
1071
      502
1071
   917527
1070
     0
  0
DICTIONARY
  5
1B984
102
{ACAD_REACTORS
330
1B979
102
}
330
1B979
100
AcDbDictionary
1001
ACAD
1000
TREAT_AS_HARD
1070
     0
  0
XRECORD
  5
1B99D
102
{ACAD_REACTORS
330
1B979
102
}
330
1B979
100
AcDbXrecord
 90
-1023410169
  0
DICTIONARY
  5
1C855
330
1B872
100
AcDbDictionary
  3
ACAD_XREC_ROUNDTRIP
350
1C856
1001
ACAD
1000
TREAT_AS_HARD
1070
     1
  0
DICTIONARY
  5
1C853
330
1B871
100
AcDbDictionary
  3
ACAD_XREC_ROUNDTRIP
350
1C854
1001
ACAD
1000
TREAT_AS_HARD
1070
     1
  0
DICTIONARY
  5
1C857
330
1B873
100
AcDbDictionary
  3
ACAD_XREC_ROUNDTRIP
350
1C858
1001
ACAD
1000
TREAT_AS_HARD
1070
     1
  0
DICTIONARY
  5
1C85B
330
1B891
100
AcDbDictionary
  3
ACAD_XREC_ROUNDTRIP
350
1C85C
1001
ACAD
1000
TREAT_AS_HARD
1070
     1
  0
XRECORD
  5
1C856
102
{ACAD_REACTORS
330
1C855
102
}
330
1C855
100
AcDbXrecord
102
MATERIAL
148
0.0
149
0.0
149
0.0
 93
        0
 94
       63
282
     0
 72
     1
 77
     1
171
     1
175
     1
179
     1
273
     0
  0
XRECORD
  5
1C854
102
{ACAD_REACTORS
330
1C853
102
}
330
1C853
100
AcDbXrecord
102
MATERIAL
148
0.0
149
0.0
149
0.0
 93
        0
 94
       63
282
     0
 72
     1
 77
     1
171
     1
175
     1
179
     1
273
     0
  0
XRECORD
  5
1C858
102
{ACAD_REACTORS
330
1C857
102
}
330
1C857
100
AcDbXrecord
102
MATERIAL
148
0.0
149
0.0
149
0.0
 93
        0
 94
       63
282
     0
 72
     1
 77
     1
171
     1
175
     1
179
     1
273
     0
  0
XRECORD
  5
1C85C
102
{ACAD_REACTORS
330
1C85B
102
}
330
1C85B
100
AcDbXrecord
102
ACAD_ROUNDTRIP_PRE2007_TABLESTYLE
 90
      512
 91
        0
  1

 92
      512
 93
        0
  2

 94
      512
 95
        0
  3

  0
ENDSEC
  0
EOF
