  0
SECTION
  2
HEADER
  9
$ACADVER
  1
AC1012
  9
$DWGCODEPAGE
  3
dos932
  9
$INSBASE
 10
0.0
 20
0.0
 30
0.0
  9
$EXTMIN
 10
4228.699146888245
 20
-50.15783595326207
 30
0.0
  9
$EXTMAX
 10
5026.899146888245
 20
520.3421640467383
 30
0.0
  9
$LIMMIN
 10
4209.399146888245
 20
-66.45783595326202
  9
$LIMMAX
 10
5050.399146888246
 20
527.542164046738
  9
$ORTHOMODE
 70
     0
  9
$REGENMODE
 70
     1
  9
$FILLMODE
 70
     1
  9
$QTEXTMODE
 70
     0
  9
$MIRRTEXT
 70
     1
  9
$DRAGMODE
 70
     2
  9
$LTSCALE
 40
2.0
  9
$OSMODE
 70
  3071
  9
$ATTMODE
 70
     1
  9
$TEXTSIZE
 40
2.5
  9
$TRACEWID
 40
1.0
  9
$TEXTSTYLE
  7
SIMPLEXT
  9
$CLAYER
  8
AM_0
  9
$CELTYPE
  6
BYLAYER
  9
$CECOLOR
 62
   256
  9
$CELTSCALE
 40
1.0
  9
$DELOBJ
 70
     1
  9
$DISPSILH
 70
     0
  9
$DIMSCALE
 40
2.0
  9
$DIMASZ
 40
1.0
  9
$DIMEXO
 40
1.0
  9
$DIMDLI
 40
7.0
  9
$DIMRND
 40
0.0
  9
$DIMDLE
 40
0.0
  9
$DIMEXE
 40
1.0
  9
$DIMTP
 40
0.1
  9
$DIMTM
 40
0.1
  9
$DIMTXT
 40
3.0
  9
$DIMCEN
 40
0.0
  9
$DIMTSZ
 40
0.0
  9
$DIMTOL
 70
     0
  9
$DIMLIM
 70
     0
  9
$DIMTIH
 70
     0
  9
$DIMTOH
 70
     0
  9
$DIMSE1
 70
     0
  9
$DIMSE2
 70
     0
  9
$DIMTAD
 70
     1
  9
$DIMZIN
 70
     8
  9
$DIMBLK
  1

  9
$DIMASO
 70
     1
  9
$DIMSHO
 70
     1
  9
$DIMPOST
  1

  9
$DIMAPOST
  1
"
  9
$DIMALT
 70
     0
  9
$DIMALTD
 70
     2
  9
$DIMALTF
 40
0.0393701
  9
$DIMLFAC
 40
1.0
  9
$DIMTOFL
 70
     1
  9
$DIMTVP
 40
0.0
  9
$DIMTIX
 70
     1
  9
$DIMSOXD
 70
     0
  9
$DIMSAH
 70
     0
  9
$DIMBLK1
  1

  9
$DIMBLK2
  1

  9
$DIMSTYLE
  2
DTOS-2
  9
$DIMCLRD
 70
   256
  9
$DIMCLRE
 70
   256
  9
$DIMCLRT
 70
   256
  9
$DIMTFAC
 40
0.71
  9
$DIMGAP
 40
1.0
  9
$DIMJUST
 70
     0
  9
$DIMSD1
 70
     0
  9
$DIMSD2
 70
     0
  9
$DIMTOLJ
 70
     1
  9
$DIMTZIN
 70
     8
  9
$DIMALTZ
 70
     8
  9
$DIMALTTZ
 70
     8
  9
$DIMFIT
 70
     5
  9
$DIMUPT
 70
     0
  9
$DIMUNIT
 70
     2
  9
$DIMDEC
 70
     4
  9
$DIMTDEC
 70
     4
  9
$DIMALTU
 70
     2
  9
$DIMALTTD
 70
     2
  9
$DIMTXSTY
  7
STANDARD
  9
$DIMAUNIT
 70
     0
  9
$LUNITS
 70
     2
  9
$LUPREC
 70
     4
  9
$SKETCHINC
 40
1.0
  9
$FILLETRAD
 40
0.0
  9
$AUNITS
 70
     0
  9
$AUPREC
 70
     0
  9
$MENU
  1
.
  9
$ELEVATION
 40
0.0
  9
$PELEVATION
 40
0.0
  9
$THICKNESS
 40
0.0
  9
$LIMCHECK
 70
     0
  9
$BLIPMODE
 70
     0
  9
$CHAMFERA
 40
20.0
  9
$CHAMFERB
 40
20.0
  9
$CHAMFERC
 40
0.0
  9
$CHAMFERD
 40
0.0
  9
$SKPOLY
 70
     0
  9
$TDCREATE
 40
2454489.086194294
  9
$TDUPDATE
 40
2460361.735164340
  9
$TDINDWG
 40
0.8567128819
  9
$TDUSRTIMER
 40
0.8563260532
  9
$USRTIMER
 70
     1
  9
$ANGBASE
 50
0.0
  9
$ANGDIR
 70
     0
  9
$PDMODE
 70
     0
  9
$PDSIZE
 40
0.0
  9
$PLINEWID
 40
0.0
  9
$COORDS
 70
     1
  9
$SPLFRAME
 70
     0
  9
$SPLINETYPE
 70
     6
  9
$SPLINESEGS
 70
     8
  9
$ATTDIA
 70
     1
  9
$ATTREQ
 70
     1
  9
$HANDLING
 70
     1
  9
$HANDSEED
  5
1C3C9
  9
$SURFTAB1
 70
     6
  9
$SURFTAB2
 70
     6
  9
$SURFTYPE
 70
     6
  9
$SURFU
 70
     6
  9
$SURFV
 70
     6
  9
$UCSNAME
  2

  9
$UCSORG
 10
0.0
 20
0.0
 30
0.0
  9
$UCSXDIR
 10
1.0
 20
0.0
 30
0.0
  9
$UCSYDIR
 10
0.0
 20
1.0
 30
0.0
  9
$PUCSNAME
  2

  9
$PUCSORG
 10
0.0
 20
0.0
 30
0.0
  9
$PUCSXDIR
 10
1.0
 20
0.0
 30
0.0
  9
$PUCSYDIR
 10
0.0
 20
1.0
 30
0.0
  9
$USERI1
 70
     0
  9
$USERI2
 70
     0
  9
$USERI3
 70
     0
  9
$USERI4
 70
     0
  9
$USERI5
 70
     0
  9
$USERR1
 40
0.0
  9
$USERR2
 40
0.0
  9
$USERR3
 40
0.0
  9
$USERR4
 40
0.0
  9
$USERR5
 40
0.0
  9
$WORLDVIEW
 70
     0
  9
$SHADEDGE
 70
     3
  9
$SHADEDIF
 70
    70
  9
$TILEMODE
 70
     1
  9
$MAXACTVP
 70
    48
  9
$PINSBASE
 10
0.0
 20
0.0
 30
0.0
  9
$PLIMCHECK
 70
     0
  9
$PEXTMIN
 10
-81.24937706734659
 20
-12.61109972763063
 30
0.0
  9
$PEXTMAX
 10
347.9493587567997
 20
215.8110938148499
 30
0.0
  9
$PLIMMIN
 10
0.0
 20
0.0
  9
$PLIMMAX
 10
420.0
 20
297.0
  9
$UNITMODE
 70
     0
  9
$VISRETAIN
 70
     1
  9
$PLINEGEN
 70
     0
  9
$PSLTSCALE
 70
     1
  9
$TREEDEPTH
 70
  3020
  9
$PICKSTYLE
 70
     1
  9
$CMLSTYLE
  2
STANDARD
  9
$CMLJUST
 70
     0
  9
$CMLSCALE
 40
1.0
  9
$SAVEIMAGES
 70
     1
  0
ENDSEC
  0
SECTION
  2
CLASSES
  0
CLASS
  1
ACDBDICTIONARYWDFLT
  2
AcDbDictionaryWithDefault
  3
AutoCAD 2000
 90
    32768
280
     0
281
     0
  0
CLASS
  1
MATERIAL
  2
AcDbMaterial
  3
ObjectDBX Classes
 90
    33921
280
     0
281
     0
  0
CLASS
  1
VISUALSTYLE
  2
AcDbVisualStyle
  3
ObjectDBX Classes
 90
    36863
280
     0
281
     0
  0
CLASS
  1
TABLESTYLE
  2
AcDbTableStyle
  3
ObjectDBX Classes
 90
    36863
280
     0
281
     0
  0
CLASS
  1
ACME_DOCUMENT
  2
AcMeDbDoc
  3
AcMeServices
 90
    32768
280
     0
281
     0
  0
CLASS
  1
AMGSETTINGSOBJ
  2
AmgSettingsObj
  3
"AcadM|Product Description: AutoCAD Mechanical|Company: Autodesk"
 90
    32768
280
     0
281
     0
  0
CLASS
  1
ACMESCOPE
  2
AcMeScope
  3
AcMeServices
 90
    32768
280
     0
281
     0
  0
CLASS
  1
ACMECOMMANDHISTORY
  2
AcMeCommandHistory
  3
AcMeServices
 90
    32768
280
     0
281
     0
  0
CLASS
  1
ACIMSYSVARMAN
  2
AcImSysVarManager
  3
AcMeServices
 90
    32768
280
     0
281
     0
  0
CLASS
  1
ACIMINTSYSVAR
  2
AcImIntSysVar
  3
AcMeServices
 90
    32768
280
     0
281
     0
  0
CLASS
  1
ACMEDRAWINGMAN
  2
AcMeDrawingMan
  3
AcMeServices
 90
    32768
280
     0
281
     0
  0
CLASS
  1
ACMEVIEW
  2
AcMeView
  3
AcMeServices
 90
    32768
280
     0
281
     0
  0
CLASS
  1
ACDBENTITYCACHE
  2
AcMeEntityCache
  3
AcMeServices
 90
    32768
280
     0
281
     0
  0
CLASS
  1
GSMANAGER
  2
AcMeGSManager
  3
AcMeServices
 90
    32768
280
     0
281
     0
  0
CLASS
  1
AMDTINTERNALREACTOR
  2
AmdtInternalReactor
  3
AcMeServices
 90
    32768
280
     0
281
     0
  0
CLASS
  1
ACMESTATEMGR
  2
AcMeStateMgr
  3
AcMeServices
 90
    32768
280
     0
281
     0
  0
CLASS
  1
ACGREFMASTER
  2
AcGrefMaster
  3
AcAttribServices
 90
    32768
280
     0
281
     0
  0
CLASS
  1
AM_DRAWING_MGR
  2
AcDmDwgMgr
  3
AcMechDwgViewMgmt
 90
    32768
280
     0
281
     0
  0
CLASS
  1
AM_DWG_DOCUMENT
  2
AcDmDwgDocument
  3
AcMechDwgViewMgmt
 90
    32768
280
     0
281
     0
  0
CLASS
  1
AM_DWG_SHEET
  2
AcDmSheet
  3
AcMechDwgViewMgmt
 90
    32768
280
     0
281
     0
  0
CLASS
  1
AM_VIEWDIMPARMAP
  2
AcDmViewDimParMap
  3
AcMechDwgViewMgmt
 90
    32768
280
     0
281
     0
  0
CLASS
  1
ACIMREALSYSVAR
  2
AcImRealSysVar
  3
AcMeServices
 90
    32768
280
     0
281
     0
  0
CLASS
  1
AM_DWGMGR_NAME
  2
AcDmDwgMgrName
  3
AcMechDwgViewMgmt
 90
    32768
280
     0
281
     0
  0
CLASS
  1
ACME_DATABASE
  2
AcMeDbDatabase
  3
AcMeServices
 90
    32768
280
     0
281
     0
  0
CLASS
  1
ACRFINSADJUSTERMGR
  2
AcRfInsAdjusterMgr
  3
AcMeServices
 90
    32768
280
     0
281
     0
  0
CLASS
  1
ACGREFACADMASTER
  2
AcGrefacadMaster
  3
AcGrefServices
 90
    32768
280
     0
281
     0
  0
CLASS
  1
AMDTMENUSTATEMGR
  2
AmdtMenuStateMgr
  3
McadcomServices
 90
    32768
280
     0
281
     0
  0
CLASS
  1
AMDTMCOMMENUSTATE
  2
AmdtMcomMenuState
  3
McadcomServices
 90
    32768
280
     0
281
     0
  0
CLASS
  1
AMIMASTER
  2
AmiMaster
  3
AmiServices
 90
    32768
280
     0
281
     0
  0
CLASS
  1
MAPIAMMOUDLE
  2
MApiAmModule
  3
MApiAmServices
 90
    32768
280
     0
281
     0
  0
CLASS
  1
ACIMSTRSYSVAR
  2
AcImStrSysVar
  3
AcMeServices
 90
    32768
280
     0
281
     0
  0
CLASS
  1
AMDTADMENUSTATE
  2
AmdtAdMenuState
  3
DesignerServices
 90
    32768
280
     0
281
     0
  0
CLASS
  1
ADAPPL
  2
AcAdAppl
  3
DesignerServices
 90
    32768
280
     0
281
     0
  0
CLASS
  1
DEPMGR
  2
AcAdDepMgr
  3
DesignerServices
 90
    32768
280
     0
281
     0
  0
CLASS
  1
PARAMMGR
  2
AcAdParamMgr
  3
DesignerServices
 90
    32768
280
     0
281
     0
  0
CLASS
  1
PARAMSCOPE
  2
AcAdParamScope
  3
DesignerServices
 90
    32768
280
     0
281
     0
  0
CLASS
  1
NAMEDAPPL
  2
AcAdNamedAppl
  3
DesignerServices
 90
    32768
280
     0
281
     0
  0
CLASS
  1
AMDTDMMENUSTATE
  2
AmdtDmMenuState
  3
AcMechDwgViewMgmt
 90
    32768
280
     0
281
     0
  0
CLASS
  1
AMDTAMMENUSTATE
  2
AmdtAmMenuState
  3
DesignerAssemblies
 90
    32768
280
     0
281
     0
  0
CLASS
  1
ACAMPROJECT
  2
AcAmProject
  3
DesignerAssemblies
 90
    32768
280
     0
281
     0
  0
CLASS
  1
ACAMGRCOMPDEF
  2
AcAmGrCompDef
  3
DesignerAssemblies
 90
    32768
280
     0
281
     0
  0
CLASS
  1
ACCMCONTEXT
  2
AcCmContext
  3
DesignerAssemblies
 90
    32768
280
     0
281
     0
  0
CLASS
  1
ACAMCOMPDEF
  2
AcAmCompDef
  3
DesignerAssemblies
 90
    32768
280
     0
281
     0
  0
CLASS
  1
ACAMCOMPDEFMGR
  2
AcAmCompDefMgr
  3
DesignerAssemblies
 90
    32768
280
     0
281
     0
  0
CLASS
  1
AMCONTEXTMGR
  2
AcAmContextMgr
  3
DesignerAssemblies
 90
    32768
280
     0
281
     0
  0
CLASS
  1
ACAMCONTEXTMODELER
  2
AcAmContextModeler
  3
DesignerAssemblies
 90
    32768
280
     0
281
     0
  0
CLASS
  1
ACMDATADICTIONARY
  2
AcmDataDictionary
  3
"AcmSymBB|Product Description: AutoCAD Mechanical|Company: Autodesk"
 90
    32768
280
     0
281
     0
  0
CLASS
  1
CATALOGSTATE
  2
AcAmCatalogState
  3
DesignerAssemblies
 90
    32768
280
     0
281
     0
  0
CLASS
  1
ACAMGRCOMPDEFSET
  2
AcAmGrCompDefSet
  3
DesignerAssemblies
 90
    32768
280
     0
281
     0
  0
CLASS
  1
AMDTBROWSERDBTAB
  2
AmdtBrowserDbTab
  3
McadcomServices
 90
    32768
280
     0
281
     0
  0
CLASS
  1
CBROWSERAPPOBJECT
  2
CBrowserAppObject
  3
McadcomServices
 90
    32768
280
     0
281
     0
  0
CLASS
  1
DM_PLACEHOLDER
  2
AcDmSelsetPlaceholder
  3
AcMechDwgViewMgmt
 90
    32768
280
     0
281
     0
  0
CLASS
  1
ACMSTANDARDANSI
  2
AcmStandardANSI
  3
"Amdt_StdImp|Product Description: AutoCAD Mechanical|Company: Autodesk"
 90
    32768
280
     0
281
     0
  0
CLASS
  1
AMGOBJPROPCFG
  2
AmgObjPropCfg
  3
"AmgLay|Product Description: AutoCAD Mechanical|Company: Autodesk"
 90
    32769
280
     0
281
     0
  0
CLASS
  1
ACMSURFSTANDARDANSI
  2
AcmSurfTextStdANSI
  3
"Amdt_StdImp|Product Description: AutoCAD Mechanical|Company: Autodesk"
 90
    32768
280
     0
281
     0
  0
CLASS
  1
ACMFCFSTANDARDANSI
  2
AcmFCFStdANSI
  3
"Amdt_StdImp|Product Description: AutoCAD Mechanical|Company: Autodesk"
 90
    32768
280
     0
281
     0
  0
CLASS
  1
ACMWELDSTANDARDANSI
  2
AcmWeldingStdANSI
  3
"Amdt_StdImp|Product Description: AutoCAD Mechanical|Company: Autodesk"
 90
    32768
280
     0
281
     0
  0
CLASS
  1
ACMIDSTANDARDANSI
  2
AcmIdStdANSI
  3
"Amdt_StdImp|Product Description: AutoCAD Mechanical|Company: Autodesk"
 90
    32768
280
     0
281
     0
  0
CLASS
  1
ACMDATUMSTANDARDANSI
  2
AcmDatumStdANSI
  3
"Amdt_StdImp|Product Description: AutoCAD Mechanical|Company: Autodesk"
 90
    32768
280
     0
281
     0
  0
CLASS
  1
ACMBOMSTANDARDANSI
  2
AcmBOMStdANSI
  3
"Amdt_StdImp|Product Description: AutoCAD Mechanical|Company: Autodesk"
 90
    32768
280
     0
281
     0
  0
CLASS
  1
ACMDETAILSTANDARDANSI
  2
AmdtDetailSymStdANSI
  3
"Amdt_StdImp|Product Description: AutoCAD Mechanical|Company: Autodesk"
 90
    32768
280
     0
281
     0
  0
CLASS
  1
ACMSECTIONSTANDARDANSI
  2
AmdtSectionSymStdANSI
  3
"Amdt_StdImp|Product Description: AutoCAD Mechanical|Company: Autodesk"
 90
    32768
280
     0
281
     0
  0
CLASS
  1
ACMCENTERLINESTANDARDANSI
  2
AmdtCenterLineStdANSI
  3
"Amdt_StdImp|Product Description: AutoCAD Mechanical|Company: Autodesk"
 90
    32768
280
     0
281
     0
  0
CLASS
  1
ACMTHREADLINESTANDARDANSI
  2
AmdtThreadLineStdANSI
  3
"Amdt_StdImp|Product Description: AutoCAD Mechanical|Company: Autodesk"
 90
    32768
280
     0
281
     0
  0
CLASS
  1
ACMNOTESTANDARDANSI
  2
AmdtNoteStdANSI
  3
"Amdt_StdImp|Product Description: AutoCAD Mechanical|Company: Autodesk"
 90
    32768
280
     0
281
     0
  0
CLASS
  1
ACMTAPERSTANDARDANSI
  2
AcmTaperStdANSI
  3
"Amdt_StdImp|Product Description: AutoCAD Mechanical|Company: Autodesk"
 90
    32768
280
     0
281
     0
  0
CLASS
  1
AMDTNOTETEMPLATEDB
  2
AmdtNoteTemplateDB
  3
AMDT_STDIMP_MODULE_NAME
 90
    32768
280
     0
281
     0
  0
CLASS
  1
ACAMGLAYSTD
  2
AcAmgLayStd
  3
"AmgLay|Product Description: AutoCAD Mechanical|Company: Autodesk"
 90
    32768
280
     0
281
     0
  0
CLASS
  1
ACAMGDIMSTD
  2
AcAmgDimStd
  3
"AmgDim|Product Description: AutoCAD Mechanical|Company: Autodesk"
 90
    32768
280
     0
281
     0
  0
CLASS
  1
ACAMGHOLECHARTSTDANSI
  2
AcAmgHoleChartStdANSI
  3
ACMSYMBB_MODULE_NAME
 90
    32768
280
     0
281
     0
  0
CLASS
  1
ACAMGTITLESTD
  2
AcAmgTitleStd
  3
"AmgTitle|Product Description: AutoCAD Mechanical|Company: Autodesk"
 90
    32768
280
     0
281
     0
  0
CLASS
  1
ACAMGFILTERDAT
  2
AcAmgFilterDat
  3
"AcadM|Product Description: AutoCAD Mechanical|Company: Autodesk"
 90
    32768
280
     0
281
     0
  0
CLASS
  1
SORTENTSTABLE
  2
AcDbSortentsTable
  3
AutoCAD 2000
 90
    32768
280
     0
281
     0
  0
CLASS
  1
ACMSTANDARDISO
  2
AcmStandardISO
  3
"Amdt_StdImp|Product Description: AutoCAD Mechanical|Company: Autodesk"
 90
    32768
280
     0
281
     0
  0
CLASS
  1
AMDTEDGESTANDARDISO13715
  2
AmdtEdgeStdISO13715
  3
"Amdt_StdImp|Product Description: AutoCAD Mechanical|Company: Autodesk"
 90
    32768
280
     0
281
     0
  0
CLASS
  1
ACMSURFSTANDARDISO
  2
AcmSurfTextStdISO
  3
"Amdt_StdImp|Product Description: AutoCAD Mechanical|Company: Autodesk"
 90
    32768
280
     0
281
     0
  0
CLASS
  1
ACMFCFSTANDARDISO
  2
AcmFCFStdISO
  3
"Amdt_StdImp|Product Description: AutoCAD Mechanical|Company: Autodesk"
 90
    32768
280
     0
281
     0
  0
CLASS
  1
ACMWELDSTANDARDISO
  2
AcmWeldingStdISO
  3
"Amdt_StdImp|Product Description: AutoCAD Mechanical|Company: Autodesk"
 90
    32768
280
     0
281
     0
  0
CLASS
  1
ACMIDSTANDARDISO
  2
AcmIdStdISO
  3
"Amdt_StdImp|Product Description: AutoCAD Mechanical|Company: Autodesk"
 90
    32768
280
     0
281
     0
  0
CLASS
  1
ACMDATUMSTANDARDISO
  2
AcmDatumStdISO
  3
"Amdt_StdImp|Product Description: AutoCAD Mechanical|Company: Autodesk"
 90
    32768
280
     0
281
     0
  0
CLASS
  1
ACMBOMSTANDARDISO
  2
AcmBOMStdISO
  3
"Amdt_StdImp|Product Description: AutoCAD Mechanical|Company: Autodesk"
 90
    32768
280
     0
281
     0
  0
CLASS
  1
ACMDETAILSTANDARDISO
  2
AmdtDetailSymStdISO
  3
"Amdt_StdImp|Product Description: AutoCAD Mechanical|Company: Autodesk"
 90
    32768
280
     0
281
     0
  0
CLASS
  1
ACMSECTIONSTANDARDISO
  2
AmdtSectionSymStdISO
  3
"Amdt_StdImp|Product Description: AutoCAD Mechanical|Company: Autodesk"
 90
    32768
280
     0
281
     0
  0
CLASS
  1
ACMCENTERLINESTANDARDISO
  2
AmdtCenterLineStdISO
  3
"Amdt_StdImp|Product Description: AutoCAD Mechanical|Company: Autodesk"
 90
    32768
280
     0
281
     0
  0
CLASS
  1
ACMTHREADLINESTANDARDISO
  2
AmdtThreadLineStdISO
  3
"Amdt_StdImp|Product Description: AutoCAD Mechanical|Company: Autodesk"
 90
    32768
280
     0
281
     0
  0
CLASS
  1
ACMNOTESTANDARDISO
  2
AmdtNoteStdISO
  3
"Amdt_StdImp|Product Description: AutoCAD Mechanical|Company: Autodesk"
 90
    32768
280
     0
281
     0
  0
CLASS
  1
ACMTAPERSTANDARDISO
  2
AcmTaperStdISO
  3
"Amdt_StdImp|Product Description: AutoCAD Mechanical|Company: Autodesk"
 90
    32768
280
     0
281
     0
  0
CLASS
  1
ACAMGHOLECHARTSTDISO
  2
AcAmgHoleChartStdISO
  3
ACMSYMBB_MODULE_NAME
 90
    32768
280
     0
281
     0
  0
CLASS
  1
DICTIONARYVAR
  2
AcDbDictionaryVar
  3
AutoCAD 2000
 90
    32768
280
     0
281
     0
  0
CLASS
  1
ACDBPLACEHOLDER
  2
AcDbPlaceHolder
  3
AutoCAD 2000
 90
    32768
280
     0
281
     0
  0
CLASS
  1
LAYOUT
  2
AcDbLayout
  3
AutoCAD 2000
 90
    32768
280
     0
281
     0
  0
CLASS
  1
ACAD_PROXY_OBJECT_WRAPPER
  2
AcDbProxyObjectWrapper
  3
AutoCAD 2000
 90
    32768
280
     0
281
     0
  0
CLASS
  1
LONG_TRANSACTION
  2
AcDbLongTransaction
  3
AutoCAD 2000
 90
    32768
280
     0
281
     0
  0
CLASS
  1
LWPOLYLINE
  2
AcDbPolyline
  3
AutoCAD 2000
 90
    32768
280
     0
281
     1
  0
CLASS
  1
HATCH
  2
AcDbHatch
  3
AutoCAD 2000
 90
    32768
280
     0
281
     1
  0
CLASS
  1
XRECORD
  2
AcDbXrecord
  3
AutoCAD 2000
 90
    32768
280
     0
281
     0
  0
ENDSEC
  0
SECTION
  2
TABLES
  0
TABLE
  2
VPORT
  5
1B868
102
{ACAD_XDICTIONARY
360
1BB85
102
}
330
0
100
AcDbSymbolTable
 70
     2
  0
VPORT
  5
1C3C5
330
1B868
100
AcDbSymbolTableRecord
100
AcDbViewportTableRecord
  2
*ACTIVE
 70
     0
 10
0.0
 20
0.0
 11
1.0
 21
1.0
 12
4644.835979629214
 22
223.278417496557
 13
0.0
 23
0.0
 14
5.0
 24
5.0
 15
20.0
 25
20.0
 16
0.0
 26
0.0
 36
1.0
 17
0.0
 27
0.0
 37
0.0
 40
732.0588188740294
 41
2.520694259012016
 42
50.0
 43
0.0
 44
0.0
 50
0.0
 51
0.0
 71
    16
 72
   100
 73
     1
 74
     1
 75
     0
 76
     0
 77
     0
 78
     0
  0
ENDTAB
  0
TABLE
  2
LTYPE
  5
1B865
330
0
100
AcDbSymbolTable
 70
    25
  0
LTYPE
  5
1B888
330
1B865
100
AcDbSymbolTableRecord
100
AcDbLinetypeTableRecord
  2
BYBLOCK
 70
     0
  3

 72
    65
 73
     0
 40
0.0
  0
LTYPE
  5
1B889
330
1B865
100
AcDbSymbolTableRecord
100
AcDbLinetypeTableRecord
  2
BYLAYER
 70
     0
  3

 72
    65
 73
     0
 40
0.0
  0
LTYPE
  5
1B88A
330
1B865
100
AcDbSymbolTableRecord
100
AcDbLinetypeTableRecord
  2
CONTINUOUS
 70
     0
  3
Solid line
 72
    65
 73
     0
 40
0.0
  0
LTYPE
  5
1B8A2
330
1B865
100
AcDbSymbolTableRecord
100
AcDbLinetypeTableRecord
  2
AM_ISO02W050
 70
     0
  3
__ __ __ __ __ __ __ __ __ __ __ __ __ __ __
 72
    65
 73
     2
 40
7.5
 49
6.0
 74
     0
 49
-1.5
 74
     0
  0
LTYPE
  5
1B8A3
330
1B865
100
AcDbSymbolTableRecord
100
AcDbLinetypeTableRecord
  2
AMZIGZAG
 70
     0
  3
/\/-/\/-/\/-/\/-/\/-/\/
 72
    65
 73
     2
 40
11.00009999999999
 49
0.0001
 74
     0
 49
-11.0
 74
     0
  0
LTYPE
  5
1B8A4
330
1B865
100
AcDbSymbolTableRecord
100
AcDbLinetypeTableRecord
  2
ACJISTGB
 70
     0
  3
__ . . __ . .
 72
    65
 73
     6
 40
9.0
 49
4.0
 74
     0
 49
-1.0
 74
     0
 49
1.0
 74
     0
 49
-1.0
 74
     0
 49
1.0
 74
     0
 49
-1.0
 74
     0
  0
LTYPE
  5
1B8A5
330
1B865
100
AcDbSymbolTableRecord
100
AcDbLinetypeTableRecord
  2
ACJISTGL
 70
     0
  3
_ _ _ _ _
 72
    65
 73
     2
 40
3.0
 49
2.0
 74
     0
 49
-1.0
 74
     0
  0
LTYPE
  5
1B8A6
330
1B865
100
AcDbSymbolTableRecord
100
AcDbLinetypeTableRecord
  2
DASHED1
 70
     0
  3
--  --  --  --  --  --  --  --  
 72
    65
 73
     2
 40
2.5
 49
1.25
 74
     0
 49
-1.25
 74
     0
  0
LTYPE
  5
1B8A7
330
1B865
100
AcDbSymbolTableRecord
100
AcDbLinetypeTableRecord
  2
ACJISWELD
 70
     0
  3
_ _ _ _ _
 72
    65
 73
     2
 40
3.0
 49
2.0
 74
     0
 49
-1.0
 74
     0
  0
LTYPE
  5
1B8A8
330
1B865
100
AcDbSymbolTableRecord
100
AcDbLinetypeTableRecord
  2
AM_ISO08W050
 70
     0
  3
____ . ____ . ____ . ____ . ____ . ____ . ____
 72
    65
 73
     4
 40
18.0
 49
12.0
 74
     0
 49
-1.5
 74
     0
 49
3.0
 74
     0
 49
-1.5
 74
     0
  0
LTYPE
  5
1B8A9
330
1B865
100
AcDbSymbolTableRecord
100
AcDbLinetypeTableRecord
  2
AM_ISO09W050
 70
     0
  3
_____ . . _____ . . _____ . . ____ .. ____
 72
    65
 73
     6
 40
22.5
 49
12.0
 74
     0
 49
-1.5
 74
     0
 49
3.0
 74
     0
 49
-1.5
 74
     0
 49
3.0
 74
     0
 49
-1.5
 74
     0
  0
LTYPE
  5
1B8AA
330
1B865
100
AcDbSymbolTableRecord
100
AcDbLinetypeTableRecord
  2
AMCONSTR
 70
     0
  3
_______________________
 72
    65
 73
     2
 40
9999.0
 49
9999.0
 74
     0
 49
0.0
 74
     0
  0
LTYPE
  5
1B8AB
330
1B865
100
AcDbSymbolTableRecord
100
AcDbLinetypeTableRecord
  2
AM_ISO08W050X2
 70
     0
  3
__ . __ . __ . __ . __ . __
 72
    65
 73
     4
 40
9.0
 49
6.0
 74
     0
 49
-0.75
 74
     0
 49
1.5
 74
     0
 49
-0.75
 74
     0
  0
LTYPE
  5
1B8AC
330
1B865
100
AcDbSymbolTableRecord
100
AcDbLinetypeTableRecord
  2
AM_ISO02W050X2
 70
     0
  3
 _ _ _ _ _ _ _ _ _ _ _ _
 72
    65
 73
     2
 40
3.75
 49
3.0
 74
     0
 49
-0.75
 74
     0
  0
LTYPE
  5
1B8AD
330
1B865
100
AcDbSymbolTableRecord
100
AcDbLinetypeTableRecord
  2
DD1
 70
     0
  3
一点鎖線
 72
    65
 73
     4
 40
11.1
 49
7.5
 74
     0
 49
-1.199999999999999
 74
     0
 49
1.199999999999999
 74
     0
 49
-1.199999999999999
 74
     0
  0
LTYPE
  5
1B951
330
1B865
100
AcDbSymbolTableRecord
100
AcDbLinetypeTableRecord
  2
HIDDEN
 70
     0
  3
Hidden __ __ __ __ __ __ __ __ __ __ __ __ __ _
 72
    65
 73
     2
 40
0.375
 49
0.25
 74
     0
 49
-0.125
 74
     0
  0
LTYPE
  5
1B952
330
1B865
100
AcDbSymbolTableRecord
100
AcDbLinetypeTableRecord
  2
PHANTOM2
 70
     0
  3
Phantom (.5x) ___ _ _ ___ _ _ ___ _ _ ___ _ _
 72
    65
 73
     6
 40
1.25
 49
0.625
 74
     0
 49
-0.125
 74
     0
 49
0.125
 74
     0
 49
-0.125
 74
     0
 49
0.125
 74
     0
 49
-0.125
 74
     0
  0
LTYPE
  5
1B953
330
1B865
100
AcDbSymbolTableRecord
100
AcDbLinetypeTableRecord
  2
CENTER
 70
     0
  3
Center ____ _ ____ _ ____ _ ____ _ ____ _ ____
 72
    65
 73
     4
 40
2.0
 49
1.25
 74
     0
 49
-0.25
 74
     0
 49
0.25
 74
     0
 49
-0.25
 74
     0
  0
LTYPE
  5
1B987
330
1B865
100
AcDbSymbolTableRecord
100
AcDbLinetypeTableRecord
  2
CENTER2
 70
     0
  3
Center (.5x) ___ _ ___ _ ___ _ ___ _ ___ _ ___
 72
    65
 73
     4
 40
1.125
 49
0.75
 74
     0
 49
-0.125
 74
     0
 49
0.125
 74
     0
 49
-0.125
 74
     0
  0
LTYPE
  5
1B988
330
1B865
100
AcDbSymbolTableRecord
100
AcDbLinetypeTableRecord
  2
HIDDEN2
 70
     0
  3
Hidden (.5x) _ _ _ _ _ _ _ _ _ _ _ _ _ _ _ _ _
 72
    65
 73
     2
 40
0.1875
 49
0.125
 74
     0
 49
-0.0625
 74
     0
  0
LTYPE
  5
1B98B
330
1B865
100
AcDbSymbolTableRecord
100
AcDbLinetypeTableRecord
  2
AMZIGZAG2
 70
     0
  3
/\/-/\/-/\/-/\/-/\/-/\/
 72
    65
 73
     2
 40
0.4401
 49
0.0001
 74
     4
 75
   136
340
1B98A
 46
0.0016
 50
0.0
 44
0.0
 45
0.0
 49
-0.4400000000000001
 74
     0
  0
LTYPE
  5
1B99A
330
1B865
100
AcDbSymbolTableRecord
100
AcDbLinetypeTableRecord
  2
ACANSTGB
 70
     0
  3
__ . . __ . .
 72
    65
 73
     6
 40
0.35433070866
 49
0.15748031496
 74
     0
 49
-0.03937007874
 74
     0
 49
0.03937007874
 74
     0
 49
-0.03937007874
 74
     0
 49
0.03937007874
 74
     0
 49
-0.03937007874
 74
     0
  0
LTYPE
  5
1B99B
330
1B865
100
AcDbSymbolTableRecord
100
AcDbLinetypeTableRecord
  2
ACANSTGL
 70
     0
  3
_ _ _ _ _
 72
    65
 73
     2
 40
0.11811023622
 49
0.07874015748
 74
     0
 49
-0.03937007874
 74
     0
  0
LTYPE
  5
1B9C1
330
1B865
100
AcDbSymbolTableRecord
100
AcDbLinetypeTableRecord
  2
ACISOWELD
 70
     0
  3
_ _ _ _ _
 72
    65
 73
     2
 40
2.0
 49
2.0
 74
     0
 49
-1.0
 74
     0
  0
LTYPE
  5
1B9C2
330
1B865
100
AcDbSymbolTableRecord
100
AcDbLinetypeTableRecord
  2
ACISOTGB
 70
     0
  3
__ . . __ . .
 72
    65
 73
     6
 40
9.0
 49
4.0
 74
     0
 49
-1.0
 74
     0
 49
1.0
 74
     0
 49
-1.0
 74
     0
 49
1.0
 74
     0
 49
-1.0
 74
     0
  0
LTYPE
  5
1B9C3
330
1B865
100
AcDbSymbolTableRecord
100
AcDbLinetypeTableRecord
  2
ACISOTGL
 70
     0
  3
_ _ _ _ _
 72
    65
 73
     2
 40
3.0
 49
2.0
 74
     0
 49
-1.0
 74
     0
  0
LTYPE
  5
1C19B
330
1B865
100
AcDbSymbolTableRecord
100
AcDbLinetypeTableRecord
  2
CENTER1
 70
     0
  3
----- - ----- - ----- - ----- - 
 72
    65
 73
     4
 40
10.0
 49
6.25
 74
     0
 49
-1.25
 74
     0
 49
1.25
 74
     0
 49
-1.25
 74
     0
  0
ENDTAB
  0
TABLE
  2
LAYER
  5
1B862
102
{ACAD_XDICTIONARY
360
1B9CE
102
}
330
0
100
AcDbSymbolTable
 70
    12
  0
LAYER
  5
1B885
102
{ACAD_XDICTIONARY
360
1C11D
102
}
330
1B862
100
AcDbSymbolTableRecord
100
AcDbLayerTableRecord
  2
0
 70
     0
 62
     7
  6
CONTINUOUS
  0
LAYER
  5
1B905
102
{ACAD_XDICTIONARY
360
1C131
102
}
330
1B862
100
AcDbSymbolTableRecord
100
AcDbLayerTableRecord
  2
AM_0
 70
     0
 62
     7
  6
CONTINUOUS
  0
LAYER
  5
1B906
102
{ACAD_XDICTIONARY
360
1C133
102
}
330
1B862
100
AcDbSymbolTableRecord
100
AcDbLayerTableRecord
  2
AM_5
 70
     0
 62
     3
  6
CONTINUOUS
  0
LAYER
  5
1B907
102
{ACAD_XDICTIONARY
360
1C135
102
}
330
1B862
100
AcDbSymbolTableRecord
100
AcDbLayerTableRecord
  2
DEFPOINTS
 70
     1
 62
    -7
  6
CONTINUOUS
  0
LAYER
  5
1B908
102
{ACAD_XDICTIONARY
360
1C137
102
}
330
1B862
100
AcDbSymbolTableRecord
100
AcDbLayerTableRecord
  2
CONT_S_2
 70
     0
 62
     2
  6
CONTINUOUS
  0
LAYER
  5
1B909
102
{ACAD_XDICTIONARY
360
1C139
102
}
330
1B862
100
AcDbSymbolTableRecord
100
AcDbLayerTableRecord
  2
MJ
 70
     0
 62
     2
  6
CONTINUOUS
  0
LAYER
  5
1B90A
102
{ACAD_XDICTIONARY
360
1C13B
102
}
330
1B862
100
AcDbSymbolTableRecord
100
AcDbLayerTableRecord
  2
OS
 70
     0
 62
     2
  6
CONTINUOUS
  0
LAYER
  5
1B90B
102
{ACAD_XDICTIONARY
360
1C13D
102
}
330
1B862
100
AcDbSymbolTableRecord
100
AcDbLayerTableRecord
  2
WK
 70
     0
 62
     7
  6
CONTINUOUS
  0
LAYER
  5
1B90C
102
{ACAD_XDICTIONARY
360
1C13F
102
}
330
1B862
100
AcDbSymbolTableRecord
100
AcDbLayerTableRecord
  2
AM_2
 70
     0
 62
     4
  6
CONTINUOUS
  0
LAYER
  5
1B90D
102
{ACAD_XDICTIONARY
360
1C141
102
}
330
1B862
100
AcDbSymbolTableRecord
100
AcDbLayerTableRecord
  2
________
 70
     0
 62
     4
  6
DD1
  0
LAYER
  5
1B90E
102
{ACAD_XDICTIONARY
360
1C143
102
}
330
1B862
100
AcDbSymbolTableRecord
100
AcDbLayerTableRecord
  2
TS
 70
     0
 62
     6
  6
DASHED1
  0
LAYER
  5
1BA50
102
{ACAD_XDICTIONARY
360
1BA51
102
}
330
1B862
100
AcDbSymbolTableRecord
100
AcDbLayerTableRecord
  2
１点斜線
 70
     0
 62
     4
  6
DD1
1001
ACAECLAYERSTANDARD
1000

1000

1001
ACCMTRANSPARENCY
1071
 33554687
  0
ENDTAB
  0
TABLE
  2
STYLE
  5
1B863
330
0
100
AcDbSymbolTable
 70
     9
  0
STYLE
  5
1B886
330
1B863
100
AcDbSymbolTableRecord
100
AcDbTextStyleTableRecord
  2
STANDARD
 70
     0
 40
0.0
 41
0.8299999999999998
 50
0.0
 71
     0
 42
2.5
  3
romans.shx
  4
extfont2.shx
  0
STYLE
  5
1B89F
330
1B863
100
AcDbSymbolTableRecord
100
AcDbTextStyleTableRecord
  2
ACJISGDT
 70
     0
 40
0.0
 41
1.0
 50
0.0
 71
     0
 42
2.5
  3
amgdt.shx
  4

  0
STYLE
  5
1B8A0
330
1B863
100
AcDbSymbolTableRecord
100
AcDbTextStyleTableRecord
  2
SIMPLEX
 70
     0
 40
0.0
 41
1.0
 50
0.0
 71
     0
 42
3.5
  3
simplex.shx
  4
extfont2.shx
  0
STYLE
  5
1B8A1
330
1B863
100
AcDbSymbolTableRecord
100
AcDbTextStyleTableRecord
  2
SIMPLEXT
 70
     4
 40
0.0
 41
1.0
 50
0.0
 71
     0
 42
2.5
  3
simplex.shx
  4
extfont2.shx
  0
STYLE
  5
1B98A
330
1B863
100
AcDbSymbolTableRecord
100
AcDbTextStyleTableRecord
  2

 70
     1
 40
0.0
 41
1.0
 50
0.0
 71
     0
 42
2.5
  3
genltshp.shx
  4

  0
STYLE
  5
1B98C
330
1B863
100
AcDbSymbolTableRecord
100
AcDbTextStyleTableRecord
  2
ACANSTS
 70
     0
 40
1.0
 41
1.0
 50
0.0
 71
     0
 42
2.5
  3
romans.shx
  4
extfont.shx
  0
STYLE
  5
1B999
330
1B863
100
AcDbSymbolTableRecord
100
AcDbTextStyleTableRecord
  2
ACANSGDT
 70
     0
 40
0.0
 41
1.0
 50
0.0
 71
     0
 42
2.5
  3
amgdt.shx
  4

  0
STYLE
  5
1B9C4
330
1B863
100
AcDbSymbolTableRecord
100
AcDbTextStyleTableRecord
  2
ACISOTS
 70
     0
 40
1.0
 41
1.0
 50
0.0
 71
     0
 42
2.5
  3
isocp.shx
  4
extfont.shx
  0
STYLE
  5
1B9C5
330
1B863
100
AcDbSymbolTableRecord
100
AcDbTextStyleTableRecord
  2
ACISOGDT
 70
     0
 40
0.0
 41
1.0
 50
0.0
 71
     0
 42
2.5
  3
amgdt.shx
  4

  0
ENDTAB
  0
TABLE
  2
VIEW
  5
1B866
330
0
100
AcDbSymbolTable
 70
     6
  0
VIEW
  5
1B8AE
102
{ACAD_XDICTIONARY
360
1C125
102
}
330
1B866
100
AcDbSymbolTableRecord
100
AcDbViewTableRecord
  2
AM_VIEW1
 70
     0
 40
351.5943593853809
 10
-869.4999962207091
 20
-329.7971788144017
 41
420.9999991601575
 11
0.0
 21
0.0
 31
1.0
 12
0.0
 22
0.0
 32
0.0
 42
50.0
 43
0.0
 44
0.0
 50
0.0
 71
     0
  0
VIEW
  5
1B8AF
102
{ACAD_XDICTIONARY
360
1C127
102
}
330
1B866
100
AcDbSymbolTableRecord
100
AcDbViewTableRecord
  2
AM_VIEW2
 70
     0
 40
351.5943593853809
 10
-448.4999970605516
 20
-329.7971788144017
 41
420.9999991601575
 11
0.0
 21
0.0
 31
1.0
 12
0.0
 22
0.0
 32
0.0
 42
50.0
 43
0.0
 44
0.0
 50
0.0
 71
     0
  0
VIEW
  5
1B8B0
102
{ACAD_XDICTIONARY
360
1C129
102
}
330
1B866
100
AcDbSymbolTableRecord
100
AcDbViewTableRecord
  2
AM_VIEW3
 70
     0
 40
351.5943593853809
 10
-869.4999962207091
 20
-574.2028188434947
 41
420.9999991601575
 11
0.0
 21
0.0
 31
1.0
 12
0.0
 22
0.0
 32
0.0
 42
50.0
 43
0.0
 44
0.0
 50
0.0
 71
     0
  0
VIEW
  5
1B8B1
102
{ACAD_XDICTIONARY
360
1C12B
102
}
330
1B866
100
AcDbSymbolTableRecord
100
AcDbViewTableRecord
  2
AM_VIEW4
 70
     0
 40
351.5943593853809
 10
-448.4999970605516
 20
-574.2028188434947
 41
420.9999991601575
 11
0.0
 21
0.0
 31
1.0
 12
0.0
 22
0.0
 32
0.0
 42
50.0
 43
0.0
 44
0.0
 50
0.0
 71
     0
  0
VIEW
  5
1B8B2
102
{ACAD_XDICTIONARY
360
1C12D
102
}
330
1B866
100
AcDbSymbolTableRecord
100
AcDbViewTableRecord
  2
AM_VIEW5
 70
     0
 40
351.5943593853809
 10
-658.9999966406303
 20
-451.9999988289483
 41
420.9999991601575
 11
0.0
 21
0.0
 31
1.0
 12
0.0
 22
0.0
 32
0.0
 42
50.0
 43
0.0
 44
0.0
 50
0.0
 71
     0
  0
VIEW
  5
1B8B3
102
{ACAD_XDICTIONARY
360
1C12F
102
}
330
1B866
100
AcDbSymbolTableRecord
100
AcDbViewTableRecord
  2
AM_VIEW6
 70
     0
 40
703.1816868835744
 10
-658.9999966406303
 20
-451.9999988289483
 41
841.9915783203318
 11
0.0
 21
0.0
 31
1.0
 12
0.0
 22
0.0
 32
0.0
 42
50.0
 43
0.0
 44
0.0
 50
0.0
 71
     0
  0
ENDTAB
  0
TABLE
  2
UCS
  5
1B867
330
0
100
AcDbSymbolTable
 70
     0
  0
ENDTAB
  0
TABLE
  2
APPID
  5
1B869
330
0
100
AcDbSymbolTable
 70
    75
  0
APPID
  5
1B887
330
1B869
100
AcDbSymbolTableRecord
100
AcDbRegAppTableRecord
  2
ACAD
 70
     0
  0
APPID
  5
1B8B5
330
1B869
100
AcDbSymbolTableRecord
100
AcDbRegAppTableRecord
  2
MCAD_NO_VIS
 70
     0
  0
APPID
  5
1B8B6
330
1B869
100
AcDbSymbolTableRecord
100
AcDbRegAppTableRecord
  2
ACAD_TEMP_GRAPHIC
 70
     0
  0
APPID
  5
1B8B7
330
1B869
100
AcDbSymbolTableRecord
100
AcDbRegAppTableRecord
  2
ACATTRIBSERVICES
 70
     0
  0
APPID
  5
1B8B8
330
1B869
100
AcDbSymbolTableRecord
100
AcDbRegAppTableRecord
  2
GENIUS_GENDIMSH_14
 70
     0
  0
APPID
  5
1B8B9
330
1B869
100
AcDbSymbolTableRecord
100
AcDbRegAppTableRecord
  2
GENIUS_GENOLIS_13
 70
     0
  0
APPID
  5
1B8BA
330
1B869
100
AcDbSymbolTableRecord
100
AcDbRegAppTableRecord
  2
GENIUS_GENOENT_13
 70
     0
  0
APPID
  5
1B8BB
330
1B869
100
AcDbSymbolTableRecord
100
AcDbRegAppTableRecord
  2
GENIUS_GENOBJ-N-TIT_13
 70
     0
  0
APPID
  5
1B8BC
330
1B869
100
AcDbSymbolTableRecord
100
AcDbRegAppTableRecord
  2
GENIUS_GENODEF_13
 70
     0
  0
APPID
  5
1B8BD
330
1B869
100
AcDbSymbolTableRecord
100
AcDbRegAppTableRecord
  2
GENIUS_GENTITLE_13
 70
     0
  0
APPID
  5
1B8BE
330
1B869
100
AcDbSymbolTableRecord
100
AcDbRegAppTableRecord
  2
GENIUS_GENOREF_13
 70
     0
  0
APPID
  5
1B8BF
330
1B869
100
AcDbSymbolTableRecord
100
AcDbRegAppTableRecord
  2
GENIUS_GENSCREG_15
 70
     0
  0
APPID
  5
1B8C0
330
1B869
100
AcDbSymbolTableRecord
100
AcDbRegAppTableRecord
  2
GENIUS_GENOBJ-N-SDF_13
 70
     0
  0
APPID
  5
1B8C1
330
1B869
100
AcDbSymbolTableRecord
100
AcDbRegAppTableRecord
  2
GENIUS_GENOBJ-N-REV_13
 70
     0
  0
APPID
  5
1B8C2
330
1B869
100
AcDbSymbolTableRecord
100
AcDbRegAppTableRecord
  2
GENIUS_GENOBJ-N-RSSYM_13
 70
     0
  0
APPID
  5
1B8C3
330
1B869
100
AcDbSymbolTableRecord
100
AcDbRegAppTableRecord
  2
GENIUS_GENSYMENT_13
 70
     0
  0
APPID
  5
1B8C4
330
1B869
100
AcDbSymbolTableRecord
100
AcDbRegAppTableRecord
  2
GENIUS_GENSCSYM_13
 70
     0
  0
APPID
  5
1B8C5
330
1B869
100
AcDbSymbolTableRecord
100
AcDbRegAppTableRecord
  2
DCO15
 70
     0
  0
APPID
  5
1B8C6
330
1B869
100
AcDbSymbolTableRecord
100
AcDbRegAppTableRecord
  2
GENIUS_GENDTOL_13
 70
     0
  0
APPID
  5
1B8C7
330
1B869
100
AcDbSymbolTableRecord
100
AcDbRegAppTableRecord
  2
HC_SUPERPART
 70
     0
  0
APPID
  5
1B8C8
330
1B869
100
AcDbSymbolTableRecord
100
AcDbRegAppTableRecord
  2
HC_SP4BLOCK
 70
     0
  0
APPID
  5
1B8C9
330
1B869
100
AcDbSymbolTableRecord
100
AcDbRegAppTableRecord
  2
HC_XDATA_SPRING
 70
     0
  0
APPID
  5
1B8CA
330
1B869
100
AcDbSymbolTableRecord
100
AcDbRegAppTableRecord
  2
HCCAD_FRAME
 70
     0
  0
APPID
  5
1B8CB
330
1B869
100
AcDbSymbolTableRecord
100
AcDbRegAppTableRecord
  2
GENIUS_GENOBJ-N-ZOO_13
 70
     0
  0
APPID
  5
1B8CC
330
1B869
100
AcDbSymbolTableRecord
100
AcDbRegAppTableRecord
  2
GENIUS_GENREV_15
 70
     0
  0
APPID
  5
1B8CD
330
1B869
100
AcDbSymbolTableRecord
100
AcDbRegAppTableRecord
  2
HRA
 70
     0
  0
APPID
  5
1B8CE
330
1B869
100
AcDbSymbolTableRecord
100
AcDbRegAppTableRecord
  2
HTIT
 70
     0
  0
APPID
  5
1B8CF
330
1B869
100
AcDbSymbolTableRecord
100
AcDbRegAppTableRecord
  2
GENIUS_GENZOO_17
 70
     0
  0
APPID
  5
1B8D0
330
1B869
100
AcDbSymbolTableRecord
100
AcDbRegAppTableRecord
  2
GENIUS_GENOBJ-N-CEN_13
 70
     0
  0
APPID
  5
1B8D1
330
1B869
100
AcDbSymbolTableRecord
100
AcDbRegAppTableRecord
  2
GENIUS_GENCEN_19
 70
     0
  0
APPID
  5
1B8D2
330
1B869
100
AcDbSymbolTableRecord
100
AcDbRegAppTableRecord
  2
GENIUS_GENOBJ-N-CRS_13
 70
     0
  0
APPID
  5
1B8D3
330
1B869
100
AcDbSymbolTableRecord
100
AcDbRegAppTableRecord
  2
GENIUS_GENCRS_20
 70
     0
  0
APPID
  5
1B8D4
330
1B869
100
AcDbSymbolTableRecord
100
AcDbRegAppTableRecord
  2
GENIUS_GENOBJ-N-CRC_13
 70
     0
  0
APPID
  5
1B8D5
330
1B869
100
AcDbSymbolTableRecord
100
AcDbRegAppTableRecord
  2
GENIUS_GENCRC_14
 70
     0
  0
APPID
  5
1B8D6
330
1B869
100
AcDbSymbolTableRecord
100
AcDbRegAppTableRecord
  2
GENIUS_GENFIL_13
 70
     0
  0
APPID
  5
1B8D7
330
1B869
100
AcDbSymbolTableRecord
100
AcDbRegAppTableRecord
  2
GENIUS_GENOBJ-N-CHA_13
 70
     0
  0
APPID
  5
1B8D8
330
1B869
100
AcDbSymbolTableRecord
100
AcDbRegAppTableRecord
  2
GENIUS_GENOBJ-N-FIL_13
 70
     0
  0
APPID
  5
1B8D9
330
1B869
100
AcDbSymbolTableRecord
100
AcDbRegAppTableRecord
  2
GENIUS_GENHATCH_13
 70
     0
  0
APPID
  5
1B8DA
330
1B869
100
AcDbSymbolTableRecord
100
AcDbRegAppTableRecord
  2
GENIUS_GENOBJ-N-HTC_13
 70
     0
  0
APPID
  5
1B8DB
330
1B869
100
AcDbSymbolTableRecord
100
AcDbRegAppTableRecord
  2
GENIUS_GENDIM_13
 70
     0
  0
APPID
  5
1B8DC
330
1B869
100
AcDbSymbolTableRecord
100
AcDbRegAppTableRecord
  2
GENIUS_GENOBJ-N-DIM_13
 70
     0
  0
APPID
  5
1B8DD
330
1B869
100
AcDbSymbolTableRecord
100
AcDbRegAppTableRecord
  2
GENIUS_GENOBJ-N-DIMLI_13
 70
     0
  0
APPID
  5
1B8DE
330
1B869
100
AcDbSymbolTableRecord
100
AcDbRegAppTableRecord
  2
GENIUS_GENOBJ-N-FITL_13
 70
     0
  0
APPID
  5
1B8DF
330
1B869
100
AcDbSymbolTableRecord
100
AcDbRegAppTableRecord
  2
GENIUS_GENFITL_13
 70
     0
  0
APPID
  5
1B8E0
330
1B869
100
AcDbSymbolTableRecord
100
AcDbRegAppTableRecord
  2
GENLAYCOLOR
 70
     0
  0
APPID
  5
1B8E1
330
1B869
100
AcDbSymbolTableRecord
100
AcDbRegAppTableRecord
  2
GENIUS_GENOBJ-NBEHI-BHB_13
 70
     0
  0
APPID
  5
1B8E2
330
1B869
100
AcDbSymbolTableRecord
100
AcDbRegAppTableRecord
  2
GENIUS_GENOBJ-NBEHI-BHF_13
 70
     0
  0
APPID
  5
1B8E3
330
1B869
100
AcDbSymbolTableRecord
100
AcDbRegAppTableRecord
  2
GENIUS_GENBH_13
 70
     0
  0
APPID
  5
1B8E4
330
1B869
100
AcDbSymbolTableRecord
100
AcDbRegAppTableRecord
  2
GENIUS_GENBHRL_14
 70
     0
  0
APPID
  5
1B8E5
330
1B869
100
AcDbSymbolTableRecord
100
AcDbRegAppTableRecord
  2
ACAECLAYERSTANDARD
 70
     0
  0
APPID
  5
1B8E6
330
1B869
100
AcDbSymbolTableRecord
100
AcDbRegAppTableRecord
  2
ACAD_MLEADERVER
 70
     0
  0
APPID
  5
1B8E7
330
1B869
100
AcDbSymbolTableRecord
100
AcDbRegAppTableRecord
  2
ACCMTRANSPARENCY
 70
     0
  0
APPID
  5
1B8E8
330
1B869
100
AcDbSymbolTableRecord
100
AcDbRegAppTableRecord
  2
ACAD_DSTYLE_DIMINSPECT
 70
     0
  0
APPID
  5
1B8E9
330
1B869
100
AcDbSymbolTableRecord
100
AcDbRegAppTableRecord
  2
ACADANNOTATIVE
 70
     0
  0
APPID
  5
1B8EA
330
1B869
100
AcDbSymbolTableRecord
100
AcDbRegAppTableRecord
  2
HATCHBACKGROUNDCOLOR
 70
     0
  0
APPID
  5
1B8EB
330
1B869
100
AcDbSymbolTableRecord
100
AcDbRegAppTableRecord
  2
ACAD_DSTYLE_DIMJAG
 70
     0
  0
APPID
  5
1B8EC
330
1B869
100
AcDbSymbolTableRecord
100
AcDbRegAppTableRecord
  2
ACAD_DSTYLE_DIMBREAK
 70
     0
  0
APPID
  5
1B8ED
330
1B869
100
AcDbSymbolTableRecord
100
AcDbRegAppTableRecord
  2
ACAD_DSTYLE_DIMTALN
 70
     0
  0
APPID
  5
1B8EE
330
1B869
100
AcDbSymbolTableRecord
100
AcDbRegAppTableRecord
  2
ACAD_DSTYLE_DIMARC_LENGTH_
 70
     0
  0
APPID
  5
1B8EF
330
1B869
100
AcDbSymbolTableRecord
100
AcDbRegAppTableRecord
  2
ACAD_PSEXT
 70
     0
  0
APPID
  5
1B8F0
330
1B869
100
AcDbSymbolTableRecord
100
AcDbRegAppTableRecord
  2
PLOTTRANSPARENCY
 70
     0
  0
APPID
  5
1B8F1
330
1B869
100
AcDbSymbolTableRecord
100
AcDbRegAppTableRecord
  2
GENIUS_GENREC_14
 70
     0
  0
APPID
  5
1B8F2
330
1B869
100
AcDbSymbolTableRecord
100
AcDbRegAppTableRecord
  2
GENIUS_GENOBJ-N-REC_13
 70
     0
  0
APPID
  5
1B8F3
330
1B869
100
AcDbSymbolTableRecord
100
AcDbRegAppTableRecord
  2
ACAD_DSTYLE_DIM_LINETYPE
 70
     0
  0
APPID
  5
1B8F4
330
1B869
100
AcDbSymbolTableRecord
100
AcDbRegAppTableRecord
  2
ACAD_DSTYLE_DIM_EXT1_LINET
 70
     0
  0
APPID
  5
1B8F5
330
1B869
100
AcDbSymbolTableRecord
100
AcDbRegAppTableRecord
  2
ACAD_DSTYLE_DIM_EXT2_LINET
 70
     0
  0
APPID
  5
1B8F6
330
1B869
100
AcDbSymbolTableRecord
100
AcDbRegAppTableRecord
  2
ACADANNOPO
 70
     0
  0
APPID
  5
1B8F7
330
1B869
100
AcDbSymbolTableRecord
100
AcDbRegAppTableRecord
  2
ACAD_NAV_VCDISPLAY
 70
     0
  0
APPID
  5
1B8F8
330
1B869
100
AcDbSymbolTableRecord
100
AcDbRegAppTableRecord
  2
ACDBBLOCKREPETAG
 70
     0
  0
APPID
  5
1B955
330
1B869
100
AcDbSymbolTableRecord
100
AcDbRegAppTableRecord
  2
AD_DRAW
 70
     0
  0
APPID
  5
1B978
330
1B869
100
AcDbSymbolTableRecord
100
AcDbRegAppTableRecord
  2
DESIGNERASSEMBLIES
 70
     0
  0
APPID
  5
1B97E
330
1B869
100
AcDbSymbolTableRecord
100
AcDbRegAppTableRecord
  2
ACADM_DIM_EDIT
 70
     0
  0
APPID
  5
1B97F
330
1B869
100
AcDbSymbolTableRecord
100
AcDbRegAppTableRecord
  2
AMDT_DM_ADJ
 70
     0
  0
APPID
  5
1B9B6
330
1B869
100
AcDbSymbolTableRecord
100
AcDbRegAppTableRecord
  2
ACAD_EXEMPT_FROM_CAD_STANDARDS
 70
     0
  0
APPID
  5
1BBC5
330
1B869
100
AcDbSymbolTableRecord
100
AcDbRegAppTableRecord
  2
ACAD_DSTYLE_DIMARC_LENGTH0
 70
     0
  0
ENDTAB
  0
TABLE
  2
DIMSTYLE
  5
1B86A
330
0
100
AcDbSymbolTable
 70
    22
  0
DIMSTYLE
105
1B8F9
330
1B86A
100
AcDbSymbolTableRecord
100
AcDbDimStyleTableRecord
  2
AM_JIS
 70
     0
  3

  4
"
  5
OPEN
  6

  7

 40
1.0
 41
1.6
 42
1.0
 43
7.0
 44
1.0
 45
0.0
 46
0.0
 47
0.1
 48
0.1
140
2.5
141
0.0
142
0.0
143
0.0393701
144
1.0
145
0.0
146
0.71
147
0.625
 71
     0
 72
     0
 73
     0
 74
     0
 75
     0
 76
     0
 77
     1
 78
     8
170
     0
171
     2
172
     1
173
     0
174
     0
175
     0
176
   256
177
   256
178
   256
270
     2
271
     4
272
     4
273
     2
274
     2
340
1B886
275
     0
280
     0
281
     0
282
     0
283
     1
284
     8
285
     8
286
     8
287
     5
288
     0
  0
DIMSTYLE
105
1B8FA
330
1B86A
100
AcDbSymbolTableRecord
100
AcDbDimStyleTableRecord
  2
AM_JIS$3
 70
     0
  3

  4
"
  5
OPEN
  6

  7

 40
1.0
 41
1.6
 42
1.0
 43
7.0
 44
1.0
 45
0.0
 46
0.0
 47
0.1
 48
0.1
140
2.5
141
0.0
142
0.0
143
0.0393701
144
1.0
145
0.0
146
0.71
147
0.625
 71
     0
 72
     0
 73
     0
 74
     0
 75
     0
 76
     0
 77
     1
 78
     8
170
     0
171
     2
172
     1
173
     0
174
     0
175
     0
176
   256
177
   256
178
   256
270
     2
271
     4
272
     4
273
     2
274
     2
340
1B886
275
     0
280
     0
281
     0
282
     0
283
     1
284
     8
285
     8
286
     8
287
     5
288
     0
  0
DIMSTYLE
105
1B8FB
330
1B86A
100
AcDbSymbolTableRecord
100
AcDbDimStyleTableRecord
  2
AM_JIS$4
 70
     0
  3

  4
"
  5
OPEN
  6

  7

 40
1.0
 41
1.6
 42
1.0
 43
7.0
 44
1.0
 45
0.0
 46
0.0
 47
0.1
 48
0.1
140
2.5
141
0.0
142
0.0
143
0.0393701
144
1.0
145
0.0
146
0.71
147
0.625
 71
     0
 72
     0
 73
     0
 74
     0
 75
     0
 76
     0
 77
     1
 78
     8
170
     0
171
     2
172
     1
173
     0
174
     0
175
     0
176
   256
177
   256
178
   256
270
     2
271
     4
272
     4
273
     2
274
     2
340
1B886
275
     0
280
     0
281
     0
282
     0
283
     1
284
     8
285
     8
286
     8
287
     5
288
     0
  0
DIMSTYLE
105
1B8FC
330
1B86A
100
AcDbSymbolTableRecord
100
AcDbDimStyleTableRecord
  2
AM_JIS$6
 70
     0
  3

  4
"
  5
OPEN
  6

  7

 40
1.0
 41
1.6
 42
1.0
 43
7.0
 44
1.0
 45
0.0
 46
0.0
 47
0.1
 48
0.1
140
2.5
141
0.0
142
0.0
143
0.0393701
144
1.0
145
0.0
146
0.71
147
0.625
 71
     0
 72
     0
 73
     0
 74
     0
 75
     0
 76
     0
 77
     0
 78
     8
170
     0
171
     2
172
     1
173
     0
174
     0
175
     0
176
   256
177
   256
178
   256
270
     2
271
     4
272
     4
273
     2
274
     2
340
1B886
275
     0
280
     0
281
     0
282
     0
283
     1
284
     8
285
     8
286
     8
287
     5
288
     0
  0
DIMSTYLE
105
1B8FD
330
1B86A
100
AcDbSymbolTableRecord
100
AcDbDimStyleTableRecord
  2
AM_JIS$7
 70
     0
  3

  4
"
  5
OPEN
  6

  7

 40
1.0
 41
1.6
 42
1.0
 43
7.0
 44
1.0
 45
0.0
 46
0.0
 47
0.1
 48
0.1
140
2.5
141
0.0
142
0.0
143
0.0393701
144
1.0
145
0.0
146
0.71
147
0.625
 71
     0
 72
     0
 73
     0
 74
     0
 75
     0
 76
     0
 77
     1
 78
     8
170
     0
171
     2
172
     1
173
     0
174
     0
175
     0
176
   256
177
   256
178
   256
270
     2
271
     4
272
     4
273
     2
274
     2
340
1B886
275
     0
280
     0
281
     0
282
     0
283
     1
284
     8
285
     8
286
     8
287
     5
288
     0
  0
DIMSTYLE
105
1B8FE
330
1B86A
100
AcDbSymbolTableRecord
100
AcDbDimStyleTableRecord
  2
AM_JIS$SF
 70
     0
  3

  4
"
  5
OPEN30
  6
OPEN30
  7
OPEN30
 40
1.0
 41
2.5
 42
1.0
 43
10.0
 44
1.0
 45
0.0
 46
0.0
 47
0.1
 48
0.1
140
3.5
141
0.0
142
0.0
143
0.0393701
144
1.0
145
0.0
146
0.71
147
1.5
 71
     0
 72
     0
 73
     0
 74
     0
 75
     1
 76
     1
 77
     3
 78
     8
170
     0
171
     2
172
     1
173
     0
174
     0
175
     0
176
   256
177
   256
178
     2
270
     2
271
     4
272
     4
273
     2
274
     2
340
1B886
275
     0
280
     0
281
     0
282
     0
283
     1
284
     8
285
     8
286
     8
287
     5
288
     0
  0
DIMSTYLE
105
1B8FF
330
1B86A
100
AcDbSymbolTableRecord
100
AcDbDimStyleTableRecord
  2
AM_JIS$SH
 70
     0
  3

  4
"
  5
OPEN30
  6
GENAXEH
  7
OPEN30
 40
1.0
 41
2.5
 42
1.0
 43
10.0
 44
1.0
 45
0.0
 46
0.0
 47
0.1
 48
0.1
140
3.5
141
0.0
142
0.0
143
0.0393701
144
2.0
145
0.0
146
0.71
147
1.5
 71
     0
 72
     0
 73
     0
 74
     0
 75
     1
 76
     1
 77
     3
 78
     8
170
     0
171
     2
172
     1
173
     1
174
     0
175
     0
176
   256
177
   256
178
     2
270
     2
271
     4
272
     4
273
     2
274
     2
340
1B886
275
     0
280
     0
281
     0
282
     0
283
     1
284
     8
285
     8
286
     8
287
     5
288
     0
  0
DIMSTYLE
105
1B900
330
1B86A
100
AcDbSymbolTableRecord
100
AcDbDimStyleTableRecord
  2
DTOS-2
 70
     0
  3

  4
"
  5
SMALL
  6

  7

 40
2.0
 41
1.0
 42
1.0
 43
7.0
 44
1.0
 45
0.0
 46
0.0
 47
0.1
 48
0.1
140
3.0
141
0.0
142
0.0
143
0.0393701
144
1.0
145
0.0
146
0.71
147
1.0
 71
     0
 72
     0
 73
     0
 74
     0
 75
     0
 76
     0
 77
     1
 78
     8
170
     0
171
     2
172
     1
173
     0
174
     1
175
     0
176
   256
177
   256
178
   256
270
     2
271
     4
272
     4
273
     2
274
     2
340
1B886
275
     0
280
     0
281
     0
282
     0
283
     1
284
     8
285
     8
286
     8
287
     5
288
     0
  0
DIMSTYLE
105
1B901
330
1B86A
100
AcDbSymbolTableRecord
100
AcDbDimStyleTableRecord
  2
STANDARD
 70
     0
  3

  4

  5

  6

  7

 40
1.0
 41
0.18
 42
0.0625
 43
0.38
 44
0.18
 45
0.0
 46
0.0
 47
0.0
 48
0.0
140
0.18
141
0.09
142
0.0
143
25.4
144
1.0
145
0.0
146
1.0
147
0.09
 71
     0
 72
     0
 73
     1
 74
     1
 75
     0
 76
     0
 77
     0
 78
     0
170
     0
171
     2
172
     0
173
     0
174
     0
175
     0
176
     0
177
     0
178
     0
270
     2
271
     4
272
     4
273
     2
274
     2
340
1B886
275
     0
280
     0
281
     0
282
     0
283
     1
284
     8
285
     8
286
     8
287
     5
288
     0
  0
DIMSTYLE
105
1B9A6
330
1B86A
100
AcDbSymbolTableRecord
100
AcDbDimStyleTableRecord
  2
AM_ANSI
 70
     0
  3

  4
mm
  5

  6

  7

 40
1.0
 41
0.1
 42
0.05
 43
0.5
 44
0.1
 45
0.0
 46
0.0
 47
0.1
 48
0.1
140
0.12
141
0.0
142
0.0
143
25.4
144
1.0
145
0.0
146
0.71
147
0.06
 71
     0
 72
     0
 73
     1
 74
     1
 75
     0
 76
     0
 77
     0
 78
     7
170
     0
171
     2
172
     0
173
     0
174
     0
175
     0
176
   256
177
   256
178
     2
270
     2
271
     4
272
     4
273
     2
274
     4
340
1B886
275
     0
280
     0
281
     0
282
     0
283
     1
284
     7
285
     0
286
     0
287
     3
288
     0
1001
ACAD_DSTYLE_DIMARC_LENGTH0
1070
   379
1070
     1
  0
DIMSTYLE
105
1B9A7
330
1B86A
100
AcDbSymbolTableRecord
100
AcDbDimStyleTableRecord
  2
AM_ANSI$3
 70
     0
  3

  4
mm
  5

  6

  7

 40
1.0
 41
0.1
 42
0.05
 43
0.5
 44
0.1
 45
0.0
 46
0.0
 47
0.1
 48
0.1
140
0.12
141
0.0
142
0.0
143
25.4
144
1.0
145
0.0
146
0.71
147
0.06
 71
     0
 72
     0
 73
     1
 74
     1
 75
     0
 76
     0
 77
     0
 78
     7
170
     0
171
     2
172
     0
173
     0
174
     0
175
     0
176
   256
177
   256
178
     2
270
     2
271
     4
272
     4
273
     2
274
     4
340
1B886
275
     0
280
     0
281
     0
282
     0
283
     1
284
     7
285
     0
286
     0
287
     0
288
     1
1001
ACAD_DSTYLE_DIMARC_LENGTH0
1070
   379
1070
     1
  0
DIMSTYLE
105
1B9A8
330
1B86A
100
AcDbSymbolTableRecord
100
AcDbDimStyleTableRecord
  2
AM_ANSI$4
 70
     0
  3

  4
mm
  5

  6

  7

 40
1.0
 41
0.1
 42
0.05
 43
0.5
 44
0.1
 45
0.0
 46
0.0
 47
0.1
 48
0.1
140
0.12
141
0.0
142
0.0
143
25.4
144
1.0
145
0.0
146
0.71
147
0.06
 71
     0
 72
     0
 73
     1
 74
     1
 75
     0
 76
     0
 77
     0
 78
     7
170
     0
171
     2
172
     0
173
     0
174
     0
175
     0
176
   256
177
   256
178
     2
270
     2
271
     4
272
     4
273
     2
274
     4
340
1B886
275
     0
280
     0
281
     0
282
     0
283
     1
284
     7
285
     0
286
     0
287
     0
288
     1
1001
ACAD_DSTYLE_DIMARC_LENGTH0
1070
   379
1070
     1
  0
DIMSTYLE
105
1B9A9
330
1B86A
100
AcDbSymbolTableRecord
100
AcDbDimStyleTableRecord
  2
AM_ANSI$7
 70
     0
  3

  4
mm
  5

  6

  7

 40
1.0
 41
0.1
 42
0.05
 43
0.5
 44
0.1
 45
0.0
 46
0.0
 47
0.1
 48
0.1
140
0.24
141
0.0
142
0.0
143
25.4
144
1.0
145
0.0
146
0.71
147
0.06
 71
     0
 72
     0
 73
     1
 74
     1
 75
     0
 76
     0
 77
     0
 78
     7
170
     0
171
     2
172
     0
173
     0
174
     0
175
     0
176
   256
177
   256
178
     2
270
     2
271
     4
272
     4
273
     2
274
     4
340
1B886
275
     0
280
     0
281
     0
282
     0
283
     1
284
     7
285
     0
286
     0
287
     3
288
     0
1001
ACAD_DSTYLE_DIMARC_LENGTH0
1070
   379
1070
     1
  0
DIMSTYLE
105
1B9AA
330
1B86A
100
AcDbSymbolTableRecord
100
AcDbDimStyleTableRecord
  2
AM_ANSI$SF
 70
     0
  3

  4
mm
  5

  6

  7

 40
1.0
 41
0.1
 42
0.05
 43
0.5
 44
0.1
 45
0.0
 46
0.0
 47
0.1
 48
0.1
140
0.12
141
0.0
142
0.0
143
25.4
144
1.0
145
0.0
146
0.71
147
0.06
 71
     0
 72
     0
 73
     1
 74
     1
 75
     1
 76
     1
 77
     0
 78
     7
170
     0
171
     2
172
     0
173
     0
174
     0
175
     0
176
   256
177
   256
178
     2
270
     2
271
     4
272
     4
273
     2
274
     4
340
1B886
275
     0
280
     0
281
     0
282
     0
283
     1
284
     7
285
     0
286
     0
287
     3
288
     0
1001
ACAD_DSTYLE_DIMARC_LENGTH0
1070
   379
1070
     1
  0
DIMSTYLE
105
1B9AB
330
1B86A
100
AcDbSymbolTableRecord
100
AcDbDimStyleTableRecord
  2
AM_ANSI$SH
 70
     0
  3

  4
mm
  5

  6
GENAXEH
  7

 40
1.0
 41
0.1
 42
0.05
 43
0.5
 44
0.1
 45
0.0
 46
0.0
 47
0.1
 48
0.1
140
0.12
141
0.0
142
0.0
143
25.4
144
1.0
145
0.0
146
0.71
147
0.06
 71
     0
 72
     0
 73
     1
 74
     1
 75
     1
 76
     1
 77
     0
 78
     7
170
     0
171
     2
172
     0
173
     1
174
     0
175
     0
176
   256
177
   256
178
     2
270
     2
271
     4
272
     4
273
     2
274
     4
340
1B886
275
     0
280
     0
281
     0
282
     0
283
     1
284
     7
285
     0
286
     0
287
     3
288
     0
1001
ACAD_DSTYLE_DIMARC_LENGTH0
1070
   379
1070
     1
  0
DIMSTYLE
105
1B9C6
330
1B86A
100
AcDbSymbolTableRecord
100
AcDbDimStyleTableRecord
  2
AM_ISO
 70
     0
  3

  4
"
  5

  6

  7

 40
1.0
 41
2.5
 42
1.0
 43
10.0
 44
1.0
 45
0.0
 46
0.0
 47
0.1
 48
0.1
140
3.5
141
0.0
142
0.0
143
0.0393701
144
1.0
145
0.0
146
0.71
147
1.5
 71
     0
 72
     0
 73
     0
 74
     0
 75
     0
 76
     0
 77
     1
 78
     8
170
     0
171
     2
172
     1
173
     0
174
     0
175
     0
176
   256
177
   256
178
     2
270
     2
271
     2
272
     3
273
     2
274
     4
340
1B886
275
     0
280
     0
281
     0
282
     0
283
     0
284
     8
285
     0
286
     0
287
     3
288
     0
1001
ACAD_DSTYLE_DIMARC_LENGTH0
1070
   379
1070
     1
  0
DIMSTYLE
105
1B9C7
330
1B86A
100
AcDbSymbolTableRecord
100
AcDbDimStyleTableRecord
  2
AM_ISO$3
 70
     0
  3

  4
"
  5

  6

  7

 40
1.0
 41
2.5
 42
1.0
 43
10.0
 44
1.0
 45
0.0
 46
0.0
 47
0.1
 48
0.1
140
3.5
141
0.0
142
0.0
143
0.0393701
144
1.0
145
0.0
146
0.71
147
1.5
 71
     0
 72
     0
 73
     0
 74
     1
 75
     0
 76
     0
 77
     1
 78
     8
170
     0
171
     2
172
     0
173
     0
174
     0
175
     0
176
   256
177
   256
178
     2
270
     2
271
     2
272
     3
273
     2
274
     4
340
1B886
275
     0
280
     0
281
     0
282
     0
283
     0
284
     8
285
     0
286
     0
287
     0
288
     1
1001
ACAD_DSTYLE_DIMARC_LENGTH0
1070
   379
1070
     1
  0
DIMSTYLE
105
1B9C8
330
1B86A
100
AcDbSymbolTableRecord
100
AcDbDimStyleTableRecord
  2
AM_ISO$4
 70
     0
  3

  4
"
  5

  6

  7

 40
1.0
 41
2.5
 42
1.0
 43
10.0
 44
1.0
 45
0.0
 46
0.0
 47
0.1
 48
0.1
140
3.5
141
0.0
142
0.0
143
0.0393701
144
1.0
145
0.0
146
0.71
147
1.5
 71
     0
 72
     0
 73
     0
 74
     1
 75
     0
 76
     0
 77
     1
 78
     8
170
     0
171
     2
172
     0
173
     0
174
     0
175
     0
176
   256
177
   256
178
     2
270
     2
271
     2
272
     3
273
     2
274
     4
340
1B886
275
     0
280
     0
281
     0
282
     0
283
     0
284
     8
285
     0
286
     0
287
     0
288
     1
1001
ACAD_DSTYLE_DIMARC_LENGTH0
1070
   379
1070
     1
  0
DIMSTYLE
105
1B9C9
330
1B86A
100
AcDbSymbolTableRecord
100
AcDbDimStyleTableRecord
  2
AM_ISO$6
 70
     0
  3

  4
"
  5

  6

  7

 40
1.0
 41
2.5
 42
1.0
 43
10.0
 44
1.0
 45
0.0
 46
0.0
 47
0.1
 48
0.1
140
3.5
141
0.0
142
0.0
143
0.0393701
144
1.0
145
0.0
146
0.71
147
1.5
 71
     0
 72
     0
 73
     0
 74
     0
 75
     0
 76
     0
 77
     0
 78
     8
170
     0
171
     2
172
     1
173
     0
174
     0
175
     0
176
   256
177
   256
178
     2
270
     2
271
     2
272
     3
273
     2
274
     4
340
1B886
275
     0
280
     0
281
     0
282
     0
283
     0
284
     8
285
     0
286
     0
287
     3
288
     0
1001
ACAD_DSTYLE_DIMARC_LENGTH0
1070
   379
1070
     1
  0
DIMSTYLE
105
1B9CA
330
1B86A
100
AcDbSymbolTableRecord
100
AcDbDimStyleTableRecord
  2
AM_ISO$7
 70
     0
  3

  4
"
  5

  6

  7

 40
1.0
 41
2.5
 42
1.0
 43
10.0
 44
1.0
 45
0.0
 46
0.0
 47
0.1
 48
0.1
140
5.0
141
0.0
142
0.0
143
0.0393701
144
1.0
145
0.0
146
0.71
147
1.5
 71
     0
 72
     0
 73
     0
 74
     0
 75
     0
 76
     0
 77
     1
 78
     8
170
     0
171
     2
172
     1
173
     0
174
     0
175
     0
176
   256
177
   256
178
     2
270
     2
271
     2
272
     3
273
     2
274
     4
340
1B886
275
     0
280
     0
281
     0
282
     0
283
     0
284
     8
285
     0
286
     0
287
     3
288
     0
1001
ACAD_DSTYLE_DIMARC_LENGTH0
1070
   379
1070
     1
  0
DIMSTYLE
105
1B9CB
330
1B86A
100
AcDbSymbolTableRecord
100
AcDbDimStyleTableRecord
  2
AM_ISO$SF
 70
     0
  3

  4
"
  5

  6

  7

 40
1.0
 41
2.5
 42
1.0
 43
10.0
 44
1.0
 45
0.0
 46
0.0
 47
0.1
 48
0.1
140
3.5
141
0.0
142
0.0
143
0.0393701
144
1.0
145
0.0
146
0.71
147
1.5
 71
     0
 72
     0
 73
     0
 74
     0
 75
     1
 76
     1
 77
     1
 78
     8
170
     0
171
     2
172
     1
173
     0
174
     0
175
     0
176
   256
177
   256
178
     2
270
     2
271
     2
272
     3
273
     2
274
     4
340
1B886
275
     0
280
     0
281
     0
282
     0
283
     0
284
     8
285
     0
286
     0
287
     3
288
     0
1001
ACAD_DSTYLE_DIMARC_LENGTH0
1070
   379
1070
     1
  0
DIMSTYLE
105
1B9CC
330
1B86A
100
AcDbSymbolTableRecord
100
AcDbDimStyleTableRecord
  2
AM_ISO$SH
 70
     0
  3

  4
"
  5

  6
GENAXEH
  7

 40
1.0
 41
2.5
 42
1.0
 43
10.0
 44
1.0
 45
0.0
 46
0.0
 47
0.1
 48
0.1
140
3.5
141
0.0
142
0.0
143
0.0393701
144
2.0
145
0.0
146
0.71
147
1.5
 71
     0
 72
     0
 73
     0
 74
     0
 75
     1
 76
     1
 77
     1
 78
     8
170
     0
171
     2
172
     1
173
     1
174
     0
175
     0
176
   256
177
   256
178
     2
270
     2
271
     2
272
     3
273
     2
274
     4
340
1B886
275
     0
280
     0
281
     0
282
     0
283
     0
284
     8
285
     0
286
     0
287
     3
288
     0
1001
ACAD_DSTYLE_DIMARC_LENGTH0
1070
   379
1070
     1
  0
ENDTAB
  0
TABLE
  2
BLOCK_RECORD
  5
1B861
330
0
100
AcDbSymbolTable
 70
     4
  0
BLOCK_RECORD
  5
1B896
102
{ACAD_XDICTIONARY
360
1B9BD
102
}
330
1B861
100
AcDbSymbolTableRecord
100
AcDbBlockTableRecord
  2
*MODEL_SPACE
  0
BLOCK_RECORD
  5
1B892
102
{ACAD_XDICTIONARY
360
1C3C6
102
}
330
1B861
100
AcDbSymbolTableRecord
100
AcDbBlockTableRecord
  2
*PAPER_SPACE
  0
BLOCK_RECORD
  5
1B89A
330
1B861
100
AcDbSymbolTableRecord
100
AcDbBlockTableRecord
  2
_OPEN30
  0
BLOCK_RECORD
  5
1B89B
330
1B861
100
AcDbSymbolTableRecord
100
AcDbBlockTableRecord
  2
GENAXEH
  0
BLOCK_RECORD
  5
1B89C
330
1B861
100
AcDbSymbolTableRecord
100
AcDbBlockTableRecord
  2
_OPEN
  0
BLOCK_RECORD
  5
1B89D
330
1B861
100
AcDbSymbolTableRecord
100
AcDbBlockTableRecord
  2
_SMALL
  0
ENDTAB
  0
ENDSEC
  0
SECTION
  2
BLOCKS
  0
BLOCK
  5
1B919
330
1B896
100
AcDbEntity
  8
0
100
AcDbBlockBegin
  2
*MODEL_SPACE
 70
     0
 10
0.0
 20
0.0
 30
0.0
  3
*MODEL_SPACE
  1

  0
ENDBLK
  5
1B91A
330
1B896
100
AcDbEntity
  8
0
100
AcDbBlockEnd
  0
BLOCK
  5
1B917
330
1B892
100
AcDbEntity
 67
     1
  8
0
100
AcDbBlockBegin
  2
*PAPER_SPACE
 70
     0
 10
0.0
 20
0.0
 30
0.0
  3
*PAPER_SPACE
  1

  0
ENDBLK
  5
1B918
330
1B892
100
AcDbEntity
 67
     1
  8
0
100
AcDbBlockEnd
  0
BLOCK
  5
1B4CE
330
1B89A
100
AcDbEntity
  8
0
100
AcDbBlockBegin
  2
_OPEN30
 70
     0
 10
0.0
 20
0.0
 30
0.0
  3
_OPEN30
  1

  0
LINE
  5
1B4D0
330
1B89A
100
AcDbEntity
  8
0
  6
BYBLOCK
 62
     0
100
AcDbLine
 10
-1.0
 20
0.26794919
 30
0.0
 11
0.0
 21
0.0
 31
0.0
  0
LINE
  5
1B4D1
330
1B89A
100
AcDbEntity
  8
0
  6
BYBLOCK
 62
     0
100
AcDbLine
 10
0.0
 20
0.0
 30
0.0
 11
-1.0
 21
-0.26794919
 31
0.0
  0
LINE
  5
1B4D2
330
1B89A
100
AcDbEntity
  8
0
  6
BYBLOCK
 62
     0
100
AcDbLine
 10
0.0
 20
0.0
 30
0.0
 11
-1.0
 21
0.0
 31
0.0
  0
ENDBLK
  5
1B4D3
330
1B89A
100
AcDbEntity
  8
0
100
AcDbBlockEnd
  0
BLOCK
  5
1B4D4
330
1B89B
100
AcDbEntity
  8
0
100
AcDbBlockBegin
  2
GENAXEH
 70
     0
 10
0.0
 20
0.0
 30
0.0
  3
GENAXEH
  1

  0
LINE
  5
1B4D6
330
1B89B
100
AcDbEntity
  8
0
100
AcDbLine
 10
-1.0
 20
0.0
 30
0.0
 11
1.0
 21
0.0
 31
0.0
  0
ENDBLK
  5
1B4D7
330
1B89B
100
AcDbEntity
  8
0
100
AcDbBlockEnd
  0
BLOCK
  5
1B4D8
330
1B89C
100
AcDbEntity
  8
0
100
AcDbBlockBegin
  2
_OPEN
 70
     0
 10
0.0
 20
0.0
 30
0.0
  3
_OPEN
  1

  0
LINE
  5
1B4DA
330
1B89C
100
AcDbEntity
  8
0
  6
BYBLOCK
 62
     0
100
AcDbLine
 10
-1.0
 20
0.1666666666666667
 30
0.0
 11
0.0
 21
0.0
 31
0.0
  0
LINE
  5
1B4DB
330
1B89C
100
AcDbEntity
  8
0
  6
BYBLOCK
 62
     0
100
AcDbLine
 10
-1.0
 20
-0.1666666666666667
 30
0.0
 11
0.0
 21
0.0
 31
0.0
  0
LINE
  5
1B4DC
330
1B89C
100
AcDbEntity
  8
0
  6
BYBLOCK
 62
     0
100
AcDbLine
 10
0.0
 20
0.0
 30
0.0
 11
-1.0
 21
0.0
 31
0.0
  0
ENDBLK
  5
1B4DD
330
1B89C
100
AcDbEntity
  8
0
100
AcDbBlockEnd
  0
BLOCK
  5
1B4DE
330
1B89D
100
AcDbEntity
  8
AM_0
100
AcDbBlockBegin
  2
_SMALL
 70
     0
 10
0.0
 20
0.0
 30
0.0
  3
_SMALL
  1

  0
CIRCLE
  5
1B4E0
330
1B89D
100
AcDbEntity
  8
0
  6
BYBLOCK
 62
     0
100
AcDbCircle
 10
0.0
 20
0.0
 30
0.0
 40
0.25
  0
ENDBLK
  5
1B4E1
330
1B89D
100
AcDbEntity
  8
AM_0
100
AcDbBlockEnd
  0
ENDSEC
  0
SECTION
  2
ENTITIES
  0
TEXT
  5
1B4E2
330
1B896
100
AcDbEntity
  8
AM_5
100
AcDbText
 10
4281.160306530663
 20
260.6148997229019
 30
0.0
 40
6.0
  1
CH
 41
0.9
100
AcDbText
  0
LINE
  5
1B4E3
330
1B896
100
AcDbEntity
  8
AM_5
100
AcDbLine
 10
4286.883684729068
 20
275.0457924013334
 30
0.0
 11
4291.132146339193
 21
267.6872410385906
 31
0.0
  0
LINE
  5
1B4E4
330
1B896
100
AcDbEntity
  8
AM_5
100
AcDbLine
 10
4282.635223118943
 20
267.6872410385906
 30
0.0
 11
4291.132146339193
 21
267.6872410385906
 31
0.0
  0
LINE
  5
1B4E5
330
1B896
100
AcDbEntity
  8
AM_5
100
AcDbLine
 10
4286.883684729068
 20
275.0457924013334
 30
0.0
 11
4282.635223118943
 21
267.6872410385906
 31
0.0
  0
LINE
  5
1B4E6
330
1B896
100
AcDbEntity
  8
OS
100
AcDbLine
 10
4625.604247839233
 20
210.2750401066701
 30
0.0
 11
4638.796326812365
 21
197.0829611335377
 31
0.0
  0
LINE
  5
1B4E7
330
1B896
100
AcDbEntity
  8
OS
100
AcDbLine
 10
5000.296345429267
 20
242.0829611335377
 30
0.0
 11
4955.296345429267
 21
197.0829611335377
 31
0.0
  0
LINE
  5
1B4E8
330
1B896
100
AcDbEntity
  8
OS
100
AcDbLine
 10
4955.296345429267
 20
302.0829611335376
 30
0.0
 11
5000.296345429267
 21
257.0829611335377
 31
0.0
  0
LINE
  5
1B4E9
330
1B896
100
AcDbEntity
  8
OS
100
AcDbLine
 10
4593.796326812365
 20
242.0829611335377
 30
0.0
 11
4600.429925482536
 21
235.4493624633672
 31
0.0
  0
LINE
  5
1B4EA
330
1B896
100
AcDbEntity
  8
OS
100
AcDbLine
 10
4638.796326812365
 20
302.0829611335376
 30
0.0
 11
4593.796326812365
 21
257.0829611335377
 31
0.0
  0
LINE
  5
1B4EB
330
1B896
100
AcDbEntity
  8
OS
 62
     2
100
AcDbLine
 10
4308.869754158119
 20
288.5457924013334
 30
0.0
 11
4400.835997356774
 21
339.5404216926153
 31
0.0
  0
LINE
  5
1B4EC
330
1B896
100
AcDbEntity
  8
OS
100
AcDbLine
 10
4308.869754158119
 20
462.3445073306233
 30
0.0
 11
4345.452072337933
 21
482.629143185169
 31
0.0
  0
LINE
  5
1B4ED
330
1B896
100
AcDbEntity
  8
OS
  6
DASHED1
 62
     2
100
AcDbLine
 10
4426.369754158119
 20
449.3445073306231
 30
0.0
 11
4503.359120490328
 21
449.3445073306231
 31
0.0
  0
LINE
  5
1B4EE
330
1B896
100
AcDbEntity
  8
AM_0
100
AcDbLine
 10
4410.36975415812
 20
434.8445073306232
 30
0.0
 11
4410.36975415812
 21
366.6458939077783
 31
0.0
  0
LINE
  5
1B4EF
330
1B896
100
AcDbEntity
  8
AM_0
100
AcDbLine
 10
4370.36975415812
 20
434.8445073306232
 30
0.0
 11
4370.36975415812
 21
366.6458939077783
 31
0.0
  0
LINE
  5
1B4F0
330
1B896
100
AcDbEntity
  8
OS
100
AcDbLine
 10
4366.369754158119
 20
437.8445073306231
 30
0.0
 11
4366.369754158119
 21
366.6458939077783
 31
0.0
  0
LINE
  5
1B4F1
330
1B896
100
AcDbEntity
  8
OS
100
AcDbLine
 10
4413.869754158119
 20
462.3445073306233
 30
0.0
 11
4296.36975415812
 21
462.3445073306233
 31
0.0
  0
LINE
  5
1B4F2
330
1B896
100
AcDbEntity
  8
OS
 62
     2
100
AcDbLine
 10
4426.369754158119
 20
449.3445073306231
 30
0.0
 11
4413.869754158119
 21
449.3445073306231
 31
0.0
  0
LINE
  5
1B4F4
330
1B896
100
AcDbEntity
  8
TS
100
AcDbLine
 10
4393.414754158119
 20
431.3445073306232
 30
0.0
 11
4393.414754158119
 21
437.8445073306231
 31
0.0
  0
LINE
  5
1B4F5
330
1B896
100
AcDbEntity
  8
TS
100
AcDbLine
 10
4387.324754158121
 20
437.8445073306231
 30
0.0
 11
4387.324754158121
 21
431.3445073306232
 31
0.0
  0
LINE
  5
1B4F6
330
1B896
100
AcDbEntity
  8
AM_0
100
AcDbLine
 10
4410.36975415812
 20
434.8445073306232
 30
0.0
 11
4370.36975415812
 21
434.8445073306232
 31
0.0
  0
LINE
  5
1B4F7
330
1B896
100
AcDbEntity
  8
TS
100
AcDbLine
 10
4393.414754158119
 20
431.3445073306232
 30
0.0
 11
4387.324754158121
 21
431.3445073306232
 31
0.0
  0
LINE
  5
1B4F8
330
1B896
100
AcDbEntity
  8
TS
100
AcDbLine
 10
4391.76975415812
 20
429.3445073306233
 30
0.0
 11
4389.100760867819
 21
429.3445073306233
 31
0.0
  0
LINE
  5
1B4F9
330
1B896
100
AcDbEntity
  8
TS
100
AcDbLine
 10
4389.100760867819
 20
429.3445073306233
 30
0.0
 11
4388.969754158119
 21
429.3445073306233
 31
0.0
  0
LINE
  5
1B4FA
330
1B896
100
AcDbEntity
  8
TS
100
AcDbLine
 10
4388.469754158118
 20
429.8445073306233
 30
0.0
 11
4388.647548978419
 21
429.8445073306233
 31
0.0
  0
LINE
  5
1B4FB
330
1B896
100
AcDbEntity
  8
TS
100
AcDbLine
 10
4388.647548978419
 20
429.8445073306233
 30
0.0
 11
4392.26975415812
 21
429.8445073306233
 31
0.0
  0
LINE
  5
1B4FC
330
1B896
100
AcDbEntity
  8
TS
100
AcDbLine
 10
4387.609693751619
 20
431.3445073306232
 30
0.0
 11
4387.324754158121
 21
431.3445073306232
 31
0.0
  0
LINE
  5
1B4FD
330
1B896
100
AcDbEntity
  8
TS
100
AcDbLine
 10
4391.76975415812
 20
429.3445073306233
 30
0.0
 11
4392.26975415812
 21
429.8445073306233
 31
0.0
  0
LINE
  5
1B4FE
330
1B896
100
AcDbEntity
  8
TS
100
AcDbLine
 10
4388.469754158118
 20
429.8445073306233
 30
0.0
 11
4388.969754158119
 21
429.3445073306233
 31
0.0
  0
LINE
  5
1B4FF
330
1B896
100
AcDbEntity
  8
TS
100
AcDbLine
 10
4392.26975415812
 20
429.8445073306233
 30
0.0
 11
4392.26975415812
 21
431.3445073306232
 31
0.0
  0
LINE
  5
1B500
330
1B896
100
AcDbEntity
  8
TS
100
AcDbLine
 10
4388.469754158118
 20
431.3445073306232
 30
0.0
 11
4388.469754158118
 21
429.8445073306233
 31
0.0
  0
LINE
  5
1B501
330
1B896
100
AcDbEntity
  8
TS
100
AcDbLine
 10
4379.07148822572
 20
435.8445073306232
 30
0.0
 11
4379.07148822572
 21
434.8445073306232
 31
0.0
  0
LINE
  5
1B502
330
1B896
100
AcDbEntity
  8
TS
100
AcDbLine
 10
4379.715577046719
 20
436.3445073306232
 30
0.0
 11
4380.439618277319
 21
436.3445073306232
 31
0.0
  0
LINE
  5
1B503
330
1B896
100
AcDbEntity
  8
TS
100
AcDbLine
 10
4380.439618277319
 20
436.3445073306232
 30
0.0
 11
4385.205339252919
 21
436.3445073306232
 31
0.0
  0
LINE
  5
1B504
330
1B896
100
AcDbEntity
  8
TS
100
AcDbLine
 10
4379.571432370819
 20
436.3445073306232
 30
0.0
 11
4379.715577046719
 21
436.3445073306232
 31
0.0
  0
LINE
  5
1B505
330
1B896
100
AcDbEntity
  8
TS
100
AcDbLine
 10
4385.205339252919
 20
436.3445073306232
 30
0.0
 11
4400.20366360602
 21
436.3445073306232
 31
0.0
  0
ARC
  5
1B506
330
1B896
100
AcDbEntity
  8
TS
100
AcDbCircle
 10
4400.696106417319
 20
435.8445352565232
 30
0.0
 40
0.4999720748906001
100
AcDbArc
 50
359.9967997500045
 51
89.99679939247149
  0
LINE
  5
1B507
330
1B896
100
AcDbEntity
  8
TS
100
AcDbLine
 10
4400.20366360602
 20
436.3445073306232
 30
0.0
 11
4400.696134346318
 21
436.3445073306232
 31
0.0
  0
LINE
  5
1B508
330
1B896
100
AcDbEntity
  8
TS
100
AcDbLine
 10
4401.196078491419
 20
435.8445073306232
 30
0.0
 11
4401.196078491419
 21
434.8445073306232
 31
0.0
  0
LINE
  5
1B509
330
1B896
100
AcDbEntity
  8
TS
100
AcDbLine
 10
4383.36975415812
 20
396.8445073306233
 30
0.0
 11
4378.36975415812
 21
396.8445073306233
 31
0.0
  0
ARC
  5
1B50A
330
1B896
100
AcDbEntity
  8
TS
100
AcDbCircle
 10
4378.36975415812
 20
397.8445073306232
 30
0.0
 40
1.0
100
AcDbArc
 50
180.0
 51
270.0
  0
ARC
  5
1B50B
330
1B896
100
AcDbEntity
  8
TS
100
AcDbCircle
 10
4378.969754158119
 20
433.2445073306232
 30
0.0
 40
1.600000000000022
100
AcDbArc
 50
98.21321070168357
 51
180.0
  0
LINE
  5
1B50C
330
1B896
100
AcDbEntity
  8
TS
100
AcDbLine
 10
4377.369754158119
 20
433.2445073306232
 30
0.0
 11
4377.369754158119
 21
397.8445073306232
 31
0.0
  0
LINE
  5
1B50D
330
1B896
100
AcDbEntity
  8
TS
100
AcDbLine
 10
4397.369754158119
 20
396.8445073306233
 30
0.0
 11
4383.36975415812
 21
396.8445073306233
 31
0.0
  0
ARC
  5
1B50E
330
1B896
100
AcDbEntity
  8
TS
100
AcDbCircle
 10
4402.36975415812
 20
397.8445073306232
 30
0.0
 40
1.0
100
AcDbArc
 50
270.0
 51
0.0
  0
LINE
  5
1B50F
330
1B896
100
AcDbEntity
  8
TS
100
AcDbLine
 10
4402.36975415812
 20
396.8445073306233
 30
0.0
 11
4397.369754158119
 21
396.8445073306233
 31
0.0
  0
LINE
  5
1B510
330
1B896
100
AcDbEntity
  8
TS
100
AcDbLine
 10
4403.369754158119
 20
433.2445073306232
 30
0.0
 11
4403.369754158119
 21
397.8445073306232
 31
0.0
  0
ARC
  5
1B511
330
1B896
100
AcDbEntity
  8
TS
100
AcDbCircle
 10
4401.769754158119
 20
433.2445073306232
 30
0.0
 40
1.600000000000022
100
AcDbArc
 50
0.0
 51
81.78678929831644
  0
LINE
  5
1B512
330
1B896
100
AcDbEntity
  8
TS
100
AcDbLine
 10
4377.369754158119
 20
396.8445073306233
 30
0.0
 11
4377.369754158119
 21
397.8445073306232
 31
0.0
  0
LINE
  5
1B513
330
1B896
100
AcDbEntity
  8
TS
100
AcDbLine
 10
4378.36975415812
 20
396.8445073306233
 30
0.0
 11
4377.369754158119
 21
396.8445073306233
 31
0.0
  0
LINE
  5
1B514
330
1B896
100
AcDbEntity
  8
TS
100
AcDbLine
 10
4403.369754158119
 20
397.8445073306232
 30
0.0
 11
4403.369754158119
 21
396.8445073306233
 31
0.0
  0
LINE
  5
1B515
330
1B896
100
AcDbEntity
  8
TS
100
AcDbLine
 10
4403.369754158119
 20
396.8445073306233
 30
0.0
 11
4402.36975415812
 21
396.8445073306233
 31
0.0
  0
ARC
  5
1B516
330
1B896
100
AcDbEntity
  8
TS
100
AcDbCircle
 10
4379.571460299819
 20
435.8445352565232
 30
0.0
 40
0.4999720748904047
100
AcDbArc
 50
90.00320060742424
 51
180.0032002499953
  0
ARC
  5
1B517
330
1B896
100
AcDbEntity
  8
TS
100
AcDbCircle
 10
4402.76975415812
 20
454.3445073306233
 30
0.0
 40
0.5
100
AcDbArc
 50
0.0
 51
90.0
  0
LINE
  5
1B518
330
1B896
100
AcDbEntity
  8
TS
100
AcDbLine
 10
4397.26975415812
 20
454.8445073306233
 30
0.0
 11
4402.76975415812
 21
454.8445073306233
 31
0.0
  0
LINE
  5
1B519
330
1B896
100
AcDbEntity
  8
TS
100
AcDbLine
 10
4403.269754158119
 20
454.3445073306233
 30
0.0
 11
4403.269754158119
 21
445.8445073306231
 31
0.0
  0
ARC
  5
1B51A
330
1B896
100
AcDbEntity
  8
TS
100
AcDbCircle
 10
4402.76975415812
 20
442.3445073306232
 30
0.0
 40
0.5
100
AcDbArc
 50
270.0
 51
0.0
  0
LINE
  5
1B51B
330
1B896
100
AcDbEntity
  8
TS
100
AcDbLine
 10
4403.269754158119
 20
445.8445073306231
 30
0.0
 11
4397.26975415812
 21
445.8445073306231
 31
0.0
  0
LINE
  5
1B51C
330
1B896
100
AcDbEntity
  8
TS
100
AcDbLine
 10
4403.269754158119
 20
445.8445073306231
 30
0.0
 11
4403.269754158119
 21
442.3445073306232
 31
0.0
  0
LINE
  5
1B51D
330
1B896
100
AcDbEntity
  8
TS
100
AcDbLine
 10
4403.269754158119
 20
441.8445073306231
 30
0.0
 11
4397.26975415812
 21
441.8445073306231
 31
0.0
  0
LINE
  5
1B51E
330
1B896
100
AcDbEntity
  8
TS
100
AcDbLine
 10
4403.269754158119
 20
438.3445073306232
 30
0.0
 11
4403.269754158119
 21
441.8445073306231
 31
0.0
  0
ARC
  5
1B51F
330
1B896
100
AcDbEntity
  8
TS
100
AcDbCircle
 10
4402.76975415812
 20
438.3445073306232
 30
0.0
 40
0.5
100
AcDbArc
 50
270.0
 51
0.0
  0
ARC
  5
1B520
330
1B896
100
AcDbEntity
  8
TS
100
AcDbCircle
 10
4377.969754158119
 20
454.3445073306233
 30
0.0
 40
0.5
100
AcDbArc
 50
90.0
 51
180.0
  0
LINE
  5
1B521
330
1B896
100
AcDbEntity
  8
TS
100
AcDbLine
 10
4377.969754158119
 20
454.8445073306233
 30
0.0
 11
4383.469754158119
 21
454.8445073306233
 31
0.0
  0
LINE
  5
1B522
330
1B896
100
AcDbEntity
  8
TS
100
AcDbLine
 10
4377.469754158119
 20
454.3445073306233
 30
0.0
 11
4377.469754158119
 21
445.8445073306231
 31
0.0
  0
LINE
  5
1B523
330
1B896
100
AcDbEntity
  8
TS
100
AcDbLine
 10
4383.469754158119
 20
454.8445073306233
 30
0.0
 11
4397.26975415812
 21
454.8445073306233
 31
0.0
  0
ARC
  5
1B524
330
1B896
100
AcDbEntity
  8
TS
100
AcDbCircle
 10
4377.969754158119
 20
442.3445073306232
 30
0.0
 40
0.5
100
AcDbArc
 50
180.0
 51
270.0
  0
LINE
  5
1B525
330
1B896
100
AcDbEntity
  8
TS
100
AcDbLine
 10
4383.469754158119
 20
445.8445073306231
 30
0.0
 11
4377.469754158119
 21
445.8445073306231
 31
0.0
  0
LINE
  5
1B526
330
1B896
100
AcDbEntity
  8
TS
100
AcDbLine
 10
4377.469754158119
 20
445.8445073306231
 30
0.0
 11
4377.469754158119
 21
442.3445073306232
 31
0.0
  0
LINE
  5
1B527
330
1B896
100
AcDbEntity
  8
TS
100
AcDbLine
 10
4383.469754158119
 20
441.8445073306231
 30
0.0
 11
4377.469754158119
 21
441.8445073306231
 31
0.0
  0
LINE
  5
1B528
330
1B896
100
AcDbEntity
  8
TS
100
AcDbLine
 10
4377.469754158119
 20
438.3445073306232
 30
0.0
 11
4377.469754158119
 21
441.8445073306231
 31
0.0
  0
ARC
  5
1B529
330
1B896
100
AcDbEntity
  8
TS
100
AcDbCircle
 10
4377.969754158119
 20
438.3445073306232
 30
0.0
 40
0.5
100
AcDbArc
 50
180.0
 51
270.0
  0
LINE
  5
1B52A
330
1B896
100
AcDbEntity
  8
TS
100
AcDbLine
 10
4397.26975415812
 20
445.8445073306231
 30
0.0
 11
4383.469754158119
 21
445.8445073306231
 31
0.0
  0
LINE
  5
1B52B
330
1B896
100
AcDbEntity
  8
TS
100
AcDbLine
 10
4397.26975415812
 20
441.8445073306231
 30
0.0
 11
4383.469754158119
 21
441.8445073306231
 31
0.0
  0
LINE
  5
1B52C
330
1B896
100
AcDbEntity
  8
AM_0
100
AcDbLine
 10
4366.369754158119
 20
461.8445073306232
 30
0.0
 11
4413.36975415812
 21
461.8445073306232
 31
0.0
  0
LINE
  5
1B52D
330
1B896
100
AcDbEntity
  8
AM_0
100
AcDbLine
 10
4366.369754158119
 20
437.8445073306231
 30
0.0
 11
4411.369754158119
 21
437.8445073306231
 31
0.0
  0
LINE
  5
1B52E
330
1B896
100
AcDbEntity
  8
AM_0
100
AcDbLine
 10
4366.369754158119
 20
461.8445073306232
 30
0.0
 11
4366.369754158119
 21
437.8445073306231
 31
0.0
  0
LINE
  5
1B52F
330
1B896
100
AcDbEntity
  8
AM_0
100
AcDbLine
 10
4411.369754158119
 20
437.8445073306231
 30
0.0
 11
4413.36975415812
 21
439.8445073306231
 31
0.0
  0
LINE
  5
1B530
330
1B896
100
AcDbEntity
  8
AM_0
100
AcDbLine
 10
4413.36975415812
 20
439.8445073306231
 30
0.0
 11
4413.36975415812
 21
461.8445073306232
 31
0.0
  0
LINE
  5
1B531
330
1B896
100
AcDbEntity
  8
________
100
AcDbLine
 10
4390.369754158119
 20
458.0850772452808
 30
0.0
 11
4390.369754158119
 21
390.5501567624298
 31
0.0
  0
LINE
  5
1B532
330
1B896
100
AcDbEntity
  8
AM_0
100
AcDbLine
 10
4370.36975415812
 20
260.0457924013334
 30
0.0
 11
4370.36975415812
 21
-4.954207598666471
 31
0.0
  0
LINE
  5
1B533
330
1B896
100
AcDbEntity
  8
AM_0
100
AcDbLine
 10
4410.36975415812
 20
260.0457924013334
 30
0.0
 11
4410.36975415812
 21
-4.954207598666471
 31
0.0
  0
LINE
  5
1B534
330
1B896
100
AcDbEntity
  8
OS
100
AcDbLine
 10
4366.369754158119
 20
263.0457924013334
 30
0.0
 11
4366.369754158119
 21
-16.95420759866658
 31
0.0
  0
LINE
  5
1B535
330
1B896
100
AcDbEntity
  8
OS
100
AcDbLine
 10
4509.36975415812
 20
-26.55420759866649
 30
0.0
 11
4266.613511952795
 21
-26.55420759866649
 31
0.0
  0
LINE
  5
1B536
330
1B896
100
AcDbEntity
  8
OS
100
AcDbLine
 10
4509.36975415812
 20
-24.15420759866639
 30
0.0
 11
4266.613511952795
 21
-24.15420759866639
 31
0.0
  0
LINE
  5
1B537
330
1B896
100
AcDbEntity
  8
OS
100
AcDbLine
 10
4509.36975415812
 20
-21.75420759866653
 30
0.0
 11
4266.613511952795
 21
-21.75420759866653
 31
0.0
  0
LINE
  5
1B538
330
1B896
100
AcDbEntity
  8
OS
100
AcDbLine
 10
4509.36975415812
 20
-19.35420759866644
 30
0.0
 11
4266.613511952795
 21
-19.35420759866644
 31
0.0
  0
LINE
  5
1B539
330
1B896
100
AcDbEntity
  8
OS
100
AcDbLine
 10
4509.36975415812
 20
-28.95420759866647
 30
0.0
 11
4266.613511952795
 21
-28.95420759866647
 31
0.0
  0
LINE
  5
1B53A
330
1B896
100
AcDbEntity
  8
OS
100
AcDbLine
 10
4509.36975415812
 20
-16.95420759866647
 30
0.0
 11
4266.613511952795
 21
-16.95420759866647
 31
0.0
  0
LINE
  5
1B53B
330
1B896
100
AcDbEntity
  8
OS
  6
DASHED1
 62
     2
100
AcDbLine
 10
4431.36975415812
 20
276.0457924013334
 30
0.0
 11
4477.317753149228
 21
276.0457924013334
 31
0.0
  0
LINE
  5
1B53C
330
1B896
100
AcDbEntity
  8
OS
 62
     2
100
AcDbLine
 10
4413.869754158119
 20
288.5457924013334
 30
0.0
 11
4296.36975415812
 21
288.5457924013334
 31
0.0
  0
LINE
  5
1B53D
330
1B896
100
AcDbEntity
  8
OS
 62
     2
100
AcDbLine
 10
4431.36975415812
 20
276.0457924013334
 30
0.0
 11
4413.36975415812
 21
276.0457924013334
 31
0.0
  0
LINE
  5
1B53E
330
1B896
100
AcDbEntity
  8
AM_2
100
AcDbLine
 10
4413.25836413372
 20
263.0457924012336
 30
0.0
 11
4413.006243936919
 21
263.0457924012336
 31
0.0
  0
ARC
  5
1B53F
330
1B896
100
AcDbEntity
  8
AM_2
100
AcDbCircle
 10
4413.006244281519
 20
265.0457924012335
 30
0.0
 40
2.0
100
AcDbArc
 50
232.384085773878
 51
270.0
  0
LINE
  5
1B540
330
1B896
100
AcDbEntity
  8
AM_2
100
AcDbLine
 10
4413.36975415812
 20
272.0457927122335
 30
0.0
 11
4436.369752980919
 21
272.0457927122335
 31
0.0
  0
LINE
  5
1B541
330
1B896
100
AcDbEntity
  8
AM_2
100
AcDbLine
 10
4438.369753368319
 20
271.5457925483336
 30
0.0
 11
4413.36975415812
 21
271.5457925483336
 31
0.0
  0
LINE
  5
1B542
330
1B896
100
AcDbEntity
  8
AM_2
100
AcDbLine
 10
4413.36975415812
 20
265.0457924962335
 30
0.0
 11
4436.369754158119
 21
265.0457924962335
 31
0.0
  0
LINE
  5
1B543
330
1B896
100
AcDbEntity
  8
AM_2
100
AcDbLine
 10
4436.369754158119
 20
263.0457924012336
 30
0.0
 11
4413.25836413372
 21
263.0457924012336
 31
0.0
  0
LINE
  5
1B544
330
1B896
100
AcDbEntity
  8
AM_2
100
AcDbLine
 10
4438.369753368319
 20
271.5457927122335
 30
0.0
 11
4438.369753368319
 21
265.0457924962335
 31
0.0
  0
ARC
  5
1B545
330
1B896
100
AcDbEntity
  8
AM_2
100
AcDbCircle
 10
4437.86975336832
 20
271.5457927122335
 30
0.0
 40
0.5
100
AcDbArc
 50
0.0
 51
90.0
  0
LINE
  5
1B546
330
1B896
100
AcDbEntity
  8
AM_2
100
AcDbLine
 10
4437.86975336832
 20
272.0457927122335
 30
0.0
 11
4436.369752980919
 21
272.0457927122335
 31
0.0
  0
LINE
  5
1B547
330
1B896
100
AcDbEntity
  8
AM_2
100
AcDbLine
 10
4438.369753368319
 20
265.0457924962335
 30
0.0
 11
4437.36975314482
 21
265.0457924962335
 31
0.0
  0
LINE
  5
1B548
330
1B896
100
AcDbEntity
  8
AM_2
100
AcDbLine
 10
4432.791985575319
 20
265.0457924962335
 30
0.0
 11
4437.36975314482
 21
265.0457924962335
 31
0.0
  0
ARC
  5
1B549
330
1B896
100
AcDbEntity
  8
AM_2
100
AcDbCircle
 10
4436.36975336832
 20
271.0457924962335
 30
0.0
 40
1.0
100
AcDbArc
 50
0.0
 51
89.99999999994789
  0
LINE
  5
1B54A
330
1B896
100
AcDbEntity
  8
AM_2
100
AcDbLine
 10
4437.36975314482
 20
265.0457924962335
 30
0.0
 11
4437.36975314482
 21
271.0457925483336
 31
0.0
  0
LINE
  5
1B54B
330
1B896
100
AcDbEntity
  8
AM_2
100
AcDbLine
 10
4436.369754158119
 20
265.0457924962335
 30
0.0
 11
4436.369754158119
 21
263.0457924012336
 31
0.0
  0
LINE
  5
1B54C
330
1B896
100
AcDbEntity
  8
AM_0
100
AcDbLine
 10
4411.369754158119
 20
263.0457924013334
 30
0.0
 11
4413.36975415812
 21
265.0457924013334
 31
0.0
  0
LINE
  5
1B54D
330
1B896
100
AcDbEntity
  8
AM_0
100
AcDbLine
 10
4413.36975415812
 20
265.0457924013334
 30
0.0
 11
4413.36975415812
 21
288.0457924013334
 31
0.0
  0
LINE
  5
1B54E
330
1B896
100
AcDbEntity
  8
AM_0
100
AcDbLine
 10
4366.369754158119
 20
288.0457924013334
 30
0.0
 11
4413.36975415812
 21
288.0457924013334
 31
0.0
  0
LINE
  5
1B54F
330
1B896
100
AcDbEntity
  8
AM_2
100
AcDbLine
 10
4423.869754158129
 20
263.0457924012336
 30
0.0
 11
4423.869754158129
 21
260.5457927122334
 31
0.0
  0
LINE
  5
1B550
330
1B896
100
AcDbEntity
  8
AM_2
100
AcDbLine
 10
4431.869754158129
 20
263.0457924012336
 30
0.0
 11
4431.869754158129
 21
260.5457927122334
 31
0.0
  0
LINE
  5
1B551
330
1B896
100
AcDbEntity
  8
AM_2
100
AcDbLine
 10
4437.86975415795
 20
232.8394765222134
 30
0.0
 11
4437.86975415795
 21
260.5457927122334
 31
0.0
  0
ARC
  5
1B552
330
1B896
100
AcDbEntity
  8
AM_2
100
AcDbCircle
 10
4435.86975415795
 20
232.8394765222134
 30
0.0
 40
2.0
100
AcDbArc
 50
276.2258290645709
 51
0.0
  0
LINE
  5
1B553
330
1B896
100
AcDbEntity
  8
AM_2
100
AcDbLine
 10
4410.36975415812
 20
259.5457927122335
 30
0.0
 11
4410.36975415812
 21
228.6033045738235
 31
0.0
  0
LINE
  5
1B554
330
1B896
100
AcDbEntity
  8
AM_2
100
AcDbLine
 10
4437.86975415795
 20
260.5457927122334
 30
0.0
 11
4411.369754158119
 21
260.5457927122334
 31
0.0
  0
ARC
  5
1B555
330
1B896
100
AcDbEntity
  8
AM_2
100
AcDbCircle
 10
4410.869754158119
 20
228.6033045737976
 30
0.0
 40
0.5
100
AcDbArc
 50
180.0
 51
276.2258290647807
  0
LINE
  5
1B556
330
1B896
100
AcDbEntity
  8
AM_2
100
AcDbLine
 10
4410.923977913209
 20
228.1062534855134
 30
0.0
 11
4436.086649178299
 21
230.8512721689934
 31
0.0
  0
LINE
  5
1B557
330
1B896
100
AcDbEntity
  8
AM_0
100
AcDbLine
 10
4377.36975415813
 20
260.0457927122334
 30
0.0
 11
4410.50372875434
 21
260.0457927122334
 31
0.0
  0
ARC
  5
1B558
330
1B896
100
AcDbEntity
  8
AM_2
100
AcDbCircle
 10
4411.369754158119
 20
259.5457927122335
 30
0.0
 40
1.0
100
AcDbArc
 50
89.99999999984366
 51
180.0
  0
LINE
  5
1B559
330
1B896
100
AcDbEntity
  8
AM_0
100
AcDbLine
 10
4410.36975415812
 20
260.0457924013334
 30
0.0
 11
4370.36975415812
 21
260.0457924013334
 31
0.0
  0
LINE
  5
1B55A
330
1B896
100
AcDbEntity
  8
AM_0
100
AcDbLine
 10
4366.369754158119
 20
288.0457924013334
 30
0.0
 11
4366.369754158119
 21
263.0457924013334
 31
0.0
  0
LINE
  5
1B55B
330
1B896
100
AcDbEntity
  8
AM_0
100
AcDbLine
 10
4411.369754158119
 20
263.0457924013334
 30
0.0
 11
4396.76975415812
 21
263.0457924013334
 31
0.0
  0
LINE
  5
1B55C
330
1B896
100
AcDbEntity
  8
OS
100
AcDbLine
 10
4296.36975415812
 20
-16.95420759866647
 30
0.0
 11
4296.36975415812
 21
338.5404216926153
 31
0.0
  0
TEXT
  5
1B55D
330
1B896
100
AcDbEntity
  8
AM_5
100
AcDbText
 10
4592.03627397916
 20
152.9972630864855
 30
0.0
 40
6.0
  1
巾木
 41
0.9
100
AcDbText
  0
TEXT
  5
1B55E
330
1B896
100
AcDbEntity
  8
AM_5
100
AcDbText
 10
4435.95457271845
 20
475.3732802397295
 30
0.0
 40
6.0
  1
LDD-V（ラプコン隠しドアダンパー）
 41
0.9
100
AcDbText
  0
LINE
  5
1B55F
330
1B896
100
AcDbEntity
  8
OS
  6
DASHED1
 62
     2
100
AcDbLine
 10
4488.946823412165
 20
276.0457924013334
 30
0.0
 11
4508.359120490328
 21
276.0457924013334
 31
0.0
  0
LINE
  5
1B560
330
1B896
100
AcDbEntity
  8
OS
  6
DASHED1
 62
     2
100
AcDbLine
 10
4413.869754158119
 20
288.5457924013334
 30
0.0
 11
4508.359120490328
 21
288.5457924013334
 31
0.0
  0
LINE
  5
1B561
330
1B896
100
AcDbEntity
  8
OS
  6
DASHED1
 62
     2
100
AcDbLine
 10
4296.36975415812
 20
276.0457924013334
 30
0.0
 11
4266.613511952795
 21
276.0457924013334
 31
0.0
  0
LINE
  5
1B562
330
1B896
100
AcDbEntity
  8
OS
  6
DASHED1
 62
     2
100
AcDbLine
 10
4296.36975415812
 20
288.5457924013334
 30
0.0
 11
4266.613511952795
 21
288.5457924013334
 31
0.0
  0
LINE
  5
1B563
330
1B896
100
AcDbEntity
  8
OS
  6
DASHED1
 62
     2
100
AcDbLine
 10
4413.869754158119
 20
462.3445073306233
 30
0.0
 11
4503.359120490328
 21
462.3445073306233
 31
0.0
  0
LINE
  5
1B564
330
1B896
100
AcDbEntity
  8
OS
  6
DASHED1
 62
     2
100
AcDbLine
 10
4296.36975415812
 20
449.8445073306233
 30
0.0
 11
4266.613511952795
 21
449.8445073306233
 31
0.0
  0
LINE
  5
1B565
330
1B896
100
AcDbEntity
  8
OS
  6
DASHED1
 62
     2
100
AcDbLine
 10
4296.36975415812
 20
462.3445073306233
 30
0.0
 11
4266.613511952795
 21
462.3445073306233
 31
0.0
  0
LINE
  5
1B566
330
1B896
100
AcDbEntity
  8
OS
100
AcDbLine
 10
4426.369754158119
 20
366.6458939077783
 30
0.0
 11
4426.369754158119
 21
482.6316347330884
 31
0.0
  0
LINE
  5
1B567
330
1B896
100
AcDbEntity
  8
OS
100
AcDbLine
 10
4413.869754158119
 20
449.3445073306231
 30
0.0
 11
4413.869754158119
 21
482.6316347330884
 31
0.0
  0
LINE
  5
1B568
330
1B896
100
AcDbEntity
  8
OS
100
AcDbLine
 10
4296.36975415812
 20
366.6458939077783
 30
0.0
 11
4296.36975415812
 21
482.6316347330884
 31
0.0
  0
LINE
  5
1B569
330
1B896
100
AcDbEntity
  8
OS
100
AcDbLine
 10
4308.869754158119
 20
462.3445073306233
 30
0.0
 11
4308.869754158119
 21
482.6316347330884
 31
0.0
  0
LINE
  5
1B56A
330
1B896
100
AcDbEntity
  8
OS
100
AcDbLine
 10
4366.369754158119
 20
449.8445073306233
 30
0.0
 11
4296.36975415812
 21
449.8445073306233
 31
0.0
  0
LINE
  5
1B56B
330
1B896
100
AcDbEntity
  8
OS
 62
     2
100
AcDbLine
 10
4308.869754158119
 20
288.5457924013334
 30
0.0
 11
4308.869754158119
 21
339.5404216926153
 31
0.0
  0
LINE
  5
1B56C
330
1B896
100
AcDbEntity
  8
OS
100
AcDbLine
 10
4426.369754158119
 20
22.80033785587097
 30
0.0
 11
4426.369754158119
 21
229.7912472576951
 31
0.0
  0
LINE
  5
1B56D
330
1B896
100
AcDbEntity
  8
OS
 62
     2
100
AcDbLine
 10
4413.869754158119
 20
288.5457924013334
 30
0.0
 11
4413.869754158119
 21
339.5404216926153
 31
0.0
  0
LINE
  5
1B56E
330
1B896
100
AcDbEntity
  8
________
100
AcDbLine
 10
4390.369754158119
 20
260.7785710611573
 30
0.0
 11
4390.369754158119
 21
328.6627134911934
 31
0.0
  0
LINE
  5
1B56F
330
1B896
100
AcDbEntity
  8
AM_2
100
AcDbLine
 10
4424.069754158109
 20
-7.954207598666471
 30
0.0
 11
4424.069754158109
 21
-13.95420757256647
 31
0.0
  0
LINE
  5
1B570
330
1B896
100
AcDbEntity
  8
AM_2
100
AcDbLine
 10
4431.66975415811
 20
-7.954207598666471
 30
0.0
 11
4431.66975415811
 21
-13.95420757256647
 31
0.0
  0
LINE
  5
1B571
330
1B896
100
AcDbEntity
  8
AM_2
100
AcDbLine
 10
4414.369754158109
 20
-13.95420757256647
 30
0.0
 11
4418.430256951709
 21
-13.95420757256647
 31
0.0
  0
ARC
  5
1B572
330
1B896
100
AcDbEntity
  8
AM_2
100
AcDbCircle
 10
4414.369754158109
 20
-14.95420757256646
 30
0.0
 40
1.0
100
AcDbArc
 50
90.0
 51
180.0
  0
LINE
  5
1B573
330
1B896
100
AcDbEntity
  8
AM_2
100
AcDbLine
 10
4413.36975415811
 20
-14.95420757256646
 30
0.0
 11
4413.36975415811
 21
-16.95420759866647
 31
0.0
  0
LINE
  5
1B574
330
1B896
100
AcDbEntity
  8
AM_2
100
AcDbLine
 10
4452.369753565815
 20
-14.95420750366645
 30
0.0
 11
4417.869753964409
 21
-14.95420750366645
 31
0.0
  0
LINE
  5
1B575
330
1B896
100
AcDbEntity
  8
AM_2
100
AcDbLine
 10
4413.61975419911
 20
-16.95420759866647
 30
0.0
 11
4414.119754048209
 21
-18.45420761176648
 31
0.0
  0
LINE
  5
1B576
330
1B896
100
AcDbEntity
  8
AM_2
100
AcDbLine
 10
4414.119754048209
 20
-18.45420761176648
 30
0.0
 11
4414.619754363009
 21
-16.95420759866647
 31
0.0
  0
LINE
  5
1B577
330
1B896
100
AcDbEntity
  8
AM_2
100
AcDbLine
 10
4416.619754225211
 20
-18.45420761176648
 30
0.0
 11
4417.119754307109
 21
-16.95420759866647
 31
0.0
  0
LINE
  5
1B578
330
1B896
100
AcDbEntity
  8
AM_2
100
AcDbLine
 10
4416.11975414321
 20
-16.95420759866647
 30
0.0
 11
4416.619754225211
 21
-18.45420761176648
 31
0.0
  0
LINE
  5
1B579
330
1B896
100
AcDbEntity
  8
AM_2
100
AcDbLine
 10
4413.36975415811
 20
-16.95420759866647
 30
0.0
 11
4417.869753964409
 21
-16.95420759866647
 31
0.0
  0
LINE
  5
1B57A
330
1B896
100
AcDbEntity
  8
AM_2
100
AcDbLine
 10
4417.869753964409
 20
-14.95420750366645
 30
0.0
 11
4413.36975415811
 21
-14.95420750366645
 31
0.0
  0
LINE
  5
1B57B
330
1B896
100
AcDbEntity
  8
AM_2
100
AcDbLine
 10
4417.89522423981
 20
-14.65368763686648
 30
0.0
 11
4417.869753964409
 21
-14.95420750366645
 31
0.0
  0
LINE
  5
1B57C
330
1B896
100
AcDbEntity
  8
AM_2
100
AcDbLine
 10
4417.966939803409
 20
-14.38764975546644
 30
0.0
 11
4417.89522423981
 21
-14.65368763686648
 31
0.0
  0
LINE
  5
1B57D
330
1B896
100
AcDbEntity
  8
AM_2
100
AcDbLine
 10
4418.08029805881
 20
-14.16970956276657
 30
0.0
 11
4417.966939803409
 21
-14.38764975546644
 31
0.0
  0
LINE
  5
1B57E
330
1B896
100
AcDbEntity
  8
AM_2
100
AcDbLine
 10
4418.23737632121
 20
-14.01379894606646
 30
0.0
 11
4418.08029805881
 21
-14.16970956276657
 31
0.0
  0
LINE
  5
1B57F
330
1B896
100
AcDbEntity
  8
AM_2
100
AcDbLine
 10
4418.426879044811
 20
-13.95422503486645
 30
0.0
 11
4418.23737632121
 21
-14.01379894606646
 31
0.0
  0
LINE
  5
1B580
330
1B896
100
AcDbEntity
  8
AM_2
100
AcDbLine
 10
4418.430256951709
 20
-13.95420757256647
 30
0.0
 11
4418.426879044811
 21
-13.95422503486645
 31
0.0
  0
LINE
  5
1B581
330
1B896
100
AcDbEntity
  8
AM_2
100
AcDbLine
 10
4418.430256951709
 20
-13.95420757256647
 30
0.0
 11
4451.369755264514
 21
-13.95420757256647
 31
0.0
  0
LINE
  5
1B582
330
1B896
100
AcDbEntity
  8
AM_2
100
AcDbLine
 10
4417.869753964409
 20
-16.95420759866647
 30
0.0
 11
4452.369753565815
 21
-16.95420759866647
 31
0.0
  0
LINE
  5
1B583
330
1B896
100
AcDbEntity
  8
AM_2
100
AcDbLine
 10
4417.869753964409
 20
-14.95420750366645
 30
0.0
 11
4417.869753964409
 21
-16.95420759866647
 31
0.0
  0
ARC
  5
1B584
330
1B896
100
AcDbEntity
  8
AM_2
100
AcDbCircle
 10
4451.369754142013
 20
-14.95420759866647
 30
0.0
 40
1.0
100
AcDbArc
 50
0.0
 51
90.0
  0
LINE
  5
1B585
330
1B896
100
AcDbEntity
  8
AM_2
100
AcDbLine
 10
4452.369753565815
 20
-16.95420759866647
 30
0.0
 11
4452.369753565815
 21
-14.95420750366645
 31
0.0
  0
LINE
  5
1B586
330
1B896
100
AcDbEntity
  8
AM_2
100
AcDbLine
 10
4377.369754158119
 20
-7.454207598666471
 30
0.0
 11
4377.369754158119
 21
-4.954207598666471
 31
0.0
  0
LINE
  5
1B587
330
1B896
100
AcDbEntity
  8
AM_2
100
AcDbLine
 10
4410.36975415811
 20
-6.954207598666471
 30
0.0
 11
4410.36975415811
 21
23.98828053975353
 31
0.0
  0
LINE
  5
1B588
330
1B896
100
AcDbEntity
  8
AM_2
100
AcDbLine
 10
4437.869754157938
 20
-7.954207598666471
 30
0.0
 11
4411.369754158109
 21
-7.954207598666471
 31
0.0
  0
ARC
  5
1B589
330
1B896
100
AcDbEntity
  8
AM_2
100
AcDbCircle
 10
4410.869754158119
 20
23.98828053975353
 30
0.0
 40
0.5
100
AcDbArc
 50
83.77417093668698
 51
180.0
  0
LINE
  5
1B58A
330
1B896
100
AcDbEntity
  8
AM_2
100
AcDbLine
 10
4410.923977913199
 20
24.48533162805359
 30
0.0
 11
4436.086649178289
 21
21.74031294457358
 31
0.0
  0
LINE
  5
1B58B
330
1B896
100
AcDbEntity
  8
AM_2
100
AcDbLine
 10
4437.869754157938
 20
19.7521085913537
 30
0.0
 11
4437.869754157938
 21
-7.954207598666471
 31
0.0
  0
ARC
  5
1B58C
330
1B896
100
AcDbEntity
  8
AM_2
100
AcDbCircle
 10
4435.869754157939
 20
19.7521085913537
 30
0.0
 40
2.0
100
AcDbArc
 50
0.0
 51
83.77417093555996
  0
LINE
  5
1B58D
330
1B896
100
AcDbEntity
  8
AM_2
100
AcDbLine
 10
4377.369754158119
 20
-7.454207598666471
 30
0.0
 11
4410.503728754329
 21
-7.454207598666471
 31
0.0
  0
ARC
  5
1B58E
330
1B896
100
AcDbEntity
  8
AM_2
100
AcDbCircle
 10
4411.369754158109
 20
-6.954207598656466
 30
0.0
 40
1.0
100
AcDbArc
 50
180.0
 51
270.0
  0
LINE
  5
1B58F
330
1B896
100
AcDbEntity
  8
AM_0
100
AcDbLine
 10
4410.36975415812
 20
-4.954207598666471
 30
0.0
 11
4370.36975415812
 21
-4.954207598666471
 31
0.0
  0
LINE
  5
1B590
330
1B896
100
AcDbEntity
  8
OS
100
AcDbLine
 10
4401.369754158119
 20
-7.454207598666471
 30
0.0
 11
4401.369754158119
 21
-16.95420759866658
 31
0.0
  0
LINE
  5
1B591
330
1B896
100
AcDbEntity
  8
OS
 62
     2
100
AcDbLine
 10
4366.369754158119
 20
276.0457924013334
 30
0.0
 11
4296.36975415812
 21
276.0457924013334
 31
0.0
  0
TEXT
  5
1B592
330
1B896
100
AcDbEntity
  8
MJ
100
AcDbText
 10
4255.363759110483
 20
346.1894987610524
 30
0.0
 40
10.0
  1
■ピボットヒンジ部
 41
0.8299999999999998
100
AcDbText
  0
TEXT
  5
1B593
330
1B896
100
AcDbEntity
  8
MJ
100
AcDbText
 10
4255.363759110483
 20
486.0820094417952
 30
0.0
 40
10.0
  1
■ソフトクローズ部
 41
0.8299999999999998
100
AcDbText
  0
LINE
  5
1B594
330
1B896
100
AcDbEntity
  8
________
100
AcDbLine
 10
4925.02912408914
 20
227.0829611335376
 30
0.0
 11
4990.034950827734
 21
227.0829611335376
 31
0.0
  0
LINE
  5
1B595
330
1B896
100
AcDbEntity
  8
OS
100
AcDbLine
 10
4658.296326812365
 20
177.5829611335377
 30
0.0
 11
4593.796326812365
 21
177.5829611335377
 31
0.0
  0
LINE
  5
1B596
330
1B896
100
AcDbEntity
  8
OS
100
AcDbLine
 10
4658.296326812365
 20
177.5829611335377
 30
0.0
 11
4658.296326812367
 21
209.5829611335377
 31
0.0
  0
LINE
  5
1B597
330
1B896
100
AcDbEntity
  8
OS
100
AcDbLine
 10
4651.296326812365
 20
184.5829611335377
 30
0.0
 11
4658.296326812365
 21
177.5829611335377
 31
0.0
  0
LINE
  5
1B598
330
1B896
100
AcDbEntity
  8
OS
100
AcDbLine
 10
4658.296326812365
 20
321.5829611335377
 30
0.0
 11
4658.296326812365
 21
244.5829611335377
 31
0.0
  0
LINE
  5
1B599
330
1B896
100
AcDbEntity
  8
OS
100
AcDbLine
 10
4658.296326812365
 20
321.5829611335377
 30
0.0
 11
4593.796326812365
 21
321.5829611335377
 31
0.0
  0
LINE
  5
1B59A
330
1B896
100
AcDbEntity
  8
OS
100
AcDbLine
 10
4651.296326812365
 20
314.5829611335376
 30
0.0
 11
4658.296326812365
 21
321.5829611335377
 31
0.0
  0
LINE
  5
1B59B
330
1B896
100
AcDbEntity
  8
OS
100
AcDbLine
 10
4600.429925482536
 20
197.0829611335377
 30
0.0
 11
4593.796326812365
 21
197.0829611335377
 31
0.0
  0
LINE
  5
1B59C
330
1B896
100
AcDbEntity
  8
OS
100
AcDbLine
 10
4638.796326812365
 20
197.0829611335377
 30
0.0
 11
4611.59930207463
 21
197.0829611335377
 31
0.0
  0
LINE
  5
1B59D
330
1B896
100
AcDbEntity
  8
OS
100
AcDbLine
 10
4942.796345429266
 20
209.5829611335377
 30
0.0
 11
4942.796345429266
 21
135.8619180092804
 31
0.0
  0
LINE
  5
1B59E
330
1B896
100
AcDbEntity
  8
OS
100
AcDbLine
 10
4935.796345429267
 20
209.5829611335377
 30
0.0
 11
4935.796345429267
 21
135.8619180092804
 31
0.0
  0
LINE
  5
1B5A0
330
1B896
100
AcDbEntity
  8
AM_2
100
AcDbLine
 10
4928.374421509706
 20
185.3920657259956
 30
0.0
 11
4925.695856788236
 21
200.5829611335355
 31
0.0
  0
ARC
  5
1B5A1
330
1B896
100
AcDbEntity
  8
AM_2
100
AcDbCircle
 10
4918.526343979586
 20
183.6555839493256
 30
0.0
 40
10.0
100
AcDbArc
 50
315.0000000000222
 51
10.00000000000496
  0
ARC
  5
1B5A2
330
1B896
100
AcDbEntity
  8
AM_2
100
AcDbCircle
 10
4920.439002538036
 20
177.0829611335445
 30
0.0
 40
4.0
100
AcDbArc
 50
269.9999999998567
 51
315.0000000000143
  0
LINE
  5
1B5A3
330
1B896
100
AcDbEntity
  8
AM_2
100
AcDbLine
 10
4925.597411791446
 20
176.5845161374616
 30
0.0
 11
4923.267429662786
 21
174.2545340087986
 31
0.0
  0
ARC
  5
1B5A4
330
1B896
100
AcDbEntity
  8
AM_2
100
AcDbCircle
 10
4913.040319055696
 20
177.0829611335677
 30
0.0
 40
4.0
100
AcDbArc
 50
205.6917843361831
 51
269.9999999999088
  0
LINE
  5
1B5A5
330
1B896
100
AcDbEntity
  8
AM_2
100
AcDbLine
 10
4920.439002538036
 20
173.0829611335446
 30
0.0
 11
4913.040319055696
 21
173.0829611335626
 31
0.0
  0
ARC
  5
1B5A6
330
1B896
100
AcDbEntity
  8
AM_2
100
AcDbCircle
 10
4898.886654173256
 20
199.5829611335346
 30
0.0
 40
1.0
100
AcDbArc
 50
90.00000000005215
 51
205.6917843359466
  0
LINE
  5
1B5A7
330
1B896
100
AcDbEntity
  8
AM_2
100
AcDbLine
 10
4897.985514978657
 20
199.1494312591876
 30
0.0
 11
4909.435762277296
 21
175.3488416361685
 31
0.0
  0
LINE
  5
1B5AA
330
1B896
100
AcDbEntity
  8
AM_0
100
AcDbLine
 10
4931.796345429266
 20
200.5829611335377
 30
0.0
 11
4931.796345429266
 21
206.5829611335376
 31
0.0
  0
LINE
  5
1B5AB
330
1B896
100
AcDbEntity
  8
AM_0
100
AcDbLine
 10
4931.796345429266
 20
206.5829611335376
 30
0.0
 11
4923.796326812365
 21
206.5829611335376
 31
0.0
  0
LINE
  5
1B5AC
330
1B896
100
AcDbEntity
  8
AM_0
100
AcDbLine
 10
4923.796326812365
 20
240.5829611335377
 30
0.0
 11
4923.796326812365
 21
206.5829611335376
 31
0.0
  0
LINE
  5
1B5AD
330
1B896
100
AcDbEntity
  8
AM_0
100
AcDbLine
 10
4670.296326812366
 20
206.5829611335376
 30
0.0
 11
4670.296326812366
 21
240.5829611335377
 31
0.0
  0
LINE
  5
1B5AE
330
1B896
100
AcDbEntity
  8
AM_2
100
AcDbLine
 10
4663.096326812365
 20
208.5829611335376
 30
0.0
 11
4663.096326812365
 21
207.0829611335377
 31
0.0
  0
LINE
  5
1B5AF
330
1B896
100
AcDbEntity
  8
AM_2
100
AcDbLine
 10
4669.496326812366
 20
207.0829611335377
 30
0.0
 11
4669.496326812366
 21
208.5829611335376
 31
0.0
  0
LINE
  5
1B5B0
330
1B896
100
AcDbEntity
  8
AM_2
100
AcDbLine
 10
4663.096326812365
 20
208.5829611335376
 30
0.0
 11
4669.496326812366
 21
208.5829611335376
 31
0.0
  0
LINE
  5
1B5B1
330
1B896
100
AcDbEntity
  8
AM_2
100
AcDbLine
 10
4662.296326812366
 20
207.0829611335377
 30
0.0
 11
4662.296326812366
 21
206.5829611335376
 31
0.0
  0
LINE
  5
1B5B2
330
1B896
100
AcDbEntity
  8
AM_0
100
AcDbLine
 10
4662.296326812366
 20
200.5829611335377
 30
0.0
 11
4795.546326812366
 21
200.5829611335377
 31
0.0
  0
LINE
  5
1B5B3
330
1B896
100
AcDbEntity
  8
AM_0
100
AcDbLine
 10
4662.296326812366
 20
200.5829611335377
 30
0.0
 11
4662.296326812366
 21
206.5829611335376
 31
0.0
  0
LINE
  5
1B5B4
330
1B896
100
AcDbEntity
  8
AM_0
100
AcDbLine
 10
4662.296326812366
 20
206.5829611335376
 30
0.0
 11
4670.296326812366
 21
206.5829611335376
 31
0.0
  0
LINE
  5
1B5B5
330
1B896
100
AcDbEntity
  8
AM_0
100
AcDbLine
 10
4931.796345429266
 20
200.5829611335377
 30
0.0
 11
4795.546326812366
 21
200.5829611335377
 31
0.0
  0
LINE
  5
1B5B6
330
1B896
100
AcDbEntity
  8
AM_0
100
AcDbLine
 10
4923.796326812365
 20
240.5829611335377
 30
0.0
 11
4670.296326812366
 21
240.5829611335377
 31
0.0
  0
LINE
  5
1B5B7
330
1B896
100
AcDbEntity
  8
AM_0
100
AcDbLine
 10
4923.796326812365
 20
240.5829611335377
 30
0.0
 11
4923.796326812365
 21
206.5829611335376
 31
0.0
  0
LINE
  5
1B5B8
330
1B896
100
AcDbEntity
  8
AM_2
100
AcDbLine
 10
4662.296326812366
 20
207.0829611335377
 30
0.0
 11
4670.296326812366
 21
207.0829611335377
 31
0.0
  0
LINE
  5
1B5B9
330
1B896
100
AcDbEntity
  8
AM_0
100
AcDbLine
 10
4927.796345429267
 20
211.5829611335377
 30
0.0
 11
4927.796345429267
 21
220.6829611335376
 31
0.0
  0
LINE
  5
1B5BA
330
1B896
100
AcDbEntity
  8
OS
100
AcDbLine
 10
4955.296345429267
 20
209.5829611335377
 30
0.0
 11
4955.296345429267
 21
75.29084879523913
 31
0.0
  0
LINE
  5
1B5BB
330
1B896
100
AcDbEntity
  8
OS
100
AcDbLine
 10
4651.296326812365
 20
209.5829611335377
 30
0.0
 11
4651.296326812365
 21
184.5829611335377
 31
0.0
  0
LINE
  5
1B5BC
330
1B896
100
AcDbEntity
  8
OS
 62
     2
100
AcDbLine
 10
4638.796326812365
 20
214.5829611335376
 30
0.0
 11
4638.796326812365
 21
184.5829611335377
 31
0.0
  0
LINE
  5
1B5BD
330
1B896
100
AcDbEntity
  8
OS
100
AcDbLine
 10
4638.796326812365
 20
314.5829611335376
 30
0.0
 11
4638.796326812365
 21
244.5829611335377
 31
0.0
  0
LINE
  5
1B5BE
330
1B896
100
AcDbEntity
  8
OS
100
AcDbLine
 10
4651.296326812365
 20
314.5829611335376
 30
0.0
 11
4651.296326812365
 21
244.5829611335377
 31
0.0
  0
LINE
  5
1B5BF
330
1B896
100
AcDbEntity
  8
OS
100
AcDbLine
 10
4935.796345429267
 20
353.3471557085014
 30
0.0
 11
4935.796345429267
 21
244.5829611335377
 31
0.0
  0
LINE
  5
1B5C0
330
1B896
100
AcDbEntity
  8
OS
100
AcDbLine
 10
4942.796345429266
 20
244.5829611335377
 30
0.0
 11
4942.796345429266
 21
353.3471557085014
 31
0.0
  0
LINE
  5
1B5C1
330
1B896
100
AcDbEntity
  8
OS
100
AcDbLine
 10
4955.296345429267
 20
244.5829611335377
 30
0.0
 11
4955.296345429267
 21
353.3471557085014
 31
0.0
  0
LINE
  5
1B5C2
330
1B896
100
AcDbEntity
  8
AM_0
100
AcDbLine
 10
4929.796345429267
 20
209.5829611335377
 30
0.0
 11
4927.796345429267
 21
211.5829611335377
 31
0.0
  0
LINE
  5
1B5C3
330
1B896
100
AcDbEntity
  8
AM_0
100
AcDbLine
 10
4638.796326812365
 20
209.5829611335377
 30
0.0
 11
4638.796326812365
 21
244.5829611335377
 31
0.0
  0
LINE
  5
1B5C4
330
1B896
100
AcDbEntity
  8
AM_0
100
AcDbLine
 10
4664.296326812365
 20
209.5829611335377
 30
0.0
 11
4638.796326812365
 21
209.5829611335377
 31
0.0
  0
LINE
  5
1B5C5
330
1B896
100
AcDbEntity
  8
AM_0
100
AcDbLine
 10
4929.796345429267
 20
209.5829611335377
 30
0.0
 11
4955.296345429267
 21
209.5829611335377
 31
0.0
  0
LINE
  5
1B5C8
330
1B896
100
AcDbEntity
  8
OS
100
AcDbLine
 10
4955.296345429267
 20
197.0829611335377
 30
0.0
 11
5000.296345429267
 21
197.0829611335377
 31
0.0
  0
LINE
  5
1B5C9
330
1B896
100
AcDbEntity
  8
OS
100
AcDbLine
 10
4955.296345429267
 20
302.0829611335376
 30
0.0
 11
5000.296345429267
 21
302.0829611335376
 31
0.0
  0
LINE
  5
1B5CA
330
1B896
100
AcDbEntity
  8
OS
100
AcDbLine
 10
4651.296326812365
 20
314.5829611335376
 30
0.0
 11
4593.796326812365
 21
314.5829611335376
 31
0.0
  0
LINE
  5
1B5CB
330
1B896
100
AcDbEntity
  8
OS
100
AcDbLine
 10
4651.296326812365
 20
314.5829611335376
 30
0.0
 11
4593.796326812365
 21
314.5829611335376
 31
0.0
  0
LINE
  5
1B5CC
330
1B896
100
AcDbEntity
  8
OS
100
AcDbLine
 10
4638.796326812365
 20
302.0829611335376
 30
0.0
 11
4593.796326812365
 21
302.0829611335376
 31
0.0
  0
LINE
  5
1B5CD
330
1B896
100
AcDbEntity
  8
OS
100
AcDbLine
 10
4651.296326812365
 20
184.5829611335377
 30
0.0
 11
4593.796326812365
 21
184.5829611335377
 31
0.0
  0
LINE
  5
1B5CE
330
1B896
100
AcDbEntity
  8
AM_0
100
AcDbLine
 10
4955.296345429267
 20
209.5829611335377
 30
0.0
 11
4955.296345429267
 21
244.5829611335377
 31
0.0
  0
LINE
  5
1B5CF
330
1B896
100
AcDbEntity
  8
AM_0
100
AcDbLine
 10
4664.296326812365
 20
244.5829611335377
 30
0.0
 11
4638.796326812365
 21
244.5829611335377
 31
0.0
  0
LINE
  5
1B5D0
330
1B896
100
AcDbEntity
  8
AM_0
100
AcDbLine
 10
4929.796345429267
 20
244.5829611335377
 30
0.0
 11
4955.296345429267
 21
244.5829611335377
 31
0.0
  0
LINE
  5
1B5D1
330
1B896
100
AcDbEntity
  8
AM_0
100
AcDbLine
 10
4929.796345429267
 20
244.5829611335377
 30
0.0
 11
4927.796345429267
 21
242.5829611335377
 31
0.0
  0
TEXT
  5
1B5D3
330
1B896
100
AcDbEntity
  8
AM_5
100
AcDbText
 10
4282.242279441788
 20
-8.497138895314744
 30
0.0
 40
6.0
  1
FL
 41
0.9
100
AcDbText
  0
LINE
  5
1B5D4
330
1B896
100
AcDbEntity
  8
AM_5
100
AcDbLine
 10
4286.883684729068
 20
-16.95420759866647
 30
0.0
 11
4291.22065595607
 21
-9.442353082533205
 31
0.0
  0
LINE
  5
1B5D5
330
1B896
100
AcDbEntity
  8
AM_5
100
AcDbLine
 10
4282.546713502067
 20
-9.442353082533205
 30
0.0
 11
4291.22065595607
 21
-9.442353082533205
 31
0.0
  0
LINE
  5
1B5D6
330
1B896
100
AcDbEntity
  8
AM_5
100
AcDbLine
 10
4286.883684729068
 20
-16.95420759866647
 30
0.0
 11
4282.546713502067
 21
-9.442353082533205
 31
0.0
  0
LINE
  5
1B5D7
330
1B896
100
AcDbEntity
  8
OS
100
AcDbLine
 10
4426.369754158119
 20
272.0457927122335
 30
0.0
 11
4426.369754158119
 21
276.0457924013334
 31
0.0
  0
LINE
  5
1B5D8
330
1B896
100
AcDbEntity
  8
________
100
AcDbLine
 10
4669.063529535591
 20
227.0829611335376
 30
0.0
 11
4616.203302760919
 21
227.0829611335376
 31
0.0
  0
TEXT
  5
1B5D9
330
1B896
100
AcDbEntity
  8
MJ
100
AcDbText
 10
4873.069669451094
 20
-1.507428036539522
 30
0.0
 40
7.0
  1
枠見込み35ｍｍ
 41
0.9
100
AcDbText
  0
TEXT
  5
1B5DA
330
1B896
100
AcDbEntity
  8
MJ
100
AcDbText
 10
4873.069669451094
 20
18.49257196346048
 30
0.0
 40
7.0
  1
シンプル・スリム枠
 41
0.9
100
AcDbText
  0
TEXT
  5
1B5DB
330
1B896
100
AcDbEntity
  8
MJ
100
AcDbText
 10
4873.069669451094
 20
8.492571963460477
 30
0.0
 40
7.0
  1
室内ドア　OHドア　3方枠
 41
0.9
100
AcDbText
  0
TEXT
  5
1B5DC
330
1B896
100
AcDbEntity
  8
MJ
100
AcDbText
 10
4873.069669451094
 20
-11.50742803653952
 30
0.0
 40
7.0
  1
たて横断面
 41
0.9
100
AcDbText
  0
TEXT
  5
1B5DD
330
1B896
100
AcDbEntity
  8
MJ
100
AcDbText
 10
4873.069669451094
 20
-21.50742803653951
 30
0.0
 40
7.0
  1
ssd01a01
 41
0.8299999999999998
100
AcDbText
  0
TEXT
  5
1B5DE
330
1B896
100
AcDbEntity
  8
WK
100
AcDbText
 10
4966.271788615596
 20
513.3421640467378
 30
0.0
 40
7.0
  1
大栄建材株式会社
 41
0.9
 72
     2
 11
5025.071788615596
 21
513.3421640467378
 31
0.0
100
AcDbText
  0
TEXT
  5
1B5DF
330
1B896
100
AcDbEntity
  8
WK
100
AcDbText
 10
4753.702280221578
 20
-36.2578359532622
 30
0.0
 40
3.2
  1
図名
 41
0.8299999999999998
100
AcDbText
  0
TEXT
  5
1B5E0
330
1B896
100
AcDbEntity
  8
WK
100
AcDbText
 10
4834.899146888245
 20
-48.15783595326207
 30
0.0
 40
4.0
  1
基準図
 41
0.8
100
AcDbText
  0
TEXT
  5
1B5E1
330
1B896
100
AcDbEntity
  8
WK
100
AcDbText
 10
4847.828146888245
 20
-36.2578359532622
 30
0.0
 40
3.2
  1
尺度
 41
0.8299999999999998
100
AcDbText
  0
TEXT
  5
1B5E2
330
1B896
100
AcDbEntity
  8
WK
100
AcDbText
 10
4867.952719393958
 20
-49.2578359532622
 30
0.0
 40
3.2
  1
廃止
 41
0.8299999999999998
100
AcDbText
  0
TEXT
  5
1B5E3
330
1B896
100
AcDbEntity
  8
WK
100
AcDbText
 10
4867.952719393958
 20
-43.2578359532622
 30
0.0
 40
3.2
  1
制定
 41
0.8299999999999998
100
AcDbText
  0
TEXT
  5
1B5E4
330
1B896
100
AcDbEntity
  8
WK
100
AcDbText
 10
4867.952719393958
 20
-37.2578359532622
 30
0.0
 40
3.2
  1
作成
 41
0.8299999999999998
100
AcDbText
  0
TEXT
  5
1B5E5
330
1B896
100
AcDbEntity
  8
WK
100
AcDbText
 10
4909.328146888245
 20
-36.2578359532622
 30
0.0
 40
3.2
  1
作図
 41
0.8299999999999998
100
AcDbText
  0
TEXT
  5
1B5E6
330
1B896
100
AcDbEntity
  8
WK
100
AcDbText
 10
4929.328146888245
 20
-36.2578359532622
 30
0.0
 40
3.2
  1
検図
 41
0.8299999999999998
100
AcDbText
  0
TEXT
  5
1B5E7
330
1B896
100
AcDbEntity
  8
WK
100
AcDbText
 10
4949.202280221578
 20
-36.2578359532622
 30
0.0
 40
3.2
  1
図番
 41
0.8299999999999998
100
AcDbText
  0
TEXT
  5
1B5E8
330
1B896
100
AcDbEntity
  8
WK
100
AcDbText
 10
4853.926956412054
 20
-45.75783630931378
 30
0.0
 40
3.2
  1
1:1
 41
0.8299999999999998
 72
     4
 11
4856.899146888245
 21
-44.15783630931378
 31
0.0
100
AcDbText
  0
CIRCLE
  5
1B5E9
330
1B896
100
AcDbEntity
  8
WK
100
AcDbCircle
 10
5019.208621907555
 20
-41.15783595326207
 30
0.0
 40
6.0
  0
LINE
  5
1B5EA
330
1B896
100
AcDbEntity
  8
WK
100
AcDbLine
 10
5013.208621907555
 20
-41.15783595326207
 30
0.0
 11
5025.208621907555
 21
-41.15783595326207
 31
0.0
  0
LINE
  5
1B5EB
330
1B896
100
AcDbEntity
  8
WK
100
AcDbLine
 10
4866.899146888245
 20
-38.15783595326207
 30
0.0
 11
4906.899146888245
 21
-38.15783595326207
 31
0.0
  0
LINE
  5
1B5EC
330
1B896
100
AcDbEntity
  8
WK
100
AcDbLine
 10
4866.899146888245
 20
-44.15783595326207
 30
0.0
 11
4906.899146888245
 21
-44.15783595326207
 31
0.0
  0
LINE
  5
1B5ED
330
1B896
100
AcDbEntity
  8
WK
100
AcDbLine
 10
4760.899146888244
 20
-40.15783595326207
 30
0.0
 11
4833.899146888246
 21
-40.15783595326207
 31
0.0
  0
LINE
  5
1B5EE
330
1B896
100
AcDbEntity
  8
WK
100
AcDbLine
 10
4751.899146888245
 20
-32.15783595326207
 30
0.0
 11
5026.899146888245
 21
-32.15783595326207
 31
0.0
  0
LINE
  5
1B5EF
330
1B896
100
AcDbEntity
  8
WK
100
AcDbLine
 10
4846.899146888245
 20
-32.15783595326207
 30
0.0
 11
4846.899146888245
 21
-50.15783595326207
 31
0.0
  0
LINE
  5
1B5F0
330
1B896
100
AcDbEntity
  8
WK
100
AcDbLine
 10
4866.899146888245
 20
-32.15783595326207
 30
0.0
 11
4866.899146888245
 21
-50.15783595326207
 31
0.0
  0
LINE
  5
1B5F1
330
1B896
100
AcDbEntity
  8
WK
100
AcDbLine
 10
4926.899146888246
 20
-32.15783595326207
 30
0.0
 11
4926.899146888246
 21
-50.15783595326207
 31
0.0
  0
LINE
  5
1B5F2
330
1B896
100
AcDbEntity
  8
WK
100
AcDbLine
 10
4906.899146888245
 20
-32.15783595326207
 30
0.0
 11
4906.899146888245
 21
-50.15783595326207
 31
0.0
  0
LINE
  5
1B5F3
330
1B896
100
AcDbEntity
  8
WK
100
AcDbLine
 10
4751.899146888245
 20
-32.15783595326207
 30
0.0
 11
4751.899146888245
 21
-50.15783595326207
 31
0.0
  0
LINE
  5
1B5F4
330
1B896
100
AcDbEntity
  8
WK
100
AcDbLine
 10
4946.899146888245
 20
-32.15783595326207
 30
0.0
 11
4946.899146888245
 21
-50.15783595326207
 31
0.0
  0
TEXT
  5
1B5F5
330
1B896
100
AcDbEntity
  8
WK
100
AcDbText
 10
4231.899146888244
 20
-50.15783595326207
 30
0.0
 40
3.2
  1
A1
 50
90.0
 41
0.8299999999999998
100
AcDbText
  0
LINE
  5
1B5F6
330
1B896
100
AcDbEntity
  8
WK
100
AcDbLine
 10
5026.899146888245
 20
511.3421640467378
 30
0.0
 11
5026.899146888245
 21
-50.15783595326207
 31
0.0
  0
LINE
  5
1B5F7
330
1B896
100
AcDbEntity
  8
WK
100
AcDbLine
 10
4232.899146888245
 20
511.3421640467378
 30
0.0
 11
4232.899146888245
 21
-50.15783595326207
 31
0.0
  0
LINE
  5
1B5F8
330
1B896
100
AcDbEntity
  8
WK
100
AcDbLine
 10
4232.899146888245
 20
511.3421640467378
 30
0.0
 11
5026.899146888245
 21
511.3421640467378
 31
0.0
  0
LINE
  5
1B5F9
330
1B896
100
AcDbEntity
  8
WK
100
AcDbLine
 10
4232.899146888245
 20
-50.15783595326207
 30
0.0
 11
5026.899146888245
 21
-50.15783595326207
 31
0.0
  0
LINE
  5
1B5FA
330
1B896
100
AcDbEntity
  8
AM_5
100
AcDbLine
 10
4487.60769298133
 20
-16.95420759866647
 30
0.0
 11
4487.60769298133
 21
263.0457924012336
 31
0.0
1001
ACAD_DSTYLE_DIMINSPECT
1070
   393
1070
     0
1001
ACAD
1000
DSTYLE
1002
{
1070
   173
1070
     1
1070
   140
1040
5.0
1070
   174
1070
     1
1070
    72
1070
     0
1070
    71
1070
     0
1002
}
  0
LINE
  5
1B5FB
330
1B896
100
AcDbEntity
  8
AM_5
100
AcDbLine
 10
4666.296326812366
 20
105.3859985472251
 30
0.0
 11
4927.796345429267
 21
105.3859985472251
 31
0.0
1001
ACAD_DSTYLE_DIMINSPECT
1070
   393
1070
     0
1001
ACAD
1000
DSTYLE
1002
{
1070
   140
1040
5.0
1070
   173
1070
     1
1070
   174
1070
     1
1070
    72
1070
     0
1070
    71
1070
     0
1002
}
  0
ARC
  5
1B5FC
330
1B896
100
AcDbEntity
  8
AM_2
  6
CONTINUOUS
100
AcDbCircle
 10
4687.621857764412
 20
201.0403735130828
 30
0.0
 40
33.81783432542852
100
AcDbArc
 50
120.818444446184
 51
129.094413432305
  0
ARC
  5
1B5FD
330
1B896
100
AcDbEntity
  8
TS
100
AcDbCircle
 10
4687.621857764412
 20
201.0403735130828
 30
0.0
 40
33.81783432542852
100
AcDbArc
 50
130.1945652099354
 51
148.2292097835633
  0
LINE
  5
1B5FE
330
1B896
100
AcDbEntity
  8
AM_2
  6
CONTINUOUS
100
AcDbLine
 10
4670.296326812366
 20
218.0829611335377
 30
0.0
 11
4666.296326812366
 21
218.0829611335377
 31
0.0
  0
LINE
  5
1B5FF
330
1B896
100
AcDbEntity
  8
TS
100
AcDbLine
 10
4665.796326812365
 20
218.0829611335377
 30
0.0
 11
4659.296326812365
 21
218.0829611335377
 31
0.0
  0
ARC
  5
1B600
330
1B896
100
AcDbEntity
  8
TS
100
AcDbCircle
 10
4659.296326812365
 20
218.5829611335377
 30
0.0
 40
0.5
100
AcDbArc
 50
148.2292097835195
 51
270.0
  0
LINE
  5
1B601
330
1B896
100
AcDbEntity
  8
OS
100
AcDbLine
 10
4935.796345429267
 20
105.3859985472251
 30
0.0
 11
4935.796345429267
 21
75.29084879523913
 31
0.0
  0
LINE
  5
1B602
330
1B896
100
AcDbEntity
  8
OS
100
AcDbLine
 10
4942.796345429266
 20
105.3859985472251
 30
0.0
 11
4942.796345429266
 21
75.29084879523913
 31
0.0
  0
LINE
  5
1B603
330
1B896
100
AcDbEntity
  8
AM_2
100
AcDbLine
 10
4934.296345429267
 20
227.1829611335376
 30
0.0
 11
4934.296345429267
 21
226.9829611335377
 31
0.0
  0
LINE
  5
1B604
330
1B896
100
AcDbEntity
  8
AM_2
100
AcDbLine
 10
4927.796345429267
 20
221.5829611335377
 30
0.0
 11
4927.796345429267
 21
232.5829611335377
 31
0.0
  0
LINE
  5
1B605
330
1B896
100
AcDbEntity
  8
AM_2
100
AcDbLine
 10
4929.096345429267
 20
227.5829611335377
 30
0.0
 11
4933.289960561995
 21
227.5829611335377
 31
0.0
  0
LINE
  5
1B606
330
1B896
100
AcDbEntity
  8
AM_2
100
AcDbLine
 10
4929.096345429267
 20
227.5829611335377
 30
0.0
 11
4929.296345429267
 21
233.0829611335377
 31
0.0
  0
LINE
  5
1B607
330
1B896
100
AcDbEntity
  8
AM_2
100
AcDbLine
 10
4934.296345429267
 20
227.1829611335376
 30
0.0
 11
4932.957125032982
 21
228.7329611335377
 31
0.0
  0
LINE
  5
1B608
330
1B896
100
AcDbEntity
  8
AM_2
100
AcDbLine
 10
4933.289960561995
 20
227.5829611335377
 30
0.0
 11
4932.296345429267
 21
228.7329611335377
 31
0.0
  0
LINE
  5
1B609
330
1B896
100
AcDbEntity
  8
AM_2
100
AcDbLine
 10
4932.296345429267
 20
228.7329611335377
 30
0.0
 11
4932.957125032982
 21
228.7329611335377
 31
0.0
  0
LINE
  5
1B60A
330
1B896
100
AcDbEntity
  8
AM_2
100
AcDbLine
 10
4928.296345429266
 20
233.0829611335377
 30
0.0
 11
4929.296345429267
 21
233.0829611335377
 31
0.0
  0
ARC
  5
1B60B
330
1B896
100
AcDbEntity
  8
AM_2
100
AcDbCircle
 10
4928.296345429266
 20
232.5829611335377
 30
0.0
 40
0.5
100
AcDbArc
 50
90.0
 51
180.0
  0
LINE
  5
1B60C
330
1B896
100
AcDbEntity
  8
AM_2
100
AcDbLine
 10
4929.096345429267
 20
226.5829611335377
 30
0.0
 11
4933.289960561995
 21
226.5829611335377
 31
0.0
  0
LINE
  5
1B60D
330
1B896
100
AcDbEntity
  8
AM_2
100
AcDbLine
 10
4929.096345429267
 20
226.5829611335377
 30
0.0
 11
4929.296345429267
 21
221.0829611335376
 31
0.0
  0
LINE
  5
1B60E
330
1B896
100
AcDbEntity
  8
AM_2
100
AcDbLine
 10
4934.296345429267
 20
226.9829611335377
 30
0.0
 11
4932.957125032982
 21
225.4329611335377
 31
0.0
  0
LINE
  5
1B60F
330
1B896
100
AcDbEntity
  8
AM_2
100
AcDbLine
 10
4933.289960561995
 20
226.5829611335377
 30
0.0
 11
4932.296345429267
 21
225.4329611335377
 31
0.0
  0
LINE
  5
1B610
330
1B896
100
AcDbEntity
  8
AM_2
100
AcDbLine
 10
4932.296345429267
 20
225.4329611335377
 30
0.0
 11
4932.957125032982
 21
225.4329611335377
 31
0.0
  0
LINE
  5
1B611
330
1B896
100
AcDbEntity
  8
AM_2
100
AcDbLine
 10
4928.296345429266
 20
221.0829611335376
 30
0.0
 11
4929.296345429267
 21
221.0829611335376
 31
0.0
  0
ARC
  5
1B612
330
1B896
100
AcDbEntity
  8
AM_2
100
AcDbCircle
 10
4928.296345429266
 20
221.5829611335377
 30
0.0
 40
0.5
100
AcDbArc
 50
180.0
 51
270.0
  0
LINE
  5
1B613
330
1B896
100
AcDbEntity
  8
AM_0
100
AcDbLine
 10
4929.296345429267
 20
225.5829611335377
 30
0.0
 11
4934.796345429266
 21
225.5829611335377
 31
0.0
  0
LINE
  5
1B614
330
1B896
100
AcDbEntity
  8
AM_0
100
AcDbLine
 10
4934.796345429266
 20
225.5829611335377
 30
0.0
 11
4934.796345429266
 21
228.5829611335377
 31
0.0
  0
LINE
  5
1B615
330
1B896
100
AcDbEntity
  8
AM_0
100
AcDbLine
 10
4927.796345429267
 20
233.4829611335376
 30
0.0
 11
4929.296345429267
 21
233.4829611335376
 31
0.0
  0
LINE
  5
1B616
330
1B896
100
AcDbEntity
  8
AM_0
100
AcDbLine
 10
4929.296345429267
 20
228.5829611335377
 30
0.0
 11
4934.796345429266
 21
228.5829611335377
 31
0.0
  0
LINE
  5
1B617
330
1B896
100
AcDbEntity
  8
AM_0
100
AcDbLine
 10
4929.296345429267
 20
228.5829611335377
 30
0.0
 11
4929.296345429267
 21
233.4829611335376
 31
0.0
  0
LINE
  5
1B618
330
1B896
100
AcDbEntity
  8
AM_0
100
AcDbLine
 10
4927.796345429267
 20
220.6829611335376
 30
0.0
 11
4929.296345429267
 21
220.6829611335376
 31
0.0
  0
LINE
  5
1B619
330
1B896
100
AcDbEntity
  8
AM_0
100
AcDbLine
 10
4929.296345429267
 20
225.5829611335377
 30
0.0
 11
4929.296345429267
 21
220.6829611335376
 31
0.0
  0
LINE
  5
1B61A
330
1B896
100
AcDbEntity
  8
AM_0
100
AcDbLine
 10
4927.796345429267
 20
233.4829611335376
 30
0.0
 11
4927.796345429267
 21
242.5829611335377
 31
0.0
  0
LINE
  5
1B61B
330
1B896
100
AcDbEntity
  8
AM_2
100
AcDbLine
 10
4390.26975415812
 20
269.5457924013334
 30
0.0
 11
4390.46975415812
 21
269.5457924013334
 31
0.0
  0
LINE
  5
1B61C
330
1B896
100
AcDbEntity
  8
AM_2
100
AcDbLine
 10
4395.869754158119
 20
263.0457924013334
 30
0.0
 11
4384.86975415812
 21
263.0457924013334
 31
0.0
  0
LINE
  5
1B61D
330
1B896
100
AcDbEntity
  8
AM_2
100
AcDbLine
 10
4389.869754158119
 20
264.3457924013337
 30
0.0
 11
4389.869754158119
 21
268.5394075340619
 31
0.0
  0
LINE
  5
1B61E
330
1B896
100
AcDbEntity
  8
AM_2
100
AcDbLine
 10
4389.869754158119
 20
264.3457924013337
 30
0.0
 11
4384.36975415812
 21
264.5457924013334
 31
0.0
  0
LINE
  5
1B61F
330
1B896
100
AcDbEntity
  8
AM_2
100
AcDbLine
 10
4390.26975415812
 20
269.5457924013334
 30
0.0
 11
4388.719754158119
 21
268.2065720050487
 31
0.0
  0
LINE
  5
1B620
330
1B896
100
AcDbEntity
  8
AM_2
100
AcDbLine
 10
4389.869754158119
 20
268.5394075340619
 30
0.0
 11
4388.719754158119
 21
267.5457924013334
 31
0.0
  0
LINE
  5
1B621
330
1B896
100
AcDbEntity
  8
AM_2
100
AcDbLine
 10
4388.719754158119
 20
267.5457924013334
 30
0.0
 11
4388.719754158119
 21
268.2065720050487
 31
0.0
  0
LINE
  5
1B622
330
1B896
100
AcDbEntity
  8
AM_2
100
AcDbLine
 10
4384.36975415812
 20
263.5457924013334
 30
0.0
 11
4384.36975415812
 21
264.5457924013334
 31
0.0
  0
ARC
  5
1B623
330
1B896
100
AcDbEntity
  8
AM_2
100
AcDbCircle
 10
4384.86975415812
 20
263.5457924013334
 30
0.0
 40
0.5
100
AcDbArc
 50
180.0
 51
270.0
  0
LINE
  5
1B624
330
1B896
100
AcDbEntity
  8
AM_2
100
AcDbLine
 10
4390.86975415812
 20
264.3457924013337
 30
0.0
 11
4390.86975415812
 21
268.5394075340619
 31
0.0
  0
LINE
  5
1B625
330
1B896
100
AcDbEntity
  8
AM_2
100
AcDbLine
 10
4390.86975415812
 20
264.3457924013337
 30
0.0
 11
4396.369754158119
 21
264.5457924013334
 31
0.0
  0
LINE
  5
1B626
330
1B896
100
AcDbEntity
  8
AM_2
100
AcDbLine
 10
4390.46975415812
 20
269.5457924013334
 30
0.0
 11
4392.01975415812
 21
268.2065720050487
 31
0.0
  0
LINE
  5
1B627
330
1B896
100
AcDbEntity
  8
AM_2
100
AcDbLine
 10
4390.86975415812
 20
268.5394075340619
 30
0.0
 11
4392.01975415812
 21
267.5457924013334
 31
0.0
  0
LINE
  5
1B628
330
1B896
100
AcDbEntity
  8
AM_2
100
AcDbLine
 10
4392.01975415812
 20
267.5457924013334
 30
0.0
 11
4392.01975415812
 21
268.2065720050487
 31
0.0
  0
LINE
  5
1B629
330
1B896
100
AcDbEntity
  8
AM_2
100
AcDbLine
 10
4396.369754158119
 20
263.5457924013334
 30
0.0
 11
4396.369754158119
 21
264.5457924013334
 31
0.0
  0
ARC
  5
1B62A
330
1B896
100
AcDbEntity
  8
AM_2
100
AcDbCircle
 10
4395.869754158119
 20
263.5457924013334
 30
0.0
 40
0.5
100
AcDbArc
 50
270.0
 51
0.0
  0
LINE
  5
1B62B
330
1B896
100
AcDbEntity
  8
AM_0
100
AcDbLine
 10
4391.869754158119
 20
264.5457924013334
 30
0.0
 11
4391.869754158119
 21
270.0457924013334
 31
0.0
  0
LINE
  5
1B62C
330
1B896
100
AcDbEntity
  8
AM_0
100
AcDbLine
 10
4391.869754158119
 20
270.0457924013334
 30
0.0
 11
4388.869754158119
 21
270.0457924013334
 31
0.0
  0
LINE
  5
1B62D
330
1B896
100
AcDbEntity
  8
AM_0
100
AcDbLine
 10
4383.96975415812
 20
263.0457924013334
 30
0.0
 11
4383.96975415812
 21
264.5457924013334
 31
0.0
  0
LINE
  5
1B62E
330
1B896
100
AcDbEntity
  8
AM_0
100
AcDbLine
 10
4388.869754158119
 20
264.5457924013334
 30
0.0
 11
4388.869754158119
 21
270.0457924013334
 31
0.0
  0
LINE
  5
1B62F
330
1B896
100
AcDbEntity
  8
AM_0
100
AcDbLine
 10
4388.869754158119
 20
264.5457924013334
 30
0.0
 11
4383.96975415812
 21
264.5457924013334
 31
0.0
  0
LINE
  5
1B630
330
1B896
100
AcDbEntity
  8
AM_0
100
AcDbLine
 10
4396.76975415812
 20
263.0457924013334
 30
0.0
 11
4396.76975415812
 21
264.5457924013334
 31
0.0
  0
LINE
  5
1B631
330
1B896
100
AcDbEntity
  8
AM_0
100
AcDbLine
 10
4391.869754158119
 20
264.5457924013334
 30
0.0
 11
4396.76975415812
 21
264.5457924013334
 31
0.0
  0
LINE
  5
1B632
330
1B896
100
AcDbEntity
  8
AM_0
100
AcDbLine
 10
4383.96975415812
 20
263.0457924013334
 30
0.0
 11
4366.369754158119
 21
263.0457924013334
 31
0.0
  0
LINE
  5
1B633
330
1B896
100
AcDbEntity
  8
AM_0
100
AcDbLine
 10
4383.96975415812
 20
263.0457924013334
 30
0.0
 11
4372.069754158119
 21
263.0457924013334
 31
0.0
  0
LINE
  5
1B634
330
1B896
100
AcDbEntity
  8
CONT_S_2
100
AcDbLine
 10
4390.369754158119
 20
280.180554695476
 30
0.0
 11
4398.234991863977
 21
288.0457924013334
 31
0.0
1001
GENIUS_GENOBJ-N-HTC_13
1002
{
1000
OWNER
1000
GEN
1002
}
1001
GENIUS_GENODEF_13
1002
{
1000
HIER
1070
     0
1002
}
1002
{
1000
MANEDIT
1070
     0
1002
}
1002
{
1000
NOSEL
1070
     0
1002
}
1002
{
1000
BEHIND
1070
     0
1002
}
1002
{
1000
OTHER
1070
     0
1002
}
1002
{
1000
REACTOR
1002
}
1001
GENIUS_GENHATCH_13
1002
{
1000
DATA
1040
45.0
1042
2.5
1000
_U
1070
     0
1011
4405.906480162138
1021
273.0757098741274
1031
0.0
1002
}
1002
{
1000
UCS
1010
0.0
1020
0.0
1030
0.0
1010
1.0
1020
0.0
1030
0.0
1010
0.0
1020
1.0
1030
0.0
1002
}
1001
HATCHBACKGROUNDCOLOR
1071
-939524096
1000

1000

  0
LINE
  5
1B635
330
1B896
100
AcDbEntity
  8
CONT_S_2
100
AcDbLine
 10
4390.369754158119
 20
271.6952733212376
 30
0.0
 11
4406.720273238216
 21
288.0457924013334
 31
0.0
1001
GENIUS_GENOBJ-N-HTC_13
1002
{
1000
OWNER
1000
GEN
1002
}
1001
GENIUS_GENODEF_13
1002
{
1000
HIER
1070
     0
1002
}
1002
{
1000
MANEDIT
1070
     0
1002
}
1002
{
1000
NOSEL
1070
     0
1002
}
1002
{
1000
BEHIND
1070
     0
1002
}
1002
{
1000
OTHER
1070
     0
1002
}
1002
{
1000
REACTOR
1002
}
1001
GENIUS_GENHATCH_13
1002
{
1000
DATA
1040
45.0
1042
2.5
1000
_U
1070
     0
1011
4405.906480162138
1021
273.0757098741274
1031
0.0
1002
}
1002
{
1000
UCS
1010
0.0
1020
0.0
1030
0.0
1010
1.0
1020
0.0
1030
0.0
1010
0.0
1020
1.0
1030
0.0
1002
}
1001
HATCHBACKGROUNDCOLOR
1071
-939524096
1000

1000

  0
LINE
  5
1B636
330
1B896
100
AcDbEntity
  8
CONT_S_2
100
AcDbLine
 10
4391.869754158119
 20
264.709991946999
 30
0.0
 11
4413.36975415812
 21
286.209991946999
 31
0.0
1001
GENIUS_GENOBJ-N-HTC_13
1002
{
1000
OWNER
1000
GEN
1002
}
1001
GENIUS_GENODEF_13
1002
{
1000
HIER
1070
     0
1002
}
1002
{
1000
MANEDIT
1070
     0
1002
}
1002
{
1000
NOSEL
1070
     0
1002
}
1002
{
1000
BEHIND
1070
     0
1002
}
1002
{
1000
OTHER
1070
     0
1002
}
1002
{
1000
REACTOR
1002
}
1001
GENIUS_GENHATCH_13
1002
{
1000
DATA
1040
45.0
1042
2.5
1000
_U
1070
     0
1011
4405.906480162138
1021
273.0757098741274
1031
0.0
1002
}
1002
{
1000
UCS
1010
0.0
1020
0.0
1030
0.0
1010
1.0
1020
0.0
1030
0.0
1010
0.0
1020
1.0
1030
0.0
1002
}
1001
HATCHBACKGROUNDCOLOR
1071
-939524096
1000

1000

  0
LINE
  5
1B637
330
1B896
100
AcDbEntity
  8
CONT_S_2
100
AcDbLine
 10
4398.690835986693
 20
263.0457924013334
 30
0.0
 11
4413.36975415812
 21
277.7247105727604
 31
0.0
1001
GENIUS_GENOBJ-N-HTC_13
1002
{
1000
OWNER
1000
GEN
1002
}
1001
GENIUS_GENODEF_13
1002
{
1000
HIER
1070
     0
1002
}
1002
{
1000
MANEDIT
1070
     0
1002
}
1002
{
1000
NOSEL
1070
     0
1002
}
1002
{
1000
BEHIND
1070
     0
1002
}
1002
{
1000
OTHER
1070
     0
1002
}
1002
{
1000
REACTOR
1002
}
1001
GENIUS_GENHATCH_13
1002
{
1000
DATA
1040
45.0
1042
2.5
1000
_U
1070
     0
1011
4405.906480162138
1021
273.0757098741274
1031
0.0
1002
}
1002
{
1000
UCS
1010
0.0
1020
0.0
1030
0.0
1010
1.0
1020
0.0
1030
0.0
1010
0.0
1020
1.0
1030
0.0
1002
}
1001
HATCHBACKGROUNDCOLOR
1071
-939524096
1000

1000

  0
LINE
  5
1B638
330
1B896
100
AcDbEntity
  8
CONT_S_2
100
AcDbLine
 10
4407.176117360931
 20
263.0457924013334
 30
0.0
 11
4413.36975415812
 21
269.2394291985217
 31
0.0
1001
GENIUS_GENOBJ-N-HTC_13
1002
{
1000
OWNER
1000
GEN
1002
}
1001
GENIUS_GENODEF_13
1002
{
1000
HIER
1070
     0
1002
}
1002
{
1000
MANEDIT
1070
     0
1002
}
1002
{
1000
NOSEL
1070
     0
1002
}
1002
{
1000
BEHIND
1070
     0
1002
}
1002
{
1000
OTHER
1070
     0
1002
}
1002
{
1000
REACTOR
1002
}
1001
GENIUS_GENHATCH_13
1002
{
1000
DATA
1040
45.0
1042
2.5
1000
_U
1070
     0
1011
4405.906480162138
1021
273.0757098741274
1031
0.0
1002
}
1002
{
1000
UCS
1010
0.0
1020
0.0
1030
0.0
1010
1.0
1020
0.0
1030
0.0
1010
0.0
1020
1.0
1030
0.0
1002
}
1001
HATCHBACKGROUNDCOLOR
1071
-939524096
1000

1000

  0
LINE
  5
1B639
330
1B896
100
AcDbEntity
  8
CONT_S_2
100
AcDbLine
 10
4366.369754158119
 20
281.6363988181918
 30
0.0
 11
4372.779147741261
 21
288.0457924013334
 31
0.0
1001
GENIUS_GENOBJ-N-HTC_13
1002
{
1000
OWNER
1000
GEN
1002
}
1001
GENIUS_GENODEF_13
1002
{
1000
HIER
1070
     0
1002
}
1002
{
1000
MANEDIT
1070
     0
1002
}
1002
{
1000
NOSEL
1070
     0
1002
}
1002
{
1000
BEHIND
1070
     0
1002
}
1002
{
1000
OTHER
1070
     0
1002
}
1002
{
1000
REACTOR
1002
}
1001
GENIUS_GENHATCH_13
1002
{
1000
DATA
1040
45.0
1042
2.5
1000
_U
1070
     0
1011
4381.7434541279
1021
280.6887180766951
1031
0.0
1002
}
1002
{
1000
UCS
1010
0.0
1020
0.0
1030
0.0
1010
1.0
1020
0.0
1030
0.0
1010
0.0
1020
1.0
1030
0.0
1002
}
1001
HATCHBACKGROUNDCOLOR
1071
-939524096
1000

1000

  0
LINE
  5
1B63A
330
1B896
100
AcDbEntity
  8
CONT_S_2
100
AcDbLine
 10
4366.369754158119
 20
273.1511174439531
 30
0.0
 11
4381.2644291155
 21
288.0457924013334
 31
0.0
1001
GENIUS_GENOBJ-N-HTC_13
1002
{
1000
OWNER
1000
GEN
1002
}
1001
GENIUS_GENODEF_13
1002
{
1000
HIER
1070
     0
1002
}
1002
{
1000
MANEDIT
1070
     0
1002
}
1002
{
1000
NOSEL
1070
     0
1002
}
1002
{
1000
BEHIND
1070
     0
1002
}
1002
{
1000
OTHER
1070
     0
1002
}
1002
{
1000
REACTOR
1002
}
1001
GENIUS_GENHATCH_13
1002
{
1000
DATA
1040
45.0
1042
2.5
1000
_U
1070
     0
1011
4381.7434541279
1021
280.6887180766951
1031
0.0
1002
}
1002
{
1000
UCS
1010
0.0
1020
0.0
1030
0.0
1010
1.0
1020
0.0
1030
0.0
1010
0.0
1020
1.0
1030
0.0
1002
}
1001
HATCHBACKGROUNDCOLOR
1071
-939524096
1000

1000

  0
LINE
  5
1B63B
330
1B896
100
AcDbEntity
  8
CONT_S_2
100
AcDbLine
 10
4366.369754158119
 20
264.6658360697147
 30
0.0
 11
4389.749710489738
 21
288.0457924013334
 31
0.0
1001
GENIUS_GENOBJ-N-HTC_13
1002
{
1000
OWNER
1000
GEN
1002
}
1001
GENIUS_GENODEF_13
1002
{
1000
HIER
1070
     0
1002
}
1002
{
1000
MANEDIT
1070
     0
1002
}
1002
{
1000
NOSEL
1070
     0
1002
}
1002
{
1000
BEHIND
1070
     0
1002
}
1002
{
1000
OTHER
1070
     0
1002
}
1002
{
1000
REACTOR
1002
}
1001
GENIUS_GENHATCH_13
1002
{
1000
DATA
1040
45.0
1042
2.5
1000
_U
1070
     0
1011
4381.7434541279
1021
280.6887180766951
1031
0.0
1002
}
1002
{
1000
UCS
1010
0.0
1020
0.0
1030
0.0
1010
1.0
1020
0.0
1030
0.0
1010
0.0
1020
1.0
1030
0.0
1002
}
1001
HATCHBACKGROUNDCOLOR
1071
-939524096
1000

1000

  0
LINE
  5
1B63C
330
1B896
100
AcDbEntity
  8
CONT_S_2
100
AcDbLine
 10
4373.234991863976
 20
263.0457924013334
 30
0.0
 11
4390.369754158119
 21
280.180554695476
 31
0.0
1001
GENIUS_GENOBJ-N-HTC_13
1002
{
1000
OWNER
1000
GEN
1002
}
1001
GENIUS_GENODEF_13
1002
{
1000
HIER
1070
     0
1002
}
1002
{
1000
MANEDIT
1070
     0
1002
}
1002
{
1000
NOSEL
1070
     0
1002
}
1002
{
1000
BEHIND
1070
     0
1002
}
1002
{
1000
OTHER
1070
     0
1002
}
1002
{
1000
REACTOR
1002
}
1001
GENIUS_GENHATCH_13
1002
{
1000
DATA
1040
45.0
1042
2.5
1000
_U
1070
     0
1011
4381.7434541279
1021
280.6887180766951
1031
0.0
1002
}
1002
{
1000
UCS
1010
0.0
1020
0.0
1030
0.0
1010
1.0
1020
0.0
1030
0.0
1010
0.0
1020
1.0
1030
0.0
1002
}
1001
HATCHBACKGROUNDCOLOR
1071
-939524096
1000

1000

  0
LINE
  5
1B63D
330
1B896
100
AcDbEntity
  8
CONT_S_2
100
AcDbLine
 10
4381.720273238215
 20
263.0457924013334
 30
0.0
 11
4390.369754158119
 21
271.6952733212374
 31
0.0
1001
GENIUS_GENOBJ-N-HTC_13
1002
{
1000
OWNER
1000
GEN
1002
}
1001
GENIUS_GENODEF_13
1002
{
1000
HIER
1070
     0
1002
}
1002
{
1000
MANEDIT
1070
     0
1002
}
1002
{
1000
NOSEL
1070
     0
1002
}
1002
{
1000
BEHIND
1070
     0
1002
}
1002
{
1000
OTHER
1070
     0
1002
}
1002
{
1000
REACTOR
1002
}
1001
GENIUS_GENHATCH_13
1002
{
1000
DATA
1040
45.0
1042
2.5
1000
_U
1070
     0
1011
4381.7434541279
1021
280.6887180766951
1031
0.0
1002
}
1002
{
1000
UCS
1010
0.0
1020
0.0
1030
0.0
1010
1.0
1020
0.0
1030
0.0
1010
0.0
1020
1.0
1030
0.0
1002
}
1001
HATCHBACKGROUNDCOLOR
1071
-939524096
1000

1000

  0
LINE
  5
1B63E
330
1B896
100
AcDbEntity
  8
CONT_S_2
100
AcDbLine
 10
4927.796345429267
 20
220.1521683956848
 30
0.0
 11
4928.327138167119
 21
220.6829611335376
 31
0.0
1001
GENIUS_GENOBJ-N-HTC_13
1002
{
1000
OWNER
1000
GEN
1002
}
1001
GENIUS_GENODEF_13
1002
{
1000
HIER
1070
     0
1002
}
1002
{
1000
MANEDIT
1070
     0
1002
}
1002
{
1000
NOSEL
1070
     0
1002
}
1002
{
1000
BEHIND
1070
     0
1002
}
1002
{
1000
OTHER
1070
     0
1002
}
1002
{
1000
REACTOR
1002
}
1001
GENIUS_GENHATCH_13
1002
{
1000
DATA
1040
45.0
1042
5.0
1000
_U
1070
     0
1011
4939.618808143137
1021
217.8241900590009
1031
0.0
1002
}
1002
{
1000
UCS
1010
0.0
1020
0.0
1030
0.0
1010
1.0
1020
0.0
1030
0.0
1010
0.0
1020
1.0
1030
0.0
1002
}
1001
HATCHBACKGROUNDCOLOR
1071
-939524096
1000

1000

  0
LINE
  5
1B63F
330
1B896
100
AcDbEntity
  8
CONT_S_2
100
AcDbLine
 10
4929.296345429267
 20
221.6521683956848
 30
0.0
 11
4933.227138167119
 21
225.5829611335377
 31
0.0
1001
GENIUS_GENOBJ-N-HTC_13
1002
{
1000
OWNER
1000
GEN
1002
}
1001
GENIUS_GENODEF_13
1002
{
1000
HIER
1070
     0
1002
}
1002
{
1000
MANEDIT
1070
     0
1002
}
1002
{
1000
NOSEL
1070
     0
1002
}
1002
{
1000
BEHIND
1070
     0
1002
}
1002
{
1000
OTHER
1070
     0
1002
}
1002
{
1000
REACTOR
1002
}
1001
GENIUS_GENHATCH_13
1002
{
1000
DATA
1040
45.0
1042
5.0
1000
_U
1070
     0
1011
4939.618808143137
1021
217.8241900590009
1031
0.0
1002
}
1002
{
1000
UCS
1010
0.0
1020
0.0
1030
0.0
1010
1.0
1020
0.0
1030
0.0
1010
0.0
1020
1.0
1030
0.0
1002
}
1001
HATCHBACKGROUNDCOLOR
1071
-939524096
1000

1000

  0
LINE
  5
1B640
330
1B896
100
AcDbEntity
  8
CONT_S_2
100
AcDbLine
 10
4927.796345429267
 20
211.6668870214462
 30
0.0
 11
4943.212419541358
 21
227.0829611335376
 31
0.0
1001
GENIUS_GENOBJ-N-HTC_13
1002
{
1000
OWNER
1000
GEN
1002
}
1001
GENIUS_GENODEF_13
1002
{
1000
HIER
1070
     0
1002
}
1002
{
1000
MANEDIT
1070
     0
1002
}
1002
{
1000
NOSEL
1070
     0
1002
}
1002
{
1000
BEHIND
1070
     0
1002
}
1002
{
1000
OTHER
1070
     0
1002
}
1002
{
1000
REACTOR
1002
}
1001
GENIUS_GENHATCH_13
1002
{
1000
DATA
1040
45.0
1042
5.0
1000
_U
1070
     0
1011
4939.618808143137
1021
217.8241900590009
1031
0.0
1002
}
1002
{
1000
UCS
1010
0.0
1020
0.0
1030
0.0
1010
1.0
1020
0.0
1030
0.0
1010
0.0
1020
1.0
1030
0.0
1002
}
1001
HATCHBACKGROUNDCOLOR
1071
-939524096
1000

1000

  0
LINE
  5
1B641
330
1B896
100
AcDbEntity
  8
CONT_S_2
100
AcDbLine
 10
4934.197700915597
 20
209.5829611335377
 30
0.0
 11
4951.697700915597
 21
227.0829611335376
 31
0.0
1001
GENIUS_GENOBJ-N-HTC_13
1002
{
1000
OWNER
1000
GEN
1002
}
1001
GENIUS_GENODEF_13
1002
{
1000
HIER
1070
     0
1002
}
1002
{
1000
MANEDIT
1070
     0
1002
}
1002
{
1000
NOSEL
1070
     0
1002
}
1002
{
1000
BEHIND
1070
     0
1002
}
1002
{
1000
OTHER
1070
     0
1002
}
1002
{
1000
REACTOR
1002
}
1001
GENIUS_GENHATCH_13
1002
{
1000
DATA
1040
45.0
1042
5.0
1000
_U
1070
     0
1011
4939.618808143137
1021
217.8241900590009
1031
0.0
1002
}
1002
{
1000
UCS
1010
0.0
1020
0.0
1030
0.0
1010
1.0
1020
0.0
1030
0.0
1010
0.0
1020
1.0
1030
0.0
1002
}
1001
HATCHBACKGROUNDCOLOR
1071
-939524096
1000

1000

  0
LINE
  5
1B642
330
1B896
100
AcDbEntity
  8
CONT_S_2
100
AcDbLine
 10
4942.682982289835
 20
209.5829611335377
 30
0.0
 11
4955.296345429267
 21
222.196324272969
 31
0.0
1001
GENIUS_GENOBJ-N-HTC_13
1002
{
1000
OWNER
1000
GEN
1002
}
1001
GENIUS_GENODEF_13
1002
{
1000
HIER
1070
     0
1002
}
1002
{
1000
MANEDIT
1070
     0
1002
}
1002
{
1000
NOSEL
1070
     0
1002
}
1002
{
1000
BEHIND
1070
     0
1002
}
1002
{
1000
OTHER
1070
     0
1002
}
1002
{
1000
REACTOR
1002
}
1001
GENIUS_GENHATCH_13
1002
{
1000
DATA
1040
45.0
1042
5.0
1000
_U
1070
     0
1011
4939.618808143137
1021
217.8241900590009
1031
0.0
1002
}
1002
{
1000
UCS
1010
0.0
1020
0.0
1030
0.0
1010
1.0
1020
0.0
1030
0.0
1010
0.0
1020
1.0
1030
0.0
1002
}
1001
HATCHBACKGROUNDCOLOR
1071
-939524096
1000

1000

  0
LINE
  5
1B643
330
1B896
100
AcDbEntity
  8
CONT_S_2
100
AcDbLine
 10
4951.168263664072
 20
209.5829611335377
 30
0.0
 11
4955.296345429267
 21
213.7110428987305
 31
0.0
1001
GENIUS_GENOBJ-N-HTC_13
1002
{
1000
OWNER
1000
GEN
1002
}
1001
GENIUS_GENODEF_13
1002
{
1000
HIER
1070
     0
1002
}
1002
{
1000
MANEDIT
1070
     0
1002
}
1002
{
1000
NOSEL
1070
     0
1002
}
1002
{
1000
BEHIND
1070
     0
1002
}
1002
{
1000
OTHER
1070
     0
1002
}
1002
{
1000
REACTOR
1002
}
1001
GENIUS_GENHATCH_13
1002
{
1000
DATA
1040
45.0
1042
5.0
1000
_U
1070
     0
1011
4939.618808143137
1021
217.8241900590009
1031
0.0
1002
}
1002
{
1000
UCS
1010
0.0
1020
0.0
1030
0.0
1010
1.0
1020
0.0
1030
0.0
1010
0.0
1020
1.0
1030
0.0
1002
}
1001
HATCHBACKGROUNDCOLOR
1071
-939524096
1000

1000

  0
LINE
  5
1B644
330
1B896
100
AcDbEntity
  8
CONT_S_2
100
AcDbLine
 10
4927.796345429267
 20
237.1227311441618
 30
0.0
 11
4935.256575418643
 21
244.5829611335377
 31
0.0
1001
GENIUS_GENOBJ-N-HTC_13
1002
{
1000
OWNER
1000
GEN
1002
}
1001
GENIUS_GENODEF_13
1002
{
1000
HIER
1070
     0
1002
}
1002
{
1000
MANEDIT
1070
     0
1002
}
1002
{
1000
NOSEL
1070
     0
1002
}
1002
{
1000
BEHIND
1070
     0
1002
}
1002
{
1000
OTHER
1070
     0
1002
}
1002
{
1000
REACTOR
1002
}
1001
GENIUS_GENHATCH_13
1002
{
1000
DATA
1040
45.0
1042
5.0
1000
_U
1070
     0
1011
4946.972575832013
1021
230.4306489542176
1031
0.0
1002
}
1002
{
1000
UCS
1010
0.0
1020
0.0
1030
0.0
1010
1.0
1020
0.0
1030
0.0
1010
0.0
1020
1.0
1030
0.0
1002
}
1001
HATCHBACKGROUNDCOLOR
1071
-939524096
1000

1000

  0
LINE
  5
1B645
330
1B896
100
AcDbEntity
  8
CONT_S_2
100
AcDbLine
 10
4929.296345429267
 20
230.1374497699232
 30
0.0
 11
4943.741856792881
 21
244.5829611335377
 31
0.0
1001
GENIUS_GENOBJ-N-HTC_13
1002
{
1000
OWNER
1000
GEN
1002
}
1001
GENIUS_GENODEF_13
1002
{
1000
HIER
1070
     0
1002
}
1002
{
1000
MANEDIT
1070
     0
1002
}
1002
{
1000
NOSEL
1070
     0
1002
}
1002
{
1000
BEHIND
1070
     0
1002
}
1002
{
1000
OTHER
1070
     0
1002
}
1002
{
1000
REACTOR
1002
}
1001
GENIUS_GENHATCH_13
1002
{
1000
DATA
1040
45.0
1042
5.0
1000
_U
1070
     0
1011
4946.972575832013
1021
230.4306489542176
1031
0.0
1002
}
1002
{
1000
UCS
1010
0.0
1020
0.0
1030
0.0
1010
1.0
1020
0.0
1030
0.0
1010
0.0
1020
1.0
1030
0.0
1002
}
1001
HATCHBACKGROUNDCOLOR
1071
-939524096
1000

1000

  0
LINE
  5
1B646
330
1B896
100
AcDbEntity
  8
CONT_S_2
100
AcDbLine
 10
4934.796345429266
 20
227.1521683956847
 30
0.0
 11
4952.227138167121
 21
244.5829611335377
 31
0.0
1001
GENIUS_GENOBJ-N-HTC_13
1002
{
1000
OWNER
1000
GEN
1002
}
1001
GENIUS_GENODEF_13
1002
{
1000
HIER
1070
     0
1002
}
1002
{
1000
MANEDIT
1070
     0
1002
}
1002
{
1000
NOSEL
1070
     0
1002
}
1002
{
1000
BEHIND
1070
     0
1002
}
1002
{
1000
OTHER
1070
     0
1002
}
1002
{
1000
REACTOR
1002
}
1001
GENIUS_GENHATCH_13
1002
{
1000
DATA
1040
45.0
1042
5.0
1000
_U
1070
     0
1011
4946.972575832013
1021
230.4306489542176
1031
0.0
1002
}
1002
{
1000
UCS
1010
0.0
1020
0.0
1030
0.0
1010
1.0
1020
0.0
1030
0.0
1010
0.0
1020
1.0
1030
0.0
1002
}
1001
HATCHBACKGROUNDCOLOR
1071
-939524096
1000

1000

  0
LINE
  5
1B647
330
1B896
100
AcDbEntity
  8
CONT_S_2
100
AcDbLine
 10
4943.212419541358
 20
227.0829611335376
 30
0.0
 11
4955.296345429267
 21
239.1668870214461
 31
0.0
1001
GENIUS_GENOBJ-N-HTC_13
1002
{
1000
OWNER
1000
GEN
1002
}
1001
GENIUS_GENODEF_13
1002
{
1000
HIER
1070
     0
1002
}
1002
{
1000
MANEDIT
1070
     0
1002
}
1002
{
1000
NOSEL
1070
     0
1002
}
1002
{
1000
BEHIND
1070
     0
1002
}
1002
{
1000
OTHER
1070
     0
1002
}
1002
{
1000
REACTOR
1002
}
1001
GENIUS_GENHATCH_13
1002
{
1000
DATA
1040
45.0
1042
5.0
1000
_U
1070
     0
1011
4946.972575832013
1021
230.4306489542176
1031
0.0
1002
}
1002
{
1000
UCS
1010
0.0
1020
0.0
1030
0.0
1010
1.0
1020
0.0
1030
0.0
1010
0.0
1020
1.0
1030
0.0
1002
}
1001
HATCHBACKGROUNDCOLOR
1071
-939524096
1000

1000

  0
LINE
  5
1B648
330
1B896
100
AcDbEntity
  8
CONT_S_2
100
AcDbLine
 10
4951.697700915597
 20
227.0829611335376
 30
0.0
 11
4955.296345429267
 21
230.6816056472074
 31
0.0
1001
GENIUS_GENOBJ-N-HTC_13
1002
{
1000
OWNER
1000
GEN
1002
}
1001
GENIUS_GENODEF_13
1002
{
1000
HIER
1070
     0
1002
}
1002
{
1000
MANEDIT
1070
     0
1002
}
1002
{
1000
NOSEL
1070
     0
1002
}
1002
{
1000
BEHIND
1070
     0
1002
}
1002
{
1000
OTHER
1070
     0
1002
}
1002
{
1000
REACTOR
1002
}
1001
GENIUS_GENHATCH_13
1002
{
1000
DATA
1040
45.0
1042
5.0
1000
_U
1070
     0
1011
4946.972575832013
1021
230.4306489542176
1031
0.0
1002
}
1002
{
1000
UCS
1010
0.0
1020
0.0
1030
0.0
1010
1.0
1020
0.0
1030
0.0
1010
0.0
1020
1.0
1030
0.0
1002
}
1001
HATCHBACKGROUNDCOLOR
1071
-939524096
1000

1000

  0
TEXT
  5
1B649
330
1B896
100
AcDbEntity
  8
AM_5
100
AcDbText
 10
4792.284431358912
 20
107.3859985472251
 30
0.0
 40
10.0
  1
W
  7
SIMPLEX
100
AcDbText
1001
ACAD_DSTYLE_DIMINSPECT
1070
   393
1070
     0
1001
ACAD
1000
DSTYLE
1002
{
1070
   140
1040
5.0
1070
   173
1070
     1
1070
   174
1070
     1
1070
    72
1070
     0
1070
    71
1070
     0
1002
}
  0
TEXT
  5
1B64A
330
1B896
100
AcDbEntity
  8
AM_5
100
AcDbText
 10
4485.607692981329
 20
119.7124590679505
 30
0.0
 40
10.0
  1
H
 50
90.0
  7
SIMPLEX
100
AcDbText
1001
ACAD_DSTYLE_DIMINSPECT
1070
   393
1070
     0
1001
ACAD
1000
DSTYLE
1002
{
1070
   173
1070
     1
1070
   140
1040
5.0
1070
   174
1070
     1
1070
    72
1070
     0
1070
    71
1070
     0
1002
}
  0
LINE
  5
1B64B
330
1B896
100
AcDbEntity
  8
AM_5
100
AcDbLine
 10
4483.527693761424
 20
256.2457888575851
 30
0.0
 11
4491.687694561424
 21
256.2457888575851
 31
0.0
  0
LINE
  5
1B64C
330
1B896
100
AcDbEntity
  8
AM_5
100
AcDbLine
 10
4483.647693661423
 20
256.4457887575851
 30
0.0
 11
4491.567694661424
 21
256.4457887575851
 31
0.0
  0
LINE
  5
1B64D
330
1B896
100
AcDbEntity
  8
AM_5
100
AcDbLine
 10
4483.767693561423
 20
256.6457885575861
 30
0.0
 11
4491.447694861425
 21
256.6457885575861
 31
0.0
  0
LINE
  5
1B64E
330
1B896
100
AcDbEntity
  8
AM_5
100
AcDbLine
 10
4483.887692461424
 20
256.8457883575853
 30
0.0
 11
4491.327694961425
 21
256.8457883575853
 31
0.0
  0
LINE
  5
1B64F
330
1B896
100
AcDbEntity
  8
AM_5
100
AcDbLine
 10
4484.007692361424
 20
257.0457881575845
 30
0.0
 11
4491.207695061425
 21
257.0457881575845
 31
0.0
  0
LINE
  5
1B650
330
1B896
100
AcDbEntity
  8
AM_5
100
AcDbLine
 10
4487.60769298133
 20
263.045792401233
 30
0.0
 11
4481.607697061424
 21
253.045792057585
 31
0.0
  0
LINE
  5
1B651
330
1B896
100
AcDbEntity
  8
AM_5
100
AcDbLine
 10
4487.487685251425
 20
262.8457797475845
 30
0.0
 11
4487.727700271426
 21
262.8457797475845
 31
0.0
  0
LINE
  5
1B652
330
1B896
100
AcDbEntity
  8
AM_5
100
AcDbLine
 10
4487.60769298133
 20
263.045792401233
 30
0.0
 11
4493.607692661424
 21
253.0457923575855
 31
0.0
  0
LINE
  5
1B653
330
1B896
100
AcDbEntity
  8
AM_5
100
AcDbLine
 10
4487.367690131424
 20
262.6457827975851
 30
0.0
 11
4487.847698251425
 21
262.6457827975851
 31
0.0
  0
LINE
  5
1B654
330
1B896
100
AcDbEntity
  8
AM_5
100
AcDbLine
 10
4487.127687501424
 20
262.245783187586
 30
0.0
 11
4488.087698021424
 21
262.245783187586
 31
0.0
  0
LINE
  5
1B655
330
1B896
100
AcDbEntity
  8
AM_5
100
AcDbLine
 10
4487.247690241424
 20
262.4457829975859
 30
0.0
 11
4487.967698141424
 21
262.4457829975859
 31
0.0
  0
LINE
  5
1B656
330
1B896
100
AcDbEntity
  8
AM_5
100
AcDbLine
 10
4487.007687611424
 20
262.0457833575844
 30
0.0
 11
4488.207697911423
 21
262.0457833575844
 31
0.0
  0
LINE
  5
1B657
330
1B896
100
AcDbEntity
  8
AM_5
100
AcDbLine
 10
4486.887687721424
 20
261.8457835575852
 30
0.0
 11
4488.327697801424
 21
261.8457835575852
 31
0.0
  0
LINE
  5
1B658
330
1B896
100
AcDbEntity
  8
AM_5
100
AcDbLine
 10
4486.767688791424
 20
261.6457837575858
 30
0.0
 11
4488.447697681424
 21
261.6457837575858
 31
0.0
  0
LINE
  5
1B659
330
1B896
100
AcDbEntity
  8
AM_5
100
AcDbLine
 10
4486.647688911424
 20
261.4457839575849
 30
0.0
 11
4488.567697571424
 21
261.4457839575849
 31
0.0
  0
LINE
  5
1B65A
330
1B896
100
AcDbEntity
  8
AM_5
100
AcDbLine
 10
4486.527689061424
 20
261.2457841575857
 30
0.0
 11
4488.687697461425
 21
261.2457841575857
 31
0.0
  0
LINE
  5
1B65B
330
1B896
100
AcDbEntity
  8
AM_5
100
AcDbLine
 10
4486.287689261423
 20
260.8457845575855
 30
0.0
 11
4488.927697261424
 21
260.8457845575855
 31
0.0
  0
LINE
  5
1B65C
330
1B896
100
AcDbEntity
  8
AM_5
100
AcDbLine
 10
4486.407689161423
 20
261.0457843575847
 30
0.0
 11
4488.807697361425
 21
261.0457843575847
 31
0.0
  0
LINE
  5
1B65D
330
1B896
100
AcDbEntity
  8
AM_5
100
AcDbLine
 10
4486.167689361423
 20
260.6457847575863
 30
0.0
 11
4489.047697061425
 21
260.6457847575863
 31
0.0
  0
LINE
  5
1B65E
330
1B896
100
AcDbEntity
  8
AM_5
100
AcDbLine
 10
4486.047689461424
 20
260.4457848575863
 30
0.0
 11
4489.167696961424
 21
260.4457848575863
 31
0.0
  0
LINE
  5
1B65F
330
1B896
100
AcDbEntity
  8
AM_5
100
AcDbLine
 10
4485.927689561424
 20
260.2457850575853
 30
0.0
 11
4489.287696861424
 21
260.2457850575853
 31
0.0
  0
LINE
  5
1B660
330
1B896
100
AcDbEntity
  8
AM_5
100
AcDbLine
 10
4485.807689661425
 20
260.0457852575843
 30
0.0
 11
4489.407696761424
 21
260.0457852575843
 31
0.0
  0
LINE
  5
1B661
330
1B896
100
AcDbEntity
  8
AM_5
100
AcDbLine
 10
4485.687689861424
 20
259.8457854575851
 30
0.0
 11
4489.527696661425
 21
259.8457854575851
 31
0.0
  0
LINE
  5
1B662
330
1B896
100
AcDbEntity
  8
AM_5
100
AcDbLine
 10
4485.567689961424
 20
259.6457856575859
 30
0.0
 11
4489.647696561425
 21
259.6457856575859
 31
0.0
  0
LINE
  5
1B663
330
1B896
100
AcDbEntity
  8
AM_5
100
AcDbLine
 10
4485.447690061425
 20
259.4457858575867
 30
0.0
 11
4489.767696461425
 21
259.4457858575847
 31
0.0
  0
LINE
  5
1B664
330
1B896
100
AcDbEntity
  8
AM_5
100
AcDbLine
 10
4485.327691161423
 20
259.2457860575855
 30
0.0
 11
4489.887696261424
 21
259.2457860575855
 31
0.0
  0
LINE
  5
1B665
330
1B896
100
AcDbEntity
  8
AM_5
100
AcDbLine
 10
4485.207691261424
 20
259.0457862575846
 30
0.0
 11
4490.007696161423
 21
259.0457862575846
 31
0.0
  0
LINE
  5
1B666
330
1B896
100
AcDbEntity
  8
AM_5
100
AcDbLine
 10
4485.087691361425
 20
258.8457864575854
 30
0.0
 11
4490.127696061423
 21
258.8457864575854
 31
0.0
  0
LINE
  5
1B667
330
1B896
100
AcDbEntity
  8
AM_5
100
AcDbLine
 10
4484.967691461425
 20
258.6457866575861
 30
0.0
 11
4490.247695961424
 21
258.6457866575861
 31
0.0
  0
LINE
  5
1B668
330
1B896
100
AcDbEntity
  8
AM_5
100
AcDbLine
 10
4484.847691561425
 20
258.4457868575851
 30
0.0
 11
4490.367695861424
 21
258.4457868575851
 31
0.0
  0
LINE
  5
1B669
330
1B896
100
AcDbEntity
  8
AM_5
100
AcDbLine
 10
4484.727691661425
 20
258.2457869575851
 30
0.0
 11
4490.487695761424
 21
258.2457869575851
 31
0.0
  0
LINE
  5
1B66A
330
1B896
100
AcDbEntity
  8
AM_5
100
AcDbLine
 10
4484.607691761424
 20
258.0457871575859
 30
0.0
 11
4490.607695661424
 21
258.0457871575859
 31
0.0
  0
LINE
  5
1B66B
330
1B896
100
AcDbEntity
  8
AM_5
100
AcDbLine
 10
4484.487691961424
 20
257.8457873575849
 30
0.0
 11
4490.727695461425
 21
257.8457873575849
 31
0.0
  0
LINE
  5
1B66C
330
1B896
100
AcDbEntity
  8
AM_5
100
AcDbLine
 10
4484.367692061424
 20
257.6457875575858
 30
0.0
 11
4490.847695361423
 21
257.6457875575858
 31
0.0
  0
LINE
  5
1B66D
330
1B896
100
AcDbEntity
  8
AM_5
100
AcDbLine
 10
4484.247692161424
 20
257.4457877575865
 30
0.0
 11
4490.967695261425
 21
257.4457877575865
 31
0.0
  0
LINE
  5
1B66E
330
1B896
100
AcDbEntity
  8
AM_5
100
AcDbLine
 10
4484.127693261425
 20
257.2457879575854
 30
0.0
 11
4491.087695161424
 21
257.2457879575854
 31
0.0
  0
LINE
  5
1B66F
330
1B896
100
AcDbEntity
  8
AM_5
100
AcDbLine
 10
4483.287694061424
 20
255.8457892575848
 30
0.0
 11
4491.927694361424
 21
255.8457892575848
 31
0.0
  0
LINE
  5
1B670
330
1B896
100
AcDbEntity
  8
AM_5
100
AcDbLine
 10
4483.407693861424
 20
256.0457890575859
 30
0.0
 11
4491.807694461424
 21
256.0457890575841
 31
0.0
  0
LINE
  5
1B671
330
1B896
100
AcDbEntity
  8
AM_5
100
AcDbLine
 10
4483.167694161424
 20
255.6457894575856
 30
0.0
 11
4492.047694261424
 21
255.6457894575856
 31
0.0
  0
LINE
  5
1B672
330
1B896
100
AcDbEntity
  8
AM_5
100
AcDbLine
 10
4483.047694261424
 20
255.4457896575864
 30
0.0
 11
4492.167694161424
 21
255.4457896575864
 31
0.0
  0
LINE
  5
1B673
330
1B896
100
AcDbEntity
  8
AM_5
100
AcDbLine
 10
4482.927694361424
 20
255.2457898575855
 30
0.0
 11
4492.287694061424
 21
255.2457898575855
 31
0.0
  0
LINE
  5
1B674
330
1B896
100
AcDbEntity
  8
AM_5
100
AcDbLine
 10
4482.807694461423
 20
255.0457900575844
 30
0.0
 11
4492.407693861424
 21
255.0457900575844
 31
0.0
  0
LINE
  5
1B675
330
1B896
100
AcDbEntity
  8
AM_5
100
AcDbLine
 10
4482.687694561423
 20
254.8457902575852
 30
0.0
 11
4492.527693761424
 21
254.8457902575852
 31
0.0
  0
LINE
  5
1B676
330
1B896
100
AcDbEntity
  8
AM_5
100
AcDbLine
 10
4482.567694661423
 20
254.645790457586
 30
0.0
 11
4492.647693661424
 21
254.645790457586
 31
0.0
  0
LINE
  5
1B677
330
1B896
100
AcDbEntity
  8
AM_5
100
AcDbLine
 10
4482.447694861424
 20
254.4457906575849
 30
0.0
 11
4492.767693561424
 21
254.4457906575849
 31
0.0
  0
LINE
  5
1B678
330
1B896
100
AcDbEntity
  8
AM_5
100
AcDbLine
 10
4482.327695861424
 20
254.2457908575858
 30
0.0
 11
4492.887693461425
 21
254.2457908575858
 31
0.0
  0
LINE
  5
1B679
330
1B896
100
AcDbEntity
  8
AM_5
100
AcDbLine
 10
4482.207695961424
 20
254.0457909575858
 30
0.0
 11
4493.007693361424
 21
254.0457909575858
 31
0.0
  0
LINE
  5
1B67A
330
1B896
100
AcDbEntity
  8
AM_5
100
AcDbLine
 10
4482.087696161424
 20
253.8457911575848
 30
0.0
 11
4493.127693261424
 21
253.8457911575848
 31
0.0
  0
LINE
  5
1B67B
330
1B896
100
AcDbEntity
  8
AM_5
100
AcDbLine
 10
4481.967696261423
 20
253.6457913575856
 30
0.0
 11
4493.247693061424
 21
253.6457913575856
 31
0.0
  0
LINE
  5
1B67C
330
1B896
100
AcDbEntity
  8
AM_5
100
AcDbLine
 10
4481.847696361423
 20
253.4457915575864
 30
0.0
 11
4493.367692961424
 21
253.4457915575864
 31
0.0
  0
LINE
  5
1B67D
330
1B896
100
AcDbEntity
  8
AM_5
100
AcDbLine
 10
4481.727696461423
 20
253.2457917575853
 30
0.0
 11
4493.487692861424
 21
253.2457917575853
 31
0.0
  0
LINE
  5
1B67E
330
1B896
100
AcDbEntity
  8
AM_5
100
AcDbLine
 10
4481.607696561424
 20
253.0457919575844
 30
0.0
 11
4493.607692761424
 21
253.0457919575844
 31
0.0
  0
LINE
  5
1B67F
330
1B896
100
AcDbEntity
  8
AM_5
100
AcDbLine
 10
4505.613238212474
 20
288.5457924013334
 30
0.0
 11
4505.613238212474
 21
308.2083792994467
 31
0.0
1001
ACAD_DSTYLE_DIMINSPECT
1070
   393
1070
     0
1001
ACAD
1000
DSTYLE
1002
{
1070
   140
1040
3.0
1070
    76
1070
     1
1070
    75
1070
     1
1070
   174
1070
     1
1070
    40
1040
2.0
1002
}
  0
LINE
  5
1B680
330
1B896
100
AcDbEntity
  8
AM_5
100
AcDbLine
 10
4505.613238212474
 20
288.0457924013334
 30
0.0
 11
4505.613238212474
 21
288.5457924013334
 31
0.0
1001
ACAD_DSTYLE_DIMINSPECT
1070
   393
1070
     0
1001
ACAD
1000
DSTYLE
1002
{
1070
   140
1040
3.0
1070
    76
1070
     1
1070
    75
1070
     1
1070
   174
1070
     1
1070
    40
1040
2.0
1002
}
  0
LINE
  5
1B681
330
1B896
100
AcDbEntity
  8
AM_5
100
AcDbLine
 10
4505.613238212474
 20
288.0457924013334
 30
0.0
 11
4505.613238212474
 21
286.0457924013335
 31
0.0
1001
ACAD_DSTYLE_DIMINSPECT
1070
   393
1070
     0
1001
ACAD
1000
DSTYLE
1002
{
1070
   140
1040
3.0
1070
    76
1070
     1
1070
    75
1070
     1
1070
   174
1070
     1
1070
    40
1040
2.0
1002
}
  0
LINE
  5
1B682
330
1B896
100
AcDbEntity
  8
AM_5
100
AcDbLine
 10
4438.369754158119
 20
263.0457924012336
 30
0.0
 11
4489.607692981329
 21
263.0457924012336
 31
0.0
1001
ACAD_DSTYLE_DIMINSPECT
1070
   393
1070
     0
1001
ACAD
1000
DSTYLE
1002
{
1070
   140
1040
3.0
1070
   173
1070
     1
1070
   174
1070
     1
1070
    40
1040
2.0
1002
}
  0
LINE
  5
1B683
330
1B896
100
AcDbEntity
  8
AM_5
100
AcDbLine
 10
4415.36975415812
 20
288.0457924013334
 30
0.0
 11
4489.607692981329
 21
288.0457924013334
 31
0.0
1001
ACAD_DSTYLE_DIMINSPECT
1070
   393
1070
     0
1001
ACAD
1000
DSTYLE
1002
{
1070
   140
1040
3.0
1070
   173
1070
     1
1070
   174
1070
     1
1070
    40
1040
2.0
1002
}
  0
LINE
  5
1B684
330
1B896
100
AcDbEntity
  8
AM_5
100
AcDbLine
 10
4487.60769298133
 20
263.0457924012336
 30
0.0
 11
4487.60769298133
 21
288.0457924013334
 31
0.0
1001
ACAD_DSTYLE_DIMINSPECT
1070
   393
1070
     0
1001
ACAD
1000
DSTYLE
1002
{
1070
   140
1040
3.0
1070
   173
1070
     1
1070
   174
1070
     1
1070
    40
1040
2.0
1002
}
  0
LINE
  5
1B685
330
1B896
100
AcDbEntity
  8
AM_5
100
AcDbLine
 10
4491.687692201235
 20
-10.15420405501801
 30
0.0
 11
4483.527691401235
 21
-10.15420405501801
 31
0.0
  0
LINE
  5
1B686
330
1B896
100
AcDbEntity
  8
AM_5
100
AcDbLine
 10
4491.567692301235
 20
-10.35420395501797
 30
0.0
 11
4483.647691301235
 21
-10.35420395501797
 31
0.0
  0
LINE
  5
1B687
330
1B896
100
AcDbEntity
  8
AM_5
100
AcDbLine
 10
4491.447692401235
 20
-10.554203755019
 30
0.0
 11
4483.767691101235
 21
-10.554203755019
 31
0.0
  0
LINE
  5
1B688
330
1B896
100
AcDbEntity
  8
AM_5
100
AcDbLine
 10
4491.327693501236
 20
-10.7542035550182
 30
0.0
 11
4483.887691001235
 21
-10.7542035550182
 31
0.0
  0
LINE
  5
1B689
330
1B896
100
AcDbEntity
  8
AM_5
100
AcDbLine
 10
4491.207693601235
 20
-10.95420335501741
 30
0.0
 11
4484.007690901235
 21
-10.95420335501741
 31
0.0
  0
LINE
  5
1B68A
330
1B896
100
AcDbEntity
  8
AM_5
100
AcDbLine
 10
4487.60769298133
 20
-16.95420759866603
 30
0.0
 11
4493.607688901235
 21
-6.954207255018005
 31
0.0
  0
LINE
  5
1B68B
330
1B896
100
AcDbEntity
  8
AM_5
100
AcDbLine
 10
4487.727700711235
 20
-16.75419494501739
 30
0.0
 11
4487.487685691235
 21
-16.75419494501739
 31
0.0
  0
LINE
  5
1B68C
330
1B896
100
AcDbEntity
  8
AM_5
100
AcDbLine
 10
4487.60769298133
 20
-16.95420759866603
 30
0.0
 11
4481.607693301234
 21
-6.954207555018471
 31
0.0
  0
LINE
  5
1B68D
330
1B896
100
AcDbEntity
  8
AM_5
100
AcDbLine
 10
4487.847695831234
 20
-16.55419799501807
 30
0.0
 11
4487.367687711235
 21
-16.55419799501807
 31
0.0
  0
LINE
  5
1B68E
330
1B896
100
AcDbEntity
  8
AM_5
100
AcDbLine
 10
4488.087698461234
 20
-16.15419838501885
 30
0.0
 11
4487.127687941235
 21
-16.15419838501885
 31
0.0
  0
LINE
  5
1B68F
330
1B896
100
AcDbEntity
  8
AM_5
100
AcDbLine
 10
4487.967695721235
 20
-16.35419819501887
 30
0.0
 11
4487.247687821235
 21
-16.35419819501887
 31
0.0
  0
LINE
  5
1B690
330
1B896
100
AcDbEntity
  8
AM_5
100
AcDbLine
 10
4488.207698351235
 20
-15.95419855501724
 30
0.0
 11
4487.007688051234
 21
-15.95419855501724
 31
0.0
  0
LINE
  5
1B691
330
1B896
100
AcDbEntity
  8
AM_5
100
AcDbLine
 10
4488.327698241235
 20
-15.75419875501804
 30
0.0
 11
4486.887688161234
 21
-15.75419875501804
 31
0.0
  0
LINE
  5
1B692
330
1B896
100
AcDbEntity
  8
AM_5
100
AcDbLine
 10
4488.447697171236
 20
-15.55419895501882
 30
0.0
 11
4486.767688281235
 21
-15.55419895501882
 31
0.0
  0
LINE
  5
1B693
330
1B896
100
AcDbEntity
  8
AM_5
100
AcDbLine
 10
4488.567697051235
 20
-15.35419915501781
 30
0.0
 11
4486.647688391236
 21
-15.35419915501781
 31
0.0
  0
LINE
  5
1B694
330
1B896
100
AcDbEntity
  8
AM_5
100
AcDbLine
 10
4488.687696901236
 20
-15.1541993550186
 30
0.0
 11
4486.527688501236
 21
-15.1541993550186
 31
0.0
  0
LINE
  5
1B695
330
1B896
100
AcDbEntity
  8
AM_5
100
AcDbLine
 10
4488.927696701235
 20
-14.75419975501838
 30
0.0
 11
4486.287688701235
 21
-14.75419975501838
 31
0.0
  0
LINE
  5
1B696
330
1B896
100
AcDbEntity
  8
AM_5
100
AcDbLine
 10
4488.807696801235
 20
-14.95419955501757
 30
0.0
 11
4486.407688601235
 21
-14.95419955501757
 31
0.0
  0
LINE
  5
1B697
330
1B896
100
AcDbEntity
  8
AM_5
100
AcDbLine
 10
4489.047696601235
 20
-14.55419995501917
 30
0.0
 11
4486.167688901235
 21
-14.55419995501917
 31
0.0
  0
LINE
  5
1B698
330
1B896
100
AcDbEntity
  8
AM_5
100
AcDbLine
 10
4489.167696501235
 20
-14.35420005501921
 30
0.0
 11
4486.047689001234
 21
-14.35420005501921
 31
0.0
  0
LINE
  5
1B699
330
1B896
100
AcDbEntity
  8
AM_5
100
AcDbLine
 10
4489.287696401236
 20
-14.15420025501818
 30
0.0
 11
4485.927689101234
 21
-14.15420025501818
 31
0.0
  0
LINE
  5
1B69A
330
1B896
100
AcDbEntity
  8
AM_5
100
AcDbLine
 10
4489.407696301235
 20
-13.95420045501716
 30
0.0
 11
4485.807689201235
 21
-13.95420045501716
 31
0.0
  0
LINE
  5
1B69B
330
1B896
100
AcDbEntity
  8
AM_5
100
AcDbLine
 10
4489.527696101235
 20
-13.75420065501795
 30
0.0
 11
4485.687689301235
 21
-13.75420065501795
 31
0.0
  0
LINE
  5
1B69C
330
1B896
100
AcDbEntity
  8
AM_5
100
AcDbLine
 10
4489.647696001235
 20
-13.55420085501875
 30
0.0
 11
4485.567689401235
 21
-13.55420085501875
 31
0.0
  0
LINE
  5
1B69D
330
1B896
100
AcDbEntity
  8
AM_5
100
AcDbLine
 10
4489.767695901234
 20
-13.35420105501954
 30
0.0
 11
4485.447689501234
 21
-13.35420105501773
 31
0.0
  0
LINE
  5
1B69E
330
1B896
100
AcDbEntity
  8
AM_5
100
AcDbLine
 10
4489.887694801235
 20
-13.15420125501852
 30
0.0
 11
4485.327689701235
 21
-13.15420125501852
 31
0.0
  0
LINE
  5
1B69F
330
1B896
100
AcDbEntity
  8
AM_5
100
AcDbLine
 10
4490.007694701235
 20
-12.9542014550175
 30
0.0
 11
4485.207689801235
 21
-12.9542014550175
 31
0.0
  0
LINE
  5
1B6A0
330
1B896
100
AcDbEntity
  8
AM_5
100
AcDbLine
 10
4490.127694601235
 20
-12.75420165501829
 30
0.0
 11
4485.087689901236
 21
-12.75420165501829
 31
0.0
  0
LINE
  5
1B6A1
330
1B896
100
AcDbEntity
  8
AM_5
100
AcDbLine
 10
4490.247694501235
 20
-12.55420185501908
 30
0.0
 11
4484.967690001234
 21
-12.55420185501908
 31
0.0
  0
LINE
  5
1B6A2
330
1B896
100
AcDbEntity
  8
AM_5
100
AcDbLine
 10
4490.367694401235
 20
-12.35420205501806
 30
0.0
 11
4484.847690101235
 21
-12.35420205501806
 31
0.0
  0
LINE
  5
1B6A3
330
1B896
100
AcDbEntity
  8
AM_5
100
AcDbLine
 10
4490.487694301235
 20
-12.1542021550181
 30
0.0
 11
4484.727690201235
 21
-12.1542021550181
 31
0.0
  0
LINE
  5
1B6A4
330
1B896
100
AcDbEntity
  8
AM_5
100
AcDbLine
 10
4490.607694201235
 20
-11.95420235501889
 30
0.0
 11
4484.607690301235
 21
-11.95420235501889
 31
0.0
  0
LINE
  5
1B6A5
330
1B896
100
AcDbEntity
  8
AM_5
100
AcDbLine
 10
4490.727694001235
 20
-11.75420255501786
 30
0.0
 11
4484.487690501235
 21
-11.75420255501786
 31
0.0
  0
LINE
  5
1B6A6
330
1B896
100
AcDbEntity
  8
AM_5
100
AcDbLine
 10
4490.847693901235
 20
-11.55420275501865
 30
0.0
 11
4484.367690601235
 21
-11.55420275501865
 31
0.0
  0
LINE
  5
1B6A7
330
1B896
100
AcDbEntity
  8
AM_5
100
AcDbLine
 10
4490.967693801235
 20
-11.35420295501946
 30
0.0
 11
4484.247690701235
 21
-11.35420295501946
 31
0.0
  0
LINE
  5
1B6A8
330
1B896
100
AcDbEntity
  8
AM_5
100
AcDbLine
 10
4491.087692701235
 20
-11.15420315501844
 30
0.0
 11
4484.127690801235
 21
-11.15420315501844
 31
0.0
  0
LINE
  5
1B6A9
330
1B896
100
AcDbEntity
  8
AM_5
100
AcDbLine
 10
4491.927691901235
 20
-9.754204455017784
 30
0.0
 11
4483.287691601236
 21
-9.754204455017784
 31
0.0
  0
LINE
  5
1B6AA
330
1B896
100
AcDbEntity
  8
AM_5
100
AcDbLine
 10
4491.807692101235
 20
-9.954204255018808
 30
0.0
 11
4483.407691501235
 21
-9.954204255016989
 31
0.0
  0
LINE
  5
1B6AB
330
1B896
100
AcDbEntity
  8
AM_5
100
AcDbLine
 10
4492.047691801235
 20
-9.55420465501858
 30
0.0
 11
4483.167691701236
 21
-9.55420465501858
 31
0.0
  0
LINE
  5
1B6AC
330
1B896
100
AcDbEntity
  8
AM_5
100
AcDbLine
 10
4492.167691701236
 20
-9.354204855019375
 30
0.0
 11
4483.047691801234
 21
-9.354204855019375
 31
0.0
  0
LINE
  5
1B6AD
330
1B896
100
AcDbEntity
  8
AM_5
100
AcDbLine
 10
4492.287691601235
 20
-9.154205055018351
 30
0.0
 11
4482.927691901235
 21
-9.154205055018351
 31
0.0
  0
LINE
  5
1B6AE
330
1B896
100
AcDbEntity
  8
AM_5
100
AcDbLine
 10
4492.407691501235
 20
-8.954205255017328
 30
0.0
 11
4482.807692101235
 21
-8.954205255017328
 31
0.0
  0
LINE
  5
1B6AF
330
1B896
100
AcDbEntity
  8
AM_5
100
AcDbLine
 10
4492.527691401235
 20
-8.754205455018123
 30
0.0
 11
4482.687692201235
 21
-8.754205455018123
 31
0.0
  0
LINE
  5
1B6B0
330
1B896
100
AcDbEntity
  8
AM_5
100
AcDbLine
 10
4492.647691301235
 20
-8.554205655018918
 30
0.0
 11
4482.567692301235
 21
-8.554205655018918
 31
0.0
  0
LINE
  5
1B6B1
330
1B896
100
AcDbEntity
  8
AM_5
100
AcDbLine
 10
4492.767691101234
 20
-8.354205855017895
 30
0.0
 11
4482.447692401235
 21
-8.354205855017895
 31
0.0
  0
LINE
  5
1B6B2
330
1B896
100
AcDbEntity
  8
AM_5
100
AcDbLine
 10
4492.887690101235
 20
-8.15420605501869
 30
0.0
 11
4482.327692501235
 21
-8.15420605501869
 31
0.0
  0
LINE
  5
1B6B3
330
1B896
100
AcDbEntity
  8
AM_5
100
AcDbLine
 10
4493.007690001234
 20
-7.954206155018724
 30
0.0
 11
4482.207692601234
 21
-7.954206155018724
 31
0.0
  0
LINE
  5
1B6B4
330
1B896
100
AcDbEntity
  8
AM_5
100
AcDbLine
 10
4493.127689801236
 20
-7.754206355017701
 30
0.0
 11
4482.087692701234
 21
-7.754206355017701
 31
0.0
  0
LINE
  5
1B6B5
330
1B896
100
AcDbEntity
  8
AM_5
100
AcDbLine
 10
4493.247689701235
 20
-7.554206555018495
 30
0.0
 11
4481.967692901235
 21
-7.554206555018495
 31
0.0
  0
LINE
  5
1B6B6
330
1B896
100
AcDbEntity
  8
AM_5
100
AcDbLine
 10
4493.367689601235
 20
-7.354206755019291
 30
0.0
 11
4481.847693001236
 21
-7.354206755019291
 31
0.0
  0
LINE
  5
1B6B7
330
1B896
100
AcDbEntity
  8
AM_5
100
AcDbLine
 10
4493.487689501235
 20
-7.154206955018267
 30
0.0
 11
4481.727693101236
 21
-7.154206955018267
 31
0.0
  0
LINE
  5
1B6B8
330
1B896
100
AcDbEntity
  8
AM_5
100
AcDbLine
 10
4493.607689401235
 20
-6.954207155017243
 30
0.0
 11
4481.607693201236
 21
-6.954207155017243
 31
0.0
  0
LINE
  5
1B6B9
330
1B896
100
AcDbEntity
  8
AM_5
100
AcDbLine
 10
4920.996341885619
 20
109.4659977671305
 30
0.0
 11
4920.996341885619
 21
101.3059969671308
 31
0.0
  0
LINE
  5
1B6BA
330
1B896
100
AcDbEntity
  8
AM_5
100
AcDbLine
 10
4921.196341785619
 20
109.3459978671303
 30
0.0
 11
4921.196341785619
 21
101.4259968671308
 31
0.0
  0
LINE
  5
1B6BB
330
1B896
100
AcDbEntity
  8
AM_5
100
AcDbLine
 10
4921.396341585619
 20
109.2259979671303
 30
0.0
 11
4921.396341585619
 21
101.5459966671302
 31
0.0
  0
LINE
  5
1B6BC
330
1B896
100
AcDbEntity
  8
AM_5
100
AcDbLine
 10
4921.596341385619
 20
109.1059990671306
 30
0.0
 11
4921.596341385619
 21
101.6659965671303
 31
0.0
  0
LINE
  5
1B6BD
330
1B896
100
AcDbEntity
  8
AM_5
100
AcDbLine
 10
4921.796341185618
 20
108.9859991671306
 30
0.0
 11
4921.796341185618
 21
101.7859964671303
 31
0.0
  0
LINE
  5
1B6BE
330
1B896
100
AcDbEntity
  8
AM_5
100
AcDbLine
 10
4927.796345429267
 20
105.3859985472251
 30
0.0
 11
4917.796345085619
 21
111.3859944671309
 31
0.0
  0
LINE
  5
1B6BF
330
1B896
100
AcDbEntity
  8
AM_5
100
AcDbLine
 10
4927.596332775618
 20
105.5060062771304
 30
0.0
 11
4927.596332775618
 21
105.2659912571303
 31
0.0
  0
LINE
  5
1B6C0
330
1B896
100
AcDbEntity
  8
AM_5
100
AcDbLine
 10
4927.796345429267
 20
105.3859985472251
 30
0.0
 11
4917.796345385619
 21
99.38599886713079
 31
0.0
  0
LINE
  5
1B6C1
330
1B896
100
AcDbEntity
  8
AM_5
100
AcDbLine
 10
4927.396335825619
 20
105.6260013971301
 30
0.0
 11
4927.396335825619
 21
105.1459932771301
 31
0.0
  0
LINE
  5
1B6C2
330
1B896
100
AcDbEntity
  8
AM_5
100
AcDbLine
 10
4926.99633621562
 20
105.8660040271303
 30
0.0
 11
4926.99633621562
 21
104.9059935071306
 31
0.0
  0
LINE
  5
1B6C3
330
1B896
100
AcDbEntity
  8
AM_5
100
AcDbLine
 10
4927.196336025621
 20
105.7460012871302
 30
0.0
 11
4927.196336025621
 21
105.0259933871307
 31
0.0
  0
LINE
  5
1B6C4
330
1B896
100
AcDbEntity
  8
AM_5
100
AcDbLine
 10
4926.796336385618
 20
105.9860039171305
 30
0.0
 11
4926.796336385618
 21
104.7859936171304
 31
0.0
  0
LINE
  5
1B6C5
330
1B896
100
AcDbEntity
  8
AM_5
100
AcDbLine
 10
4926.596336585618
 20
106.1060038071305
 30
0.0
 11
4926.596336585618
 21
104.6659937271303
 31
0.0
  0
LINE
  5
1B6C6
330
1B896
100
AcDbEntity
  8
AM_5
100
AcDbLine
 10
4926.396336785618
 20
106.2260027371308
 30
0.0
 11
4926.396336785618
 21
104.5459938471309
 31
0.0
  0
LINE
  5
1B6C7
330
1B896
100
AcDbEntity
  8
AM_5
100
AcDbLine
 10
4926.196336985618
 20
106.3460026171302
 30
0.0
 11
4926.196336985618
 21
104.4259939571307
 31
0.0
  0
LINE
  5
1B6C8
330
1B896
100
AcDbEntity
  8
AM_5
100
AcDbLine
 10
4925.996337185619
 20
106.4660024671308
 30
0.0
 11
4925.996337185619
 21
104.3059940671307
 31
0.0
  0
LINE
  5
1B6C9
330
1B896
100
AcDbEntity
  8
AM_5
100
AcDbLine
 10
4925.596337585619
 20
106.7060022671308
 30
0.0
 11
4925.596337585619
 21
104.0659942671306
 31
0.0
  0
LINE
  5
1B6CA
330
1B896
100
AcDbEntity
  8
AM_5
100
AcDbLine
 10
4925.796337385619
 20
106.5860023671308
 30
0.0
 11
4925.796337385619
 21
104.1859941671306
 31
0.0
  0
LINE
  5
1B6CB
330
1B896
100
AcDbEntity
  8
AM_5
100
AcDbLine
 10
4925.39633778562
 20
106.8260021671308
 30
0.0
 11
4925.39633778562
 21
103.9459944671303
 31
0.0
  0
LINE
  5
1B6CC
330
1B896
100
AcDbEntity
  8
AM_5
100
AcDbLine
 10
4925.19633788562
 20
106.94600206713
 30
0.0
 11
4925.19633788562
 21
103.8259945671303
 31
0.0
  0
LINE
  5
1B6CD
330
1B896
100
AcDbEntity
  8
AM_5
100
AcDbLine
 10
4924.996338085619
 20
107.066001967131
 30
0.0
 11
4924.996338085619
 21
103.7059946671303
 31
0.0
  0
LINE
  5
1B6CE
330
1B896
100
AcDbEntity
  8
AM_5
100
AcDbLine
 10
4924.796338285617
 20
107.18600186713
 30
0.0
 11
4924.796338285617
 21
103.5859947671303
 31
0.0
  0
LINE
  5
1B6CF
330
1B896
100
AcDbEntity
  8
AM_5
100
AcDbLine
 10
4924.596338485619
 20
107.3060016671303
 30
0.0
 11
4924.596338485619
 21
103.4659948671302
 31
0.0
  0
LINE
  5
1B6D0
330
1B896
100
AcDbEntity
  8
AM_5
100
AcDbLine
 10
4924.396338685619
 20
107.4260015671304
 30
0.0
 11
4924.396338685619
 21
103.3459949671301
 31
0.0
  0
LINE
  5
1B6D1
330
1B896
100
AcDbEntity
  8
AM_5
100
AcDbLine
 10
4924.196338885621
 20
107.5460014671304
 30
0.0
 11
4924.196338885618
 21
103.2259950671301
 31
0.0
  0
LINE
  5
1B6D2
330
1B896
100
AcDbEntity
  8
AM_5
100
AcDbLine
 10
4923.996339085618
 20
107.666000367131
 30
0.0
 11
4923.996339085618
 21
103.1059952671308
 31
0.0
  0
LINE
  5
1B6D3
330
1B896
100
AcDbEntity
  8
AM_5
100
AcDbLine
 10
4923.796339285618
 20
107.78600026713
 30
0.0
 11
4923.796339285618
 21
102.9859953671308
 31
0.0
  0
LINE
  5
1B6D4
330
1B896
100
AcDbEntity
  8
AM_5
100
AcDbLine
 10
4923.596339485619
 20
107.9060001671302
 30
0.0
 11
4923.596339485619
 21
102.8659954671307
 31
0.0
  0
LINE
  5
1B6D5
330
1B896
100
AcDbEntity
  8
AM_5
100
AcDbLine
 10
4923.39633968562
 20
108.0260000671301
 30
0.0
 11
4923.39633968562
 21
102.7459955671307
 31
0.0
  0
LINE
  5
1B6D6
330
1B896
100
AcDbEntity
  8
AM_5
100
AcDbLine
 10
4923.196339885619
 20
108.1459999671303
 30
0.0
 11
4923.196339885619
 21
102.6259956671306
 31
0.0
  0
LINE
  5
1B6D7
330
1B896
100
AcDbEntity
  8
AM_5
100
AcDbLine
 10
4922.996339985619
 20
108.2659998671303
 30
0.0
 11
4922.996339985619
 21
102.5059957671307
 31
0.0
  0
LINE
  5
1B6D8
330
1B896
100
AcDbEntity
  8
AM_5
100
AcDbLine
 10
4922.79634018562
 20
108.3859997671303
 30
0.0
 11
4922.79634018562
 21
102.3859958671305
 31
0.0
  0
LINE
  5
1B6D9
330
1B896
100
AcDbEntity
  8
AM_5
100
AcDbLine
 10
4922.59634038562
 20
108.5059995671304
 30
0.0
 11
4922.59634038562
 21
102.2659960671304
 31
0.0
  0
LINE
  5
1B6DA
330
1B896
100
AcDbEntity
  8
AM_5
100
AcDbLine
 10
4922.39634058562
 20
108.6259994671306
 30
0.0
 11
4922.39634058562
 21
102.1459961671304
 31
0.0
  0
LINE
  5
1B6DB
330
1B896
100
AcDbEntity
  8
AM_5
100
AcDbLine
 10
4922.19634078562
 20
108.7459993671305
 30
0.0
 11
4922.19634078562
 21
102.0259962671304
 31
0.0
  0
LINE
  5
1B6DC
330
1B896
100
AcDbEntity
  8
AM_5
100
AcDbLine
 10
4921.996340985619
 20
108.8659982671303
 30
0.0
 11
4921.996340985619
 21
101.9059963671302
 31
0.0
  0
LINE
  5
1B6DD
330
1B896
100
AcDbEntity
  8
AM_5
100
AcDbLine
 10
4920.596342285619
 20
109.7059974671307
 30
0.0
 11
4920.596342285619
 21
101.0659971671308
 31
0.0
  0
LINE
  5
1B6DE
330
1B896
100
AcDbEntity
  8
AM_5
100
AcDbLine
 10
4920.796342085619
 20
109.5859976671305
 30
0.0
 11
4920.796342085617
 21
101.1859970671308
 31
0.0
  0
LINE
  5
1B6DF
330
1B896
100
AcDbEntity
  8
AM_5
100
AcDbLine
 10
4920.396342485619
 20
109.8259973671307
 30
0.0
 11
4920.396342485619
 21
100.9459972671308
 31
0.0
  0
LINE
  5
1B6E0
330
1B896
100
AcDbEntity
  8
AM_5
100
AcDbLine
 10
4920.196342685621
 20
109.9459972671308
 30
0.0
 11
4920.196342685621
 21
100.8259973671308
 31
0.0
  0
LINE
  5
1B6E1
330
1B896
100
AcDbEntity
  8
AM_5
100
AcDbLine
 10
4919.996342885619
 20
110.0659971671308
 30
0.0
 11
4919.996342885619
 21
100.7059974671306
 31
0.0
  0
LINE
  5
1B6E2
330
1B896
100
AcDbEntity
  8
AM_5
100
AcDbLine
 10
4919.796343085618
 20
110.1859970671309
 30
0.0
 11
4919.796343085618
 21
100.5859976671305
 31
0.0
  0
LINE
  5
1B6E3
330
1B896
100
AcDbEntity
  8
AM_5
100
AcDbLine
 10
4919.596343285618
 20
110.3059969671309
 30
0.0
 11
4919.596343285618
 21
100.4659977671304
 31
0.0
  0
LINE
  5
1B6E4
330
1B896
100
AcDbEntity
  8
AM_5
100
AcDbLine
 10
4919.396343485619
 20
110.4259968671309
 30
0.0
 11
4919.396343485619
 21
100.3459978671303
 31
0.0
  0
LINE
  5
1B6E5
330
1B896
100
AcDbEntity
  8
AM_5
100
AcDbLine
 10
4919.196343685618
 20
110.5459966671302
 30
0.0
 11
4919.196343685618
 21
100.2259979671304
 31
0.0
  0
LINE
  5
1B6E6
330
1B896
100
AcDbEntity
  8
AM_5
100
AcDbLine
 10
4918.99634388562
 20
110.6659956671307
 30
0.0
 11
4918.99634388562
 21
100.1059980671304
 31
0.0
  0
LINE
  5
1B6E7
330
1B896
100
AcDbEntity
  8
AM_5
100
AcDbLine
 10
4918.796343985619
 20
110.7859955671306
 30
0.0
 11
4918.796343985619
 21
99.98599816713031
 31
0.0
  0
LINE
  5
1B6E8
330
1B896
100
AcDbEntity
  8
AM_5
100
AcDbLine
 10
4918.596344185619
 20
110.9059953671309
 30
0.0
 11
4918.596344185619
 21
99.8659982671303
 31
0.0
  0
LINE
  5
1B6E9
330
1B896
100
AcDbEntity
  8
AM_5
100
AcDbLine
 10
4918.39634438562
 20
111.0259952671309
 30
0.0
 11
4918.39634438562
 21
99.745998467131
 31
0.0
  0
LINE
  5
1B6EA
330
1B896
100
AcDbEntity
  8
AM_5
100
AcDbLine
 10
4918.19634458562
 20
111.145995167131
 30
0.0
 11
4918.19634458562
 21
99.62599856713101
 31
0.0
  0
LINE
  5
1B6EB
330
1B896
100
AcDbEntity
  8
AM_5
100
AcDbLine
 10
4917.996344785619
 20
111.2659950671309
 30
0.0
 11
4917.996344785619
 21
99.50599866713091
 31
0.0
  0
LINE
  5
1B6EC
330
1B896
100
AcDbEntity
  8
AM_5
100
AcDbLine
 10
4917.796344985617
 20
111.3859949671301
 30
0.0
 11
4917.796344985617
 21
99.38599876713091
 31
0.0
  0
LINE
  5
1B6ED
330
1B896
100
AcDbEntity
  8
AM_5
100
AcDbLine
 10
4673.096330356013
 20
101.3059993273196
 30
0.0
 11
4673.096330356013
 21
109.4660001273193
 31
0.0
  0
LINE
  5
1B6EE
330
1B896
100
AcDbEntity
  8
AM_5
100
AcDbLine
 10
4672.896330456014
 20
101.4259992273197
 30
0.0
 11
4672.896330456014
 21
109.3460002273193
 31
0.0
  0
LINE
  5
1B6EF
330
1B896
100
AcDbEntity
  8
AM_5
100
AcDbLine
 10
4672.696330656012
 20
101.5459991273198
 30
0.0
 11
4672.696330656012
 21
109.22600042732
 31
0.0
  0
LINE
  5
1B6F0
330
1B896
100
AcDbEntity
  8
AM_5
100
AcDbLine
 10
4672.496330856013
 20
101.6659980273195
 30
0.0
 11
4672.496330856013
 21
109.1060005273199
 31
0.0
  0
LINE
  5
1B6F1
330
1B896
100
AcDbEntity
  8
AM_5
100
AcDbLine
 10
4672.296331056014
 20
101.7859979273195
 30
0.0
 11
4672.296331056014
 21
108.9860006273198
 31
0.0
  0
LINE
  5
1B6F2
330
1B896
100
AcDbEntity
  8
AM_5
100
AcDbLine
 10
4666.296326812366
 20
105.3859985472251
 30
0.0
 11
4676.296327156014
 21
99.38600262731931
 31
0.0
  0
LINE
  5
1B6F3
330
1B896
100
AcDbEntity
  8
AM_5
100
AcDbLine
 10
4666.496339466014
 20
105.2659908173197
 30
0.0
 11
4666.496339466014
 21
105.5060058373198
 31
0.0
  0
LINE
  5
1B6F4
330
1B896
100
AcDbEntity
  8
AM_5
100
AcDbLine
 10
4666.296326812366
 20
105.3859985472251
 30
0.0
 11
4676.296326856014
 21
111.3859982273194
 31
0.0
  0
LINE
  5
1B6F5
330
1B896
100
AcDbEntity
  8
AM_5
100
AcDbLine
 10
4666.696336416014
 20
105.14599569732
 30
0.0
 11
4666.696336416014
 21
105.6260038173201
 31
0.0
  0
LINE
  5
1B6F6
330
1B896
100
AcDbEntity
  8
AM_5
100
AcDbLine
 10
4667.096336026013
 20
104.9059930673198
 30
0.0
 11
4667.096336026013
 21
105.8660035873195
 31
0.0
  0
LINE
  5
1B6F7
330
1B896
100
AcDbEntity
  8
AM_5
100
AcDbLine
 10
4666.896336216012
 20
105.0259958073199
 30
0.0
 11
4666.896336216012
 21
105.7460037073194
 31
0.0
  0
LINE
  5
1B6F8
330
1B896
100
AcDbEntity
  8
AM_5
100
AcDbLine
 10
4667.296335856014
 20
104.7859931773196
 30
0.0
 11
4667.296335856014
 21
105.9860034773197
 31
0.0
  0
LINE
  5
1B6F9
330
1B896
100
AcDbEntity
  8
AM_5
100
AcDbLine
 10
4667.496335656013
 20
104.6659932873196
 30
0.0
 11
4667.496335656013
 21
106.1060033673199
 31
0.0
  0
LINE
  5
1B6FA
330
1B896
100
AcDbEntity
  8
AM_5
100
AcDbLine
 10
4667.696335456013
 20
104.5459943573193
 30
0.0
 11
4667.696335456013
 21
106.2260032473193
 31
0.0
  0
LINE
  5
1B6FB
330
1B896
100
AcDbEntity
  8
AM_5
100
AcDbLine
 10
4667.896335256013
 20
104.4259944773199
 30
0.0
 11
4667.896335256013
 21
106.3460031373194
 31
0.0
  0
LINE
  5
1B6FC
330
1B896
100
AcDbEntity
  8
AM_5
100
AcDbLine
 10
4668.096335056013
 20
104.3059946273193
 30
0.0
 11
4668.096335056013
 21
106.4660030273195
 31
0.0
  0
LINE
  5
1B6FD
330
1B896
100
AcDbEntity
  8
AM_5
100
AcDbLine
 10
4668.496334656012
 20
104.0659948273193
 30
0.0
 11
4668.496334656012
 21
106.7060028273195
 31
0.0
  0
LINE
  5
1B6FE
330
1B896
100
AcDbEntity
  8
AM_5
100
AcDbLine
 10
4668.296334856014
 20
104.1859947273193
 30
0.0
 11
4668.296334856014
 21
106.5860029273195
 31
0.0
  0
LINE
  5
1B6FF
330
1B896
100
AcDbEntity
  8
AM_5
100
AcDbLine
 10
4668.696334456012
 20
103.9459949273193
 30
0.0
 11
4668.696334456012
 21
106.8260026273198
 31
0.0
  0
LINE
  5
1B700
330
1B896
100
AcDbEntity
  8
AM_5
100
AcDbLine
 10
4668.896334356012
 20
103.8259950273201
 30
0.0
 11
4668.896334356012
 21
106.9460025273198
 31
0.0
  0
LINE
  5
1B701
330
1B896
100
AcDbEntity
  8
AM_5
100
AcDbLine
 10
4669.096334156013
 20
103.7059951273191
 30
0.0
 11
4669.096334156013
 21
107.0660024273198
 31
0.0
  0
LINE
  5
1B702
330
1B896
100
AcDbEntity
  8
AM_5
100
AcDbLine
 10
4669.296333956014
 20
103.5859952273201
 30
0.0
 11
4669.296333956014
 21
107.1860023273198
 31
0.0
  0
LINE
  5
1B703
330
1B896
100
AcDbEntity
  8
AM_5
100
AcDbLine
 10
4669.496333756014
 20
103.4659954273198
 30
0.0
 11
4669.496333756014
 21
107.3060022273199
 31
0.0
  0
LINE
  5
1B704
330
1B896
100
AcDbEntity
  8
AM_5
100
AcDbLine
 10
4669.696333556013
 20
103.3459955273198
 30
0.0
 11
4669.696333556013
 21
107.42600212732
 31
0.0
  0
LINE
  5
1B705
330
1B896
100
AcDbEntity
  8
AM_5
100
AcDbLine
 10
4669.896333356012
 20
103.2259956273197
 30
0.0
 11
4669.896333356014
 21
107.54600202732
 31
0.0
  0
LINE
  5
1B706
330
1B896
100
AcDbEntity
  8
AM_5
100
AcDbLine
 10
4670.096333156013
 20
103.1059967273191
 30
0.0
 11
4670.096333156013
 21
107.6660018273193
 31
0.0
  0
LINE
  5
1B707
330
1B896
100
AcDbEntity
  8
AM_5
100
AcDbLine
 10
4670.296332956014
 20
102.9859968273201
 30
0.0
 11
4670.296332956014
 21
107.7860017273194
 31
0.0
  0
LINE
  5
1B708
330
1B896
100
AcDbEntity
  8
AM_5
100
AcDbLine
 10
4670.496332756014
 20
102.8659969273199
 30
0.0
 11
4670.496332756014
 21
107.9060016273194
 31
0.0
  0
LINE
  5
1B709
330
1B896
100
AcDbEntity
  8
AM_5
100
AcDbLine
 10
4670.696332556013
 20
102.74599702732
 30
0.0
 11
4670.696332556013
 21
108.0260015273194
 31
0.0
  0
LINE
  5
1B70A
330
1B896
100
AcDbEntity
  8
AM_5
100
AcDbLine
 10
4670.896332356014
 20
102.6259971273199
 30
0.0
 11
4670.896332356014
 21
108.1460014273195
 31
0.0
  0
LINE
  5
1B70B
330
1B896
100
AcDbEntity
  8
AM_5
100
AcDbLine
 10
4671.096332256014
 20
102.5059972273199
 30
0.0
 11
4671.096332256014
 21
108.2660013273194
 31
0.0
  0
LINE
  5
1B70C
330
1B896
100
AcDbEntity
  8
AM_5
100
AcDbLine
 10
4671.296332056012
 20
102.3859973273198
 30
0.0
 11
4671.296332056012
 21
108.3860012273196
 31
0.0
  0
LINE
  5
1B70D
330
1B896
100
AcDbEntity
  8
AM_5
100
AcDbLine
 10
4671.496331856014
 20
102.2659975273197
 30
0.0
 11
4671.496331856014
 21
108.5060010273197
 31
0.0
  0
LINE
  5
1B70E
330
1B896
100
AcDbEntity
  8
AM_5
100
AcDbLine
 10
4671.696331656013
 20
102.1459976273195
 30
0.0
 11
4671.696331656013
 21
108.6260009273197
 31
0.0
  0
LINE
  5
1B70F
330
1B896
100
AcDbEntity
  8
AM_5
100
AcDbLine
 10
4671.896331456013
 20
102.0259977273196
 30
0.0
 11
4671.896331456013
 21
108.7460008273198
 31
0.0
  0
LINE
  5
1B710
330
1B896
100
AcDbEntity
  8
AM_5
100
AcDbLine
 10
4672.096331256013
 20
101.9059988273198
 30
0.0
 11
4672.096331256013
 21
108.8660007273199
 31
0.0
  0
LINE
  5
1B711
330
1B896
100
AcDbEntity
  8
AM_5
100
AcDbLine
 10
4673.496329956014
 20
101.0659996273195
 30
0.0
 11
4673.496329956014
 21
109.7059999273193
 31
0.0
  0
LINE
  5
1B712
330
1B896
100
AcDbEntity
  8
AM_5
100
AcDbLine
 10
4673.296330156013
 20
101.1859994273196
 30
0.0
 11
4673.296330156015
 21
109.5860000273193
 31
0.0
  0
LINE
  5
1B713
330
1B896
100
AcDbEntity
  8
AM_5
100
AcDbLine
 10
4673.696329756013
 20
100.9459997273194
 30
0.0
 11
4673.696329756013
 21
109.8259998273193
 31
0.0
  0
LINE
  5
1B714
330
1B896
100
AcDbEntity
  8
AM_5
100
AcDbLine
 10
4673.896329556011
 20
100.8259998273193
 30
0.0
 11
4673.896329556011
 21
109.9459997273193
 31
0.0
  0
LINE
  5
1B715
330
1B896
100
AcDbEntity
  8
AM_5
100
AcDbLine
 10
4674.096329356013
 20
100.7059999273193
 30
0.0
 11
4674.096329356013
 21
110.0659996273195
 31
0.0
  0
LINE
  5
1B716
330
1B896
100
AcDbEntity
  8
AM_5
100
AcDbLine
 10
4674.296329156015
 20
100.5860000273193
 30
0.0
 11
4674.296329156015
 21
110.1859994273197
 31
0.0
  0
LINE
  5
1B717
330
1B896
100
AcDbEntity
  8
AM_5
100
AcDbLine
 10
4674.496328956013
 20
100.4660001273192
 30
0.0
 11
4674.496328956013
 21
110.3059993273197
 31
0.0
  0
LINE
  5
1B718
330
1B896
100
AcDbEntity
  8
AM_5
100
AcDbLine
 10
4674.696328756012
 20
100.3460002273192
 30
0.0
 11
4674.696328756012
 21
110.4259992273197
 31
0.0
  0
LINE
  5
1B719
330
1B896
100
AcDbEntity
  8
AM_5
100
AcDbLine
 10
4674.896328556013
 20
100.2260004273199
 30
0.0
 11
4674.896328556013
 21
110.5459991273198
 31
0.0
  0
LINE
  5
1B71A
330
1B896
100
AcDbEntity
  8
AM_5
100
AcDbLine
 10
4675.096328356013
 20
100.1060014273194
 30
0.0
 11
4675.096328356013
 21
110.6659990273197
 31
0.0
  0
LINE
  5
1B71B
330
1B896
100
AcDbEntity
  8
AM_5
100
AcDbLine
 10
4675.296328256012
 20
99.98600152731951
 30
0.0
 11
4675.296328256012
 21
110.7859989273199
 31
0.0
  0
LINE
  5
1B71C
330
1B896
100
AcDbEntity
  8
AM_5
100
AcDbLine
 10
4675.496328056014
 20
99.86600172731931
 30
0.0
 11
4675.496328056014
 21
110.9059988273199
 31
0.0
  0
LINE
  5
1B71D
330
1B896
100
AcDbEntity
  8
AM_5
100
AcDbLine
 10
4675.696327856013
 20
99.7460018273192
 30
0.0
 11
4675.696327856013
 21
111.0259986273191
 31
0.0
  0
LINE
  5
1B71E
330
1B896
100
AcDbEntity
  8
AM_5
100
AcDbLine
 10
4675.896327656014
 20
99.62600192731919
 30
0.0
 11
4675.896327656014
 21
111.1459985273191
 31
0.0
  0
LINE
  5
1B71F
330
1B896
100
AcDbEntity
  8
AM_5
100
AcDbLine
 10
4676.096327456013
 20
99.50600202731919
 30
0.0
 11
4676.096327456013
 21
111.2659984273193
 31
0.0
  0
LINE
  5
1B720
330
1B896
100
AcDbEntity
  8
AM_5
100
AcDbLine
 10
4676.296327256014
 20
99.38600212732
 30
0.0
 11
4676.296327256014
 21
111.3859983273193
 31
0.0
  0
LINE
  5
1B721
330
1B896
100
AcDbEntity
  8
AM_5
100
AcDbLine
 10
4413.36975415812
 20
289.0457924013334
 30
0.0
 11
4413.36975415812
 21
343.5898461239616
 31
0.0
1001
ACAD_DSTYLE_DIMINSPECT
1070
   393
1070
     0
1001
ACAD
1000
DSTYLE
1002
{
1070
   140
1040
3.0
1070
   174
1070
     1
1070
    40
1040
2.0
1002
}
  0
LINE
  5
1B722
330
1B896
100
AcDbEntity
  8
AM_5
100
AcDbLine
 10
4366.369754158119
 20
289.5457924013334
 30
0.0
 11
4366.369754158119
 21
343.5898461239616
 31
0.0
1001
ACAD_DSTYLE_DIMINSPECT
1070
   393
1070
     0
1001
ACAD
1000
DSTYLE
1002
{
1070
   140
1040
3.0
1070
   174
1070
     1
1070
    40
1040
2.0
1002
}
  0
LINE
  5
1B723
330
1B896
100
AcDbEntity
  8
AM_5
100
AcDbLine
 10
4413.36975415812
 20
341.5898461239616
 30
0.0
 11
4366.369754158119
 21
341.5898461239616
 31
0.0
1001
ACAD_DSTYLE_DIMINSPECT
1070
   393
1070
     0
1001
ACAD
1000
DSTYLE
1002
{
1070
   140
1040
3.0
1070
   174
1070
     1
1070
    40
1040
2.0
1002
}
  0
LINE
  5
1B724
330
1B896
100
AcDbEntity
  8
AM_5
100
AcDbLine
 10
4666.296326812366
 20
199.5829611335377
 30
0.0
 11
4666.296326812366
 21
103.385998547225
 31
0.0
1001
ACAD_DSTYLE_DIMINSPECT
1070
   393
1070
     0
1001
ACAD
1000
DSTYLE
1002
{
1070
   140
1040
3.0
1070
   173
1070
     1
1070
   174
1070
     1
1070
    40
1040
2.0
1002
}
  0
LINE
  5
1B725
330
1B896
100
AcDbEntity
  8
AM_5
100
AcDbLine
 10
4638.796326812365
 20
167.5829611335377
 30
0.0
 11
4638.796326812365
 21
103.385998547225
 31
0.0
1001
ACAD_DSTYLE_DIMINSPECT
1070
   393
1070
     0
1001
ACAD
1000
DSTYLE
1002
{
1070
   140
1040
3.0
1070
   173
1070
     1
1070
   174
1070
     1
1070
    40
1040
2.0
1002
}
  0
LINE
  5
1B726
330
1B896
100
AcDbEntity
  8
AM_5
100
AcDbLine
 10
4666.296326812366
 20
105.3859985472251
 30
0.0
 11
4638.796326812365
 21
105.3859985472251
 31
0.0
1001
ACAD_DSTYLE_DIMINSPECT
1070
   393
1070
     0
1001
ACAD
1000
DSTYLE
1002
{
1070
   140
1040
3.0
1070
   173
1070
     1
1070
   174
1070
     1
1070
    40
1040
2.0
1002
}
  0
LINE
  5
1B727
330
1B896
100
AcDbEntity
  8
AM_5
100
AcDbLine
 10
4927.796345429267
 20
199.5829611335377
 30
0.0
 11
4927.796345429267
 21
103.385998547225
 31
0.0
1001
ACAD_DSTYLE_DIMINSPECT
1070
   393
1070
     0
1001
ACAD
1000
DSTYLE
1002
{
1070
   140
1040
3.0
1070
   173
1070
     1
1070
   174
1070
     1
1070
    40
1040
2.0
1002
}
  0
LINE
  5
1B728
330
1B896
100
AcDbEntity
  8
AM_5
100
AcDbLine
 10
4955.296345429267
 20
180.0829611335377
 30
0.0
 11
4955.296345429267
 21
103.385998547225
 31
0.0
1001
ACAD_DSTYLE_DIMINSPECT
1070
   393
1070
     0
1001
ACAD
1000
DSTYLE
1002
{
1070
   140
1040
3.0
1070
   173
1070
     1
1070
   174
1070
     1
1070
    40
1040
2.0
1002
}
  0
LINE
  5
1B729
330
1B896
100
AcDbEntity
  8
AM_5
100
AcDbLine
 10
4927.796345429267
 20
105.3859985472251
 30
0.0
 11
4955.296345429267
 21
105.3859985472251
 31
0.0
1001
ACAD_DSTYLE_DIMINSPECT
1070
   393
1070
     0
1001
ACAD
1000
DSTYLE
1002
{
1070
   140
1040
3.0
1070
   173
1070
     1
1070
   174
1070
     1
1070
    40
1040
2.0
1002
}
  0
LINE
  5
1B72A
330
1B896
100
AcDbEntity
  8
CONT_S_2
100
AcDbLine
 10
4366.369754158119
 20
453.5984607014182
 30
0.0
 11
4374.615800787324
 21
461.8445073306232
 31
0.0
1001
GENIUS_GENOBJ-N-HTC_13
1002
{
1000
OWNER
1000
GEN
1002
}
1001
GENIUS_GENODEF_13
1002
{
1000
HIER
1070
     0
1002
}
1002
{
1000
MANEDIT
1070
     0
1002
}
1002
{
1000
NOSEL
1070
     0
1002
}
1002
{
1000
BEHIND
1070
     0
1002
}
1002
{
1000
OTHER
1070
     0
1002
}
1002
{
1000
REACTOR
1002
}
1001
GENIUS_GENHATCH_13
1002
{
1000
DATA
1040
45.0
1042
2.5
1000
_U
1070
     0
1011
4373.260583144678
1021
452.7827979482028
1031
0.0
1002
}
1002
{
1000
UCS
1010
0.0
1020
0.0
1030
0.0
1010
1.0
1020
0.0
1030
0.0
1010
0.0
1020
1.0
1030
0.0
1002
}
1001
HATCHBACKGROUNDCOLOR
1071
-939524096
1000

1000

  0
LINE
  5
1B72B
330
1B896
100
AcDbEntity
  8
CONT_S_2
100
AcDbLine
 10
4366.369754158119
 20
445.1131793271797
 30
0.0
 11
4383.101082161562
 21
461.8445073306232
 31
0.0
1001
GENIUS_GENOBJ-N-HTC_13
1002
{
1000
OWNER
1000
GEN
1002
}
1001
GENIUS_GENODEF_13
1002
{
1000
HIER
1070
     0
1002
}
1002
{
1000
MANEDIT
1070
     0
1002
}
1002
{
1000
NOSEL
1070
     0
1002
}
1002
{
1000
BEHIND
1070
     0
1002
}
1002
{
1000
OTHER
1070
     0
1002
}
1002
{
1000
REACTOR
1002
}
1001
GENIUS_GENHATCH_13
1002
{
1000
DATA
1040
45.0
1042
2.5
1000
_U
1070
     0
1011
4373.260583144678
1021
452.7827979482028
1031
0.0
1002
}
1002
{
1000
UCS
1010
0.0
1020
0.0
1030
0.0
1010
1.0
1020
0.0
1030
0.0
1010
0.0
1020
1.0
1030
0.0
1002
}
1001
HATCHBACKGROUNDCOLOR
1071
-939524096
1000

1000

  0
LINE
  5
1B72C
330
1B896
100
AcDbEntity
  8
CONT_S_2
100
AcDbLine
 10
4367.586363535802
 20
437.8445073306231
 30
0.0
 11
4391.586363535802
 21
461.8445073306232
 31
0.0
1001
GENIUS_GENOBJ-N-HTC_13
1002
{
1000
OWNER
1000
GEN
1002
}
1001
GENIUS_GENODEF_13
1002
{
1000
HIER
1070
     0
1002
}
1002
{
1000
MANEDIT
1070
     0
1002
}
1002
{
1000
NOSEL
1070
     0
1002
}
1002
{
1000
BEHIND
1070
     0
1002
}
1002
{
1000
OTHER
1070
     0
1002
}
1002
{
1000
REACTOR
1002
}
1001
GENIUS_GENHATCH_13
1002
{
1000
DATA
1040
45.0
1042
2.5
1000
_U
1070
     0
1011
4373.260583144678
1021
452.7827979482028
1031
0.0
1002
}
1002
{
1000
UCS
1010
0.0
1020
0.0
1030
0.0
1010
1.0
1020
0.0
1030
0.0
1010
0.0
1020
1.0
1030
0.0
1002
}
1001
HATCHBACKGROUNDCOLOR
1071
-939524096
1000

1000

  0
LINE
  5
1B72D
330
1B896
100
AcDbEntity
  8
CONT_S_2
100
AcDbLine
 10
4376.07164491004
 20
437.8445073306231
 30
0.0
 11
4400.07164491004
 21
461.8445073306232
 31
0.0
1001
GENIUS_GENOBJ-N-HTC_13
1002
{
1000
OWNER
1000
GEN
1002
}
1001
GENIUS_GENODEF_13
1002
{
1000
HIER
1070
     0
1002
}
1002
{
1000
MANEDIT
1070
     0
1002
}
1002
{
1000
NOSEL
1070
     0
1002
}
1002
{
1000
BEHIND
1070
     0
1002
}
1002
{
1000
OTHER
1070
     0
1002
}
1002
{
1000
REACTOR
1002
}
1001
GENIUS_GENHATCH_13
1002
{
1000
DATA
1040
45.0
1042
2.5
1000
_U
1070
     0
1011
4373.260583144678
1021
452.7827979482028
1031
0.0
1002
}
1002
{
1000
UCS
1010
0.0
1020
0.0
1030
0.0
1010
1.0
1020
0.0
1030
0.0
1010
0.0
1020
1.0
1030
0.0
1002
}
1001
HATCHBACKGROUNDCOLOR
1071
-939524096
1000

1000

  0
LINE
  5
1B72E
330
1B896
100
AcDbEntity
  8
CONT_S_2
100
AcDbLine
 10
4384.556926284279
 20
437.8445073306231
 30
0.0
 11
4408.556926284279
 21
461.8445073306232
 31
0.0
1001
GENIUS_GENOBJ-N-HTC_13
1002
{
1000
OWNER
1000
GEN
1002
}
1001
GENIUS_GENODEF_13
1002
{
1000
HIER
1070
     0
1002
}
1002
{
1000
MANEDIT
1070
     0
1002
}
1002
{
1000
NOSEL
1070
     0
1002
}
1002
{
1000
BEHIND
1070
     0
1002
}
1002
{
1000
OTHER
1070
     0
1002
}
1002
{
1000
REACTOR
1002
}
1001
GENIUS_GENHATCH_13
1002
{
1000
DATA
1040
45.0
1042
2.5
1000
_U
1070
     0
1011
4373.260583144678
1021
452.7827979482028
1031
0.0
1002
}
1002
{
1000
UCS
1010
0.0
1020
0.0
1030
0.0
1010
1.0
1020
0.0
1030
0.0
1010
0.0
1020
1.0
1030
0.0
1002
}
1001
HATCHBACKGROUNDCOLOR
1071
-939524096
1000

1000

  0
LINE
  5
1B72F
330
1B896
100
AcDbEntity
  8
CONT_S_2
100
AcDbLine
 10
4393.042207658517
 20
437.8445073306231
 30
0.0
 11
4413.36975415812
 21
458.1720538302255
 31
0.0
1001
GENIUS_GENOBJ-N-HTC_13
1002
{
1000
OWNER
1000
GEN
1002
}
1001
GENIUS_GENODEF_13
1002
{
1000
HIER
1070
     0
1002
}
1002
{
1000
MANEDIT
1070
     0
1002
}
1002
{
1000
NOSEL
1070
     0
1002
}
1002
{
1000
BEHIND
1070
     0
1002
}
1002
{
1000
OTHER
1070
     0
1002
}
1002
{
1000
REACTOR
1002
}
1001
GENIUS_GENHATCH_13
1002
{
1000
DATA
1040
45.0
1042
2.5
1000
_U
1070
     0
1011
4373.260583144678
1021
452.7827979482028
1031
0.0
1002
}
1002
{
1000
UCS
1010
0.0
1020
0.0
1030
0.0
1010
1.0
1020
0.0
1030
0.0
1010
0.0
1020
1.0
1030
0.0
1002
}
1001
HATCHBACKGROUNDCOLOR
1071
-939524096
1000

1000

  0
LINE
  5
1B730
330
1B896
100
AcDbEntity
  8
CONT_S_2
100
AcDbLine
 10
4401.527489032757
 20
437.8445073306231
 30
0.0
 11
4413.36975415812
 21
449.6867724559868
 31
0.0
1001
GENIUS_GENOBJ-N-HTC_13
1002
{
1000
OWNER
1000
GEN
1002
}
1001
GENIUS_GENODEF_13
1002
{
1000
HIER
1070
     0
1002
}
1002
{
1000
MANEDIT
1070
     0
1002
}
1002
{
1000
NOSEL
1070
     0
1002
}
1002
{
1000
BEHIND
1070
     0
1002
}
1002
{
1000
OTHER
1070
     0
1002
}
1002
{
1000
REACTOR
1002
}
1001
GENIUS_GENHATCH_13
1002
{
1000
DATA
1040
45.0
1042
2.5
1000
_U
1070
     0
1011
4373.260583144678
1021
452.7827979482028
1031
0.0
1002
}
1002
{
1000
UCS
1010
0.0
1020
0.0
1030
0.0
1010
1.0
1020
0.0
1030
0.0
1010
0.0
1020
1.0
1030
0.0
1002
}
1001
HATCHBACKGROUNDCOLOR
1071
-939524096
1000

1000

  0
LINE
  5
1B731
330
1B896
100
AcDbEntity
  8
CONT_S_2
100
AcDbLine
 10
4410.012770406995
 20
437.8445073306231
 30
0.0
 11
4413.36975415812
 21
441.2014910817482
 31
0.0
1001
GENIUS_GENOBJ-N-HTC_13
1002
{
1000
OWNER
1000
GEN
1002
}
1001
GENIUS_GENODEF_13
1002
{
1000
HIER
1070
     0
1002
}
1002
{
1000
MANEDIT
1070
     0
1002
}
1002
{
1000
NOSEL
1070
     0
1002
}
1002
{
1000
BEHIND
1070
     0
1002
}
1002
{
1000
OTHER
1070
     0
1002
}
1002
{
1000
REACTOR
1002
}
1001
GENIUS_GENHATCH_13
1002
{
1000
DATA
1040
45.0
1042
2.5
1000
_U
1070
     0
1011
4373.260583144678
1021
452.7827979482028
1031
0.0
1002
}
1002
{
1000
UCS
1010
0.0
1020
0.0
1030
0.0
1010
1.0
1020
0.0
1030
0.0
1010
0.0
1020
1.0
1030
0.0
1002
}
1001
HATCHBACKGROUNDCOLOR
1071
-939524096
1000

1000

  0
LINE
  5
1B73C
330
1B896
100
AcDbEntity
  8
AM_5
100
AcDbLine
 10
4660.296326812366
 20
206.5829611335376
 30
0.0
 11
4622.466810204186
 21
206.5829611335376
 31
0.0
1001
ACAD_DSTYLE_DIMINSPECT
1070
   393
1070
     0
1001
ACAD
1000
DSTYLE
1002
{
1070
   140
1040
3.0
1070
   173
1070
     1
1002
}
  0
LINE
  5
1B73D
330
1B896
100
AcDbEntity
  8
AM_5
100
AcDbLine
 10
4660.296326812366
 20
200.5829611335377
 30
0.0
 11
4622.466810204186
 21
200.5829611335377
 31
0.0
1001
ACAD_DSTYLE_DIMINSPECT
1070
   393
1070
     0
1001
ACAD
1000
DSTYLE
1002
{
1070
   140
1040
3.0
1070
   173
1070
     1
1002
}
  0
LINE
  5
1B73E
330
1B896
100
AcDbEntity
  8
AM_5
100
AcDbLine
 10
4624.466810204186
 20
206.5829611335376
 30
0.0
 11
4624.466810204186
 21
200.5829611335377
 31
0.0
1001
ACAD_DSTYLE_DIMINSPECT
1070
   393
1070
     0
1001
ACAD
1000
DSTYLE
1002
{
1070
   140
1040
3.0
1070
   173
1070
     1
1002
}
  0
LINE
  5
1B73F
330
1B896
100
AcDbEntity
  8
AM_5
100
AcDbLine
 10
4624.466810204186
 20
206.5829611335376
 30
0.0
 11
4624.466810204186
 21
208.5829611335376
 31
0.0
1001
ACAD_DSTYLE_DIMINSPECT
1070
   393
1070
     0
1001
ACAD
1000
DSTYLE
1002
{
1070
   140
1040
3.0
1070
   173
1070
     1
1002
}
  0
LINE
  5
1B740
330
1B896
100
AcDbEntity
  8
AM_5
100
AcDbLine
 10
4624.466810204186
 20
200.5829611335377
 30
0.0
 11
4624.466810204186
 21
198.5829611335377
 31
0.0
1001
ACAD_DSTYLE_DIMINSPECT
1070
   393
1070
     0
1001
ACAD
1000
DSTYLE
1002
{
1070
   140
1040
3.0
1070
   173
1070
     1
1002
}
  0
LINE
  5
1B741
330
1B896
100
AcDbEntity
  8
AM_5
100
AcDbLine
 10
4637.296326812366
 20
209.5829611335377
 30
0.0
 11
4622.466810204186
 21
209.5829611335377
 31
0.0
1001
ACAD_DSTYLE_DIMINSPECT
1070
   393
1070
     0
1001
ACAD
1000
DSTYLE
1002
{
1070
   140
1040
3.0
1070
   173
1070
     1
1002
}
  0
LINE
  5
1B742
330
1B896
100
AcDbEntity
  8
AM_5
100
AcDbLine
 10
4660.296326812366
 20
206.5829611335376
 30
0.0
 11
4622.466810204186
 21
206.5829611335376
 31
0.0
1001
ACAD_DSTYLE_DIMINSPECT
1070
   393
1070
     0
1001
ACAD
1000
DSTYLE
1002
{
1070
   140
1040
3.0
1070
   173
1070
     1
1002
}
  0
LINE
  5
1B743
330
1B896
100
AcDbEntity
  8
AM_5
100
AcDbLine
 10
4624.466810204186
 20
209.5829611335377
 30
0.0
 11
4624.466810204186
 21
220.1422760893725
 31
0.0
1001
ACAD_DSTYLE_DIMINSPECT
1070
   393
1070
     0
1001
ACAD
1000
DSTYLE
1002
{
1070
   140
1040
3.0
1070
   173
1070
     1
1002
}
  0
LINE
  5
1B744
330
1B896
100
AcDbEntity
  8
AM_5
100
AcDbLine
 10
4624.466810204186
 20
209.5829611335377
 30
0.0
 11
4624.466810204186
 21
206.5829611335376
 31
0.0
1001
ACAD_DSTYLE_DIMINSPECT
1070
   393
1070
     0
1001
ACAD
1000
DSTYLE
1002
{
1070
   140
1040
3.0
1070
   173
1070
     1
1002
}
  0
LINE
  5
1B745
330
1B896
100
AcDbEntity
  8
AM_5
100
AcDbLine
 10
4624.466810204186
 20
206.5829611335376
 30
0.0
 11
4624.466810204186
 21
204.5829611335377
 31
0.0
1001
ACAD_DSTYLE_DIMINSPECT
1070
   393
1070
     0
1001
ACAD
1000
DSTYLE
1002
{
1070
   140
1040
3.0
1070
   173
1070
     1
1002
}
  0
LINE
  5
1B746
330
1B896
100
AcDbEntity
  8
AM_5
100
AcDbLine
 10
4914.785164124138
 20
130.7173521381921
 30
0.0
 11
4923.070878409851
 21
130.7173521381921
 31
0.0
1001
ACAD_DSTYLE_DIMINSPECT
1070
   393
1070
     0
1001
ACAD
1000
DSTYLE
1002
{
1070
   140
1040
3.0
1070
   173
1070
     1
1002
}
  0
LINE
  5
1B747
330
1B896
100
AcDbEntity
  8
AM_5
100
AcDbLine
 10
4923.070878409851
 20
130.7173521381921
 30
0.0
 11
4929.796345429267
 21
143.3859985472251
 31
0.0
1001
ACAD_DSTYLE_DIMINSPECT
1070
   393
1070
     0
1001
ACAD
1000
DSTYLE
1002
{
1070
   140
1040
3.0
1070
   173
1070
     1
1002
}
  0
LINE
  5
1B748
330
1B896
100
AcDbEntity
  8
AM_5
100
AcDbLine
 10
4927.796345429267
 20
209.5829611335377
 30
0.0
 11
4927.796345429267
 21
141.3859985472251
 31
0.0
1001
ACAD_DSTYLE_DIMINSPECT
1070
   393
1070
     0
1001
ACAD
1000
DSTYLE
1002
{
1070
   140
1040
3.0
1070
   173
1070
     1
1002
}
  0
LINE
  5
1B749
330
1B896
100
AcDbEntity
  8
AM_5
100
AcDbLine
 10
4931.796345429266
 20
198.5829611335377
 30
0.0
 11
4931.796345429266
 21
141.3859985472251
 31
0.0
1001
ACAD_DSTYLE_DIMINSPECT
1070
   393
1070
     0
1001
ACAD
1000
DSTYLE
1002
{
1070
   140
1040
3.0
1070
   173
1070
     1
1002
}
  0
LINE
  5
1B74A
330
1B896
100
AcDbEntity
  8
AM_5
100
AcDbLine
 10
4927.796345429267
 20
143.3859985472251
 30
0.0
 11
4931.796345429266
 21
143.3859985472251
 31
0.0
1001
ACAD_DSTYLE_DIMINSPECT
1070
   393
1070
     0
1001
ACAD
1000
DSTYLE
1002
{
1070
   140
1040
3.0
1070
   173
1070
     1
1002
}
  0
LINE
  5
1B74B
330
1B896
100
AcDbEntity
  8
AM_5
100
AcDbLine
 10
4923.796326812365
 20
204.5829611335377
 30
0.0
 11
4923.796326812365
 21
141.3859985472251
 31
0.0
1001
ACAD_DSTYLE_DIMINSPECT
1070
   393
1070
     0
1001
ACAD
1000
DSTYLE
1002
{
1070
   140
1040
3.0
1070
   173
1070
     1
1002
}
  0
LINE
  5
1B74C
330
1B896
100
AcDbEntity
  8
AM_5
100
AcDbLine
 10
4927.796345429267
 20
209.5829611335377
 30
0.0
 11
4927.796345429267
 21
141.3859985472251
 31
0.0
1001
ACAD_DSTYLE_DIMINSPECT
1070
   393
1070
     0
1001
ACAD
1000
DSTYLE
1002
{
1070
   140
1040
3.0
1070
   173
1070
     1
1002
}
  0
LINE
  5
1B74D
330
1B896
100
AcDbEntity
  8
AM_5
100
AcDbLine
 10
4923.796326812365
 20
143.3859985472251
 30
0.0
 11
4912.703345826241
 21
143.3859985472251
 31
0.0
1001
ACAD_DSTYLE_DIMINSPECT
1070
   393
1070
     0
1001
ACAD
1000
DSTYLE
1002
{
1070
   140
1040
3.0
1070
   173
1070
     1
1002
}
  0
LINE
  5
1B74E
330
1B896
100
AcDbEntity
  8
AM_5
100
AcDbLine
 10
4923.796326812365
 20
143.3859985472251
 30
0.0
 11
4927.796345429267
 21
143.3859985472251
 31
0.0
1001
ACAD_DSTYLE_DIMINSPECT
1070
   393
1070
     0
1001
ACAD
1000
DSTYLE
1002
{
1070
   140
1040
3.0
1070
   173
1070
     1
1002
}
  0
LINE
  5
1B74F
330
1B896
100
AcDbEntity
  8
AM_5
100
AcDbLine
 10
4678.053592986198
 20
131.3131098265745
 30
0.0
 11
4669.767878700485
 21
131.3131098265745
 31
0.0
1001
ACAD_DSTYLE_DIMINSPECT
1070
   393
1070
     0
1001
ACAD
1000
DSTYLE
1002
{
1070
   170
1070
     0
1070
    72
1070
     0
1070
    71
1070
     0
1002
}
  0
LINE
  5
1B750
330
1B896
100
AcDbEntity
  8
AM_5
100
AcDbLine
 10
4669.767878700485
 20
131.3131098265745
 30
0.0
 11
4664.296326812365
 21
143.3859985472251
 31
0.0
1001
ACAD_DSTYLE_DIMINSPECT
1070
   393
1070
     0
1001
ACAD
1000
DSTYLE
1002
{
1070
   170
1070
     0
1070
    72
1070
     0
1070
    71
1070
     0
1002
}
  0
LINE
  5
1B751
330
1B896
100
AcDbEntity
  8
AM_5
100
AcDbLine
 10
4666.296326812366
 20
209.5829611335377
 30
0.0
 11
4666.296326812366
 21
141.3859985472251
 31
0.0
1001
ACAD_DSTYLE_DIMINSPECT
1070
   393
1070
     0
1001
ACAD
1000
DSTYLE
1002
{
1070
   170
1070
     0
1070
    72
1070
     0
1070
    71
1070
     0
1002
}
  0
LINE
  5
1B752
330
1B896
100
AcDbEntity
  8
AM_5
100
AcDbLine
 10
4662.296326812366
 20
198.5829611335377
 30
0.0
 11
4662.296326812366
 21
141.3859985472251
 31
0.0
1001
ACAD_DSTYLE_DIMINSPECT
1070
   393
1070
     0
1001
ACAD
1000
DSTYLE
1002
{
1070
   170
1070
     0
1070
    72
1070
     0
1070
    71
1070
     0
1002
}
  0
LINE
  5
1B753
330
1B896
100
AcDbEntity
  8
AM_5
100
AcDbLine
 10
4666.296326812366
 20
143.3859985472251
 30
0.0
 11
4662.296326812366
 21
143.3859985472251
 31
0.0
1001
ACAD_DSTYLE_DIMINSPECT
1070
   393
1070
     0
1001
ACAD
1000
DSTYLE
1002
{
1070
   170
1070
     0
1070
    72
1070
     0
1070
    71
1070
     0
1002
}
  0
LINE
  5
1B754
330
1B896
100
AcDbEntity
  8
AM_5
100
AcDbLine
 10
4670.296326812366
 20
204.5829611335377
 30
0.0
 11
4670.296326812366
 21
141.3859985472251
 31
0.0
1001
ACAD_DSTYLE_DIMINSPECT
1070
   393
1070
     0
1001
ACAD
1000
DSTYLE
1002
{
1070
   170
1070
     0
1070
    72
1070
     0
1070
    71
1070
     0
1002
}
  0
LINE
  5
1B755
330
1B896
100
AcDbEntity
  8
AM_5
100
AcDbLine
 10
4666.296326812366
 20
209.5829611335377
 30
0.0
 11
4666.296326812366
 21
141.3859985472251
 31
0.0
1001
ACAD_DSTYLE_DIMINSPECT
1070
   393
1070
     0
1001
ACAD
1000
DSTYLE
1002
{
1070
   170
1070
     0
1070
    72
1070
     0
1070
    71
1070
     0
1002
}
  0
LINE
  5
1B756
330
1B896
100
AcDbEntity
  8
AM_5
100
AcDbLine
 10
4670.296326812366
 20
143.3859985472251
 30
0.0
 11
4681.586775884293
 21
143.3859985472251
 31
0.0
1001
ACAD_DSTYLE_DIMINSPECT
1070
   393
1070
     0
1001
ACAD
1000
DSTYLE
1002
{
1070
   170
1070
     0
1070
    72
1070
     0
1070
    71
1070
     0
1002
}
  0
LINE
  5
1B757
330
1B896
100
AcDbEntity
  8
AM_5
100
AcDbLine
 10
4670.296326812366
 20
143.3859985472251
 30
0.0
 11
4666.296326812366
 21
143.3859985472251
 31
0.0
1001
ACAD_DSTYLE_DIMINSPECT
1070
   393
1070
     0
1001
ACAD
1000
DSTYLE
1002
{
1070
   170
1070
     0
1070
    72
1070
     0
1070
    71
1070
     0
1002
}
  0
LINE
  5
1B758
330
1B896
100
AcDbEntity
  8
AM_5
100
AcDbLine
 10
4638.796326812365
 20
162.5829611335377
 30
0.0
 11
4638.796326812365
 21
84.38599854722511
 31
0.0
1001
ACAD_DSTYLE_DIMINSPECT
1070
   393
1070
     0
1001
ACAD
1000
DSTYLE
1002
{
1070
    72
1070
     0
1070
    71
1070
     0
1070
   140
1040
3.0
1002
}
  0
LINE
  5
1B759
330
1B896
100
AcDbEntity
  8
AM_5
100
AcDbLine
 10
4955.296345429267
 20
175.0829611335377
 30
0.0
 11
4955.296345429267
 21
84.38599854722507
 31
0.0
1001
ACAD_DSTYLE_DIMINSPECT
1070
   393
1070
     0
1001
ACAD
1000
DSTYLE
1002
{
1070
    72
1070
     0
1070
    71
1070
     0
1070
   140
1040
3.0
1002
}
  0
LINE
  5
1B75A
330
1B896
100
AcDbEntity
  8
AM_5
100
AcDbLine
 10
4638.796326812365
 20
86.38599854722512
 30
0.0
 11
4955.296345429267
 21
86.38599854722507
 31
0.0
1001
ACAD_DSTYLE_DIMINSPECT
1070
   393
1070
     0
1001
ACAD
1000
DSTYLE
1002
{
1070
    72
1070
     0
1070
    71
1070
     0
1070
   140
1040
3.0
1002
}
  0
LINE
  5
1B75B
330
1B896
100
AcDbEntity
  8
AM_5
100
AcDbLine
 10
4651.296326812365
 20
182.5829611335377
 30
0.0
 11
4651.296326812365
 21
122.385998547225
 31
0.0
1001
ACAD_DSTYLE_DIMINSPECT
1070
   393
1070
     0
1001
ACAD
1000
DSTYLE
1002
{
1070
   140
1040
3.0
1070
   174
1070
     1
1070
    40
1040
2.0
1002
}
  0
LINE
  5
1B75C
330
1B896
100
AcDbEntity
  8
AM_5
100
AcDbLine
 10
4638.796326812365
 20
182.5829611335377
 30
0.0
 11
4638.796326812365
 21
122.385998547225
 31
0.0
1001
ACAD_DSTYLE_DIMINSPECT
1070
   393
1070
     0
1001
ACAD
1000
DSTYLE
1002
{
1070
   140
1040
3.0
1070
   174
1070
     1
1070
    40
1040
2.0
1002
}
  0
LINE
  5
1B75D
330
1B896
100
AcDbEntity
  8
AM_5
100
AcDbLine
 10
4638.796326812365
 20
124.3859985472251
 30
0.0
 11
4614.044735633673
 21
124.3859985472251
 31
0.0
1001
ACAD_DSTYLE_DIMINSPECT
1070
   393
1070
     0
1001
ACAD
1000
DSTYLE
1002
{
1070
   140
1040
3.0
1070
   174
1070
     1
1070
    40
1040
2.0
1002
}
  0
LINE
  5
1B75E
330
1B896
100
AcDbEntity
  8
AM_5
100
AcDbLine
 10
4651.296326812365
 20
124.3859985472251
 30
0.0
 11
4638.796326812365
 21
124.3859985472251
 31
0.0
1001
ACAD_DSTYLE_DIMINSPECT
1070
   393
1070
     0
1001
ACAD
1000
DSTYLE
1002
{
1070
   140
1040
3.0
1070
   174
1070
     1
1070
    40
1040
2.0
1002
}
  0
LINE
  5
1B75F
330
1B896
100
AcDbEntity
  8
AM_5
100
AcDbLine
 10
4662.296326812366
 20
193.5829611335377
 30
0.0
 11
4662.296326812366
 21
122.385998547225
 31
0.0
1001
ACAD_DSTYLE_DIMINSPECT
1070
   393
1070
     0
1001
ACAD
1000
DSTYLE
1002
{
1070
   140
1040
3.0
1070
   174
1070
     1
1070
    72
1070
     0
1070
    71
1070
     0
1002
}
  0
LINE
  5
1B760
330
1B896
100
AcDbEntity
  8
AM_5
100
AcDbLine
 10
4651.296326812365
 20
177.5829611335377
 30
0.0
 11
4651.296326812365
 21
122.385998547225
 31
0.0
1001
ACAD_DSTYLE_DIMINSPECT
1070
   393
1070
     0
1001
ACAD
1000
DSTYLE
1002
{
1070
   140
1040
3.0
1070
   174
1070
     1
1070
    72
1070
     0
1070
    71
1070
     0
1002
}
  0
LINE
  5
1B761
330
1B896
100
AcDbEntity
  8
AM_5
100
AcDbLine
 10
4662.296326812366
 20
124.3859985472251
 30
0.0
 11
4651.296326812365
 21
124.3859985472251
 31
0.0
1001
ACAD_DSTYLE_DIMINSPECT
1070
   393
1070
     0
1001
ACAD
1000
DSTYLE
1002
{
1070
   140
1040
3.0
1070
   174
1070
     1
1070
    72
1070
     0
1070
    71
1070
     0
1002
}
  0
LINE
  5
1B762
330
1B896
100
AcDbEntity
  8
AM_5
100
AcDbLine
 10
4942.796345429266
 20
202.5829611335377
 30
0.0
 11
4942.796345429266
 21
122.385998547225
 31
0.0
1001
ACAD_DSTYLE_DIMINSPECT
1070
   393
1070
     0
1001
ACAD
1000
DSTYLE
1002
{
1070
   140
1040
3.0
1070
   174
1070
     1
1070
    40
1040
2.0
1002
}
  0
LINE
  5
1B763
330
1B896
100
AcDbEntity
  8
AM_5
100
AcDbLine
 10
4955.296345429267
 20
185.0829611335377
 30
0.0
 11
4955.296345429267
 21
122.385998547225
 31
0.0
1001
ACAD_DSTYLE_DIMINSPECT
1070
   393
1070
     0
1001
ACAD
1000
DSTYLE
1002
{
1070
   140
1040
3.0
1070
   174
1070
     1
1070
    40
1040
2.0
1002
}
  0
LINE
  5
1B764
330
1B896
100
AcDbEntity
  8
AM_5
100
AcDbLine
 10
4955.296345429267
 20
124.3859985472251
 30
0.0
 11
4978.504801010067
 21
124.3859985472251
 31
0.0
1001
ACAD_DSTYLE_DIMINSPECT
1070
   393
1070
     0
1001
ACAD
1000
DSTYLE
1002
{
1070
   140
1040
3.0
1070
   174
1070
     1
1070
    40
1040
2.0
1002
}
  0
LINE
  5
1B765
330
1B896
100
AcDbEntity
  8
AM_5
100
AcDbLine
 10
4942.796345429266
 20
124.3859985472251
 30
0.0
 11
4955.296345429267
 21
124.3859985472251
 31
0.0
1001
ACAD_DSTYLE_DIMINSPECT
1070
   393
1070
     0
1001
ACAD
1000
DSTYLE
1002
{
1070
   140
1040
3.0
1070
   174
1070
     1
1070
    40
1040
2.0
1002
}
  0
LINE
  5
1B766
330
1B896
100
AcDbEntity
  8
AM_5
100
AcDbLine
 10
4931.796345429266
 20
193.5829611335377
 30
0.0
 11
4931.796345429266
 21
122.385998547225
 31
0.0
1001
ACAD_DSTYLE_DIMINSPECT
1070
   393
1070
     0
1001
ACAD
1000
DSTYLE
1002
{
1070
   140
1040
3.0
1070
   174
1070
     1
1070
    72
1070
     0
1070
    71
1070
     0
1002
}
  0
LINE
  5
1B767
330
1B896
100
AcDbEntity
  8
AM_5
100
AcDbLine
 10
4942.796345429266
 20
202.5829611335377
 30
0.0
 11
4942.796345429266
 21
122.385998547225
 31
0.0
1001
ACAD_DSTYLE_DIMINSPECT
1070
   393
1070
     0
1001
ACAD
1000
DSTYLE
1002
{
1070
   140
1040
3.0
1070
   174
1070
     1
1070
    72
1070
     0
1070
    71
1070
     0
1002
}
  0
LINE
  5
1B768
330
1B896
100
AcDbEntity
  8
AM_5
100
AcDbLine
 10
4931.796345429266
 20
124.3859985472251
 30
0.0
 11
4942.796345429266
 21
124.3859985472251
 31
0.0
1001
ACAD_DSTYLE_DIMINSPECT
1070
   393
1070
     0
1001
ACAD
1000
DSTYLE
1002
{
1070
   140
1040
3.0
1070
   174
1070
     1
1070
    72
1070
     0
1070
    71
1070
     0
1002
}
  0
LINE
  5
1B769
330
1B896
100
AcDbEntity
  8
AM_5
100
AcDbLine
 10
4662.296326812366
 20
193.5829611335377
 30
0.0
 11
4662.296326812366
 21
122.385998547225
 31
0.0
1001
ACAD_DSTYLE_DIMINSPECT
1070
   393
1070
     0
1001
ACAD
1000
DSTYLE
1002
{
1070
   140
1040
3.0
1070
    72
1070
     0
1070
    71
1070
     0
1002
}
  0
LINE
  5
1B76A
330
1B896
100
AcDbEntity
  8
AM_5
100
AcDbLine
 10
4931.796345429266
 20
193.5829611335377
 30
0.0
 11
4931.796345429266
 21
122.385998547225
 31
0.0
1001
ACAD_DSTYLE_DIMINSPECT
1070
   393
1070
     0
1001
ACAD
1000
DSTYLE
1002
{
1070
   140
1040
3.0
1070
    72
1070
     0
1070
    71
1070
     0
1002
}
  0
LINE
  5
1B76B
330
1B896
100
AcDbEntity
  8
AM_5
100
AcDbLine
 10
4662.296326812366
 20
124.3859985472251
 30
0.0
 11
4931.796345429266
 21
124.3859985472251
 31
0.0
1001
ACAD_DSTYLE_DIMINSPECT
1070
   393
1070
     0
1001
ACAD
1000
DSTYLE
1002
{
1070
   140
1040
3.0
1070
    72
1070
     0
1070
    71
1070
     0
1002
}
  0
LINE
  5
1B76C
330
1B896
100
AcDbEntity
  8
AM_5
100
AcDbLine
 10
4670.296326812366
 20
204.5829611335377
 30
0.0
 11
4670.296326812366
 21
141.3859985472251
 31
0.0
1001
ACAD_DSTYLE_DIMINSPECT
1070
   393
1070
     0
1001
ACAD
1000
DSTYLE
1002
{
1070
   140
1040
3.0
1070
    72
1070
     0
1070
    71
1070
     0
1002
}
  0
LINE
  5
1B76D
330
1B896
100
AcDbEntity
  8
AM_5
100
AcDbLine
 10
4923.796326812365
 20
204.5829611335377
 30
0.0
 11
4923.796326812365
 21
141.3859985472251
 31
0.0
1001
ACAD_DSTYLE_DIMINSPECT
1070
   393
1070
     0
1001
ACAD
1000
DSTYLE
1002
{
1070
   140
1040
3.0
1070
    72
1070
     0
1070
    71
1070
     0
1002
}
  0
LINE
  5
1B76E
330
1B896
100
AcDbEntity
  8
AM_5
100
AcDbLine
 10
4670.296326812366
 20
143.3859985472251
 30
0.0
 11
4923.796326812365
 21
143.3859985472251
 31
0.0
1001
ACAD_DSTYLE_DIMINSPECT
1070
   393
1070
     0
1001
ACAD
1000
DSTYLE
1002
{
1070
   140
1040
3.0
1070
    72
1070
     0
1070
    71
1070
     0
1002
}
  0
LINE
  5
1B76F
330
1B896
100
AcDbEntity
  8
AM_5
100
AcDbLine
 10
4992.034950827734
 20
227.0829611335376
 30
0.0
 11
5002.519502420454
 21
227.0829611335376
 31
0.0
1001
ACAD_DSTYLE_DIMINSPECT
1070
   393
1070
     0
1001
ACAD
1000
DSTYLE
1002
{
1070
   140
1040
3.0
1002
}
  0
LINE
  5
1B770
330
1B896
100
AcDbEntity
  8
AM_5
100
AcDbLine
 10
4957.296345429266
 20
244.5829611335377
 30
0.0
 11
5002.519502420454
 21
244.5829611335377
 31
0.0
1001
ACAD_DSTYLE_DIMINSPECT
1070
   393
1070
     0
1001
ACAD
1000
DSTYLE
1002
{
1070
   140
1040
3.0
1002
}
  0
LINE
  5
1B771
330
1B896
100
AcDbEntity
  8
AM_5
100
AcDbLine
 10
5000.519502420453
 20
227.0829611335376
 30
0.0
 11
5000.519502420453
 21
203.7228992025731
 31
0.0
1001
ACAD_DSTYLE_DIMINSPECT
1070
   393
1070
     0
1001
ACAD
1000
DSTYLE
1002
{
1070
   140
1040
3.0
1002
}
  0
LINE
  5
1B772
330
1B896
100
AcDbEntity
  8
AM_5
100
AcDbLine
 10
5000.519502420453
 20
227.0829611335376
 30
0.0
 11
5000.519502420453
 21
244.5829611335377
 31
0.0
1001
ACAD_DSTYLE_DIMINSPECT
1070
   393
1070
     0
1001
ACAD
1000
DSTYLE
1002
{
1070
   140
1040
3.0
1002
}
  0
LINE
  5
1B773
330
1B896
100
AcDbEntity
  8
AM_5
100
AcDbLine
 10
4637.296326812366
 20
209.5829611335377
 30
0.0
 11
4608.466810204186
 21
209.5829611335377
 31
0.0
1001
ACAD_DSTYLE_DIMINSPECT
1070
   393
1070
     0
1001
ACAD
1000
DSTYLE
1002
{
1070
   140
1040
3.0
1070
   174
1070
     1
1070
    40
1040
2.0
1002
}
  0
LINE
  5
1B774
330
1B896
100
AcDbEntity
  8
AM_5
100
AcDbLine
 10
4637.296326812366
 20
244.5829611335377
 30
0.0
 11
4608.466810204186
 21
244.5829611335377
 31
0.0
1001
ACAD_DSTYLE_DIMINSPECT
1070
   393
1070
     0
1001
ACAD
1000
DSTYLE
1002
{
1070
   140
1040
3.0
1070
   174
1070
     1
1070
    40
1040
2.0
1002
}
  0
LINE
  5
1B775
330
1B896
100
AcDbEntity
  8
AM_5
100
AcDbLine
 10
4610.466810204186
 20
209.5829611335377
 30
0.0
 11
4610.466810204186
 21
244.5829611335377
 31
0.0
1001
ACAD_DSTYLE_DIMINSPECT
1070
   393
1070
     0
1001
ACAD
1000
DSTYLE
1002
{
1070
   140
1040
3.0
1070
   174
1070
     1
1070
    40
1040
2.0
1002
}
  0
LINE
  5
1B776
330
1B896
100
AcDbEntity
  8
AM_5
100
AcDbLine
 10
4637.296326812366
 20
184.5829611335377
 30
0.0
 11
4608.466810204186
 21
184.5829611335377
 31
0.0
1001
ACAD_DSTYLE_DIMINSPECT
1070
   393
1070
     0
1001
ACAD
1000
DSTYLE
1002
{
1070
   140
1040
3.0
1070
   174
1070
     1
1002
}
  0
LINE
  5
1B777
330
1B896
100
AcDbEntity
  8
AM_5
100
AcDbLine
 10
4637.296326812366
 20
209.5829611335377
 30
0.0
 11
4608.466810204186
 21
209.5829611335377
 31
0.0
1001
ACAD_DSTYLE_DIMINSPECT
1070
   393
1070
     0
1001
ACAD
1000
DSTYLE
1002
{
1070
   140
1040
3.0
1070
   174
1070
     1
1002
}
  0
LINE
  5
1B778
330
1B896
100
AcDbEntity
  8
AM_5
100
AcDbLine
 10
4610.466810204186
 20
184.5829611335377
 30
0.0
 11
4610.466810204186
 21
209.5829611335377
 31
0.0
1001
ACAD_DSTYLE_DIMINSPECT
1070
   393
1070
     0
1001
ACAD
1000
DSTYLE
1002
{
1070
   140
1040
3.0
1070
   174
1070
     1
1002
}
  0
LINE
  5
1B779
330
1B896
100
AcDbEntity
  8
AM_5
100
AcDbLine
 10
4454.369753565814
 20
-16.95420759866647
 30
0.0
 11
4507.613238212473
 21
-16.95420759866647
 31
0.0
1001
ACAD_DSTYLE_DIMINSPECT
1070
   393
1070
     0
1001
ACAD
1000
DSTYLE
1002
{
1070
    72
1070
     0
1070
    71
1070
     0
1002
}
  0
LINE
  5
1B77A
330
1B896
100
AcDbEntity
  8
AM_5
100
AcDbLine
 10
4415.36975415812
 20
288.0457924013334
 30
0.0
 11
4507.613238212473
 21
288.0457924013334
 31
0.0
1001
ACAD_DSTYLE_DIMINSPECT
1070
   393
1070
     0
1001
ACAD
1000
DSTYLE
1002
{
1070
    72
1070
     0
1070
    71
1070
     0
1002
}
  0
LINE
  5
1B77B
330
1B896
100
AcDbEntity
  8
AM_5
100
AcDbLine
 10
4505.613238212474
 20
-16.95420759866647
 30
0.0
 11
4505.613238212474
 21
288.0457924013334
 31
0.0
1001
ACAD_DSTYLE_DIMINSPECT
1070
   393
1070
     0
1001
ACAD
1000
DSTYLE
1002
{
1070
    72
1070
     0
1070
    71
1070
     0
1002
}
  0
LINE
  5
1B77C
330
1B896
100
AcDbEntity
  8
AM_5
100
AcDbLine
 10
4412.50372875434
 20
260.0457927122334
 30
0.0
 11
4467.813717390676
 21
260.0457927122334
 31
0.0
1001
ACAD_DSTYLE_DIMINSPECT
1070
   393
1070
     0
1001
ACAD
1000
DSTYLE
1002
{
1070
   140
1040
3.0
1070
   174
1070
     1
1070
    40
1040
2.0
1002
}
  0
LINE
  5
1B77D
330
1B896
100
AcDbEntity
  8
AM_5
100
AcDbLine
 10
4438.369754158119
 20
263.0457924012336
 30
0.0
 11
4467.813717390676
 21
263.0457924012336
 31
0.0
1001
ACAD_DSTYLE_DIMINSPECT
1070
   393
1070
     0
1001
ACAD
1000
DSTYLE
1002
{
1070
   140
1040
3.0
1070
   174
1070
     1
1070
    40
1040
2.0
1002
}
  0
LINE
  5
1B77E
330
1B896
100
AcDbEntity
  8
AM_5
100
AcDbLine
 10
4465.813717390676
 20
260.0457927122334
 30
0.0
 11
4465.813717390676
 21
246.1489975778573
 31
0.0
1001
ACAD_DSTYLE_DIMINSPECT
1070
   393
1070
     0
1001
ACAD
1000
DSTYLE
1002
{
1070
   140
1040
3.0
1070
   174
1070
     1
1070
    40
1040
2.0
1002
}
  0
LINE
  5
1B77F
330
1B896
100
AcDbEntity
  8
AM_5
100
AcDbLine
 10
4465.813717390676
 20
260.0457927122334
 30
0.0
 11
4465.813717390676
 21
263.0457924012336
 31
0.0
1001
ACAD_DSTYLE_DIMINSPECT
1070
   393
1070
     0
1001
ACAD
1000
DSTYLE
1002
{
1070
   140
1040
3.0
1070
   174
1070
     1
1070
    40
1040
2.0
1002
}
  0
LINE
  5
1B780
330
1B896
100
AcDbEntity
  8
AM_5
100
AcDbLine
 10
4465.813717390676
 20
263.0457924012336
 30
0.0
 11
4465.813717390676
 21
265.0457924012335
 31
0.0
1001
ACAD_DSTYLE_DIMINSPECT
1070
   393
1070
     0
1001
ACAD
1000
DSTYLE
1002
{
1070
   140
1040
3.0
1070
   174
1070
     1
1070
    40
1040
2.0
1002
}
  0
LINE
  5
1B781
330
1B896
100
AcDbEntity
  8
AM_5
100
AcDbLine
 10
4412.369754158119
 20
-4.954207598666471
 30
0.0
 11
4467.813717390676
 21
-4.954207598666471
 31
0.0
1001
ACAD_DSTYLE_DIMINSPECT
1070
   393
1070
     0
1001
ACAD
1000
DSTYLE
1002
{
1070
   140
1040
3.0
1070
    72
1070
     0
1070
    71
1070
     0
1002
}
  0
LINE
  5
1B782
330
1B896
100
AcDbEntity
  8
AM_5
100
AcDbLine
 10
4412.50372875434
 20
260.0457927122334
 30
0.0
 11
4467.813717390676
 21
260.0457927122334
 31
0.0
1001
ACAD_DSTYLE_DIMINSPECT
1070
   393
1070
     0
1001
ACAD
1000
DSTYLE
1002
{
1070
   140
1040
3.0
1070
    72
1070
     0
1070
    71
1070
     0
1002
}
  0
LINE
  5
1B783
330
1B896
100
AcDbEntity
  8
AM_5
100
AcDbLine
 10
4465.813717390676
 20
-4.954207598666471
 30
0.0
 11
4465.813717390676
 21
260.0457927122334
 31
0.0
1001
ACAD_DSTYLE_DIMINSPECT
1070
   393
1070
     0
1001
ACAD
1000
DSTYLE
1002
{
1070
   140
1040
3.0
1070
    72
1070
     0
1070
    71
1070
     0
1002
}
  0
LINE
  5
1B784
330
1B896
100
AcDbEntity
  8
AM_5
100
AcDbLine
 10
4454.369753565814
 20
-16.95420759866647
 30
0.0
 11
4467.813717390676
 21
-16.95420759866647
 31
0.0
1001
ACAD_DSTYLE_DIMINSPECT
1070
   393
1070
     0
1001
ACAD
1000
DSTYLE
1002
{
1070
   140
1040
3.0
1070
   174
1070
     1
1002
}
  0
LINE
  5
1B785
330
1B896
100
AcDbEntity
  8
AM_5
100
AcDbLine
 10
4412.369754158119
 20
-4.954207598666471
 30
0.0
 11
4467.813717390676
 21
-4.954207598666474
 31
0.0
1001
ACAD_DSTYLE_DIMINSPECT
1070
   393
1070
     0
1001
ACAD
1000
DSTYLE
1002
{
1070
   140
1040
3.0
1070
   174
1070
     1
1002
}
  0
LINE
  5
1B786
330
1B896
100
AcDbEntity
  8
AM_5
100
AcDbLine
 10
4465.813717390676
 20
-16.95420759866647
 30
0.0
 11
4465.813717390676
 21
-4.954207598666474
 31
0.0
1001
ACAD_DSTYLE_DIMINSPECT
1070
   393
1070
     0
1001
ACAD
1000
DSTYLE
1002
{
1070
   140
1040
3.0
1070
   174
1070
     1
1002
}
  0
LINE
  5
1B788
330
1B896
100
AcDbEntity
  8
AM_5
100
AcDbLine
 10
4465.813717390676
 20
-4.954207598666474
 30
0.0
 11
4465.813717390676
 21
-2.954207598666474
 31
0.0
1001
ACAD_DSTYLE_DIMINSPECT
1070
   393
1070
     0
1001
ACAD
1000
DSTYLE
1002
{
1070
   140
1040
3.0
1070
   174
1070
     1
1002
}
  0
LINE
  5
1B789
330
1B896
100
AcDbEntity
  8
AM_5
100
AcDbLine
 10
4276.369754158119
 20
276.0457924013334
 30
0.0
 11
4276.369754158119
 21
-16.95420759866647
 31
0.0
1001
ACAD_DSTYLE_DIMINSPECT
1070
   393
1070
     0
1001
ACAD
1000
DSTYLE
1002
{
1070
   140
1040
3.0
1070
    76
1070
     1
1070
    75
1070
     1
1070
    72
1070
     0
1070
    71
1070
     0
1002
}
  0
LINE
  5
1B78A
330
1B896
100
AcDbEntity
  8
AM_5
100
AcDbLine
 10
4276.369754158119
 20
288.5457924013334
 30
0.0
 11
4276.369754158119
 21
334.5110070951134
 31
0.0
1001
ACAD_DSTYLE_DIMINSPECT
1070
   393
1070
     0
1001
ACAD
1000
DSTYLE
1002
{
1070
   140
1040
3.0
1070
    76
1070
     1
1070
    75
1070
     1
1070
   174
1070
     1
1070
   170
1070
     0
1070
    72
1070
     0
1070
    71
1070
     0
1002
}
  0
LINE
  5
1B78B
330
1B896
100
AcDbEntity
  8
AM_5
100
AcDbLine
 10
4276.369754158119
 20
276.0457924013334
 30
0.0
 11
4276.369754158119
 21
288.5457924013334
 31
0.0
1001
ACAD_DSTYLE_DIMINSPECT
1070
   393
1070
     0
1001
ACAD
1000
DSTYLE
1002
{
1070
   140
1040
3.0
1070
    76
1070
     1
1070
    75
1070
     1
1070
   174
1070
     1
1070
   170
1070
     0
1070
    72
1070
     0
1070
    71
1070
     0
1002
}
  0
LINE
  5
1B78C
330
1B896
100
AcDbEntity
  8
AM_5
100
AcDbLine
 10
4410.36975415812
 20
226.6033045738235
 30
0.0
 11
4410.36975415812
 21
160.3400113385418
 31
0.0
1001
ACAD_DSTYLE_DIMINSPECT
1070
   393
1070
     0
1001
ACAD
1000
DSTYLE
1002
{
1070
   140
1040
3.0
1070
   170
1070
     0
1070
    72
1070
     0
1070
    71
1070
     0
1002
}
  0
LINE
  5
1B78D
330
1B896
100
AcDbEntity
  8
AM_5
100
AcDbLine
 10
4413.36975415812
 20
263.0457924013334
 30
0.0
 11
4413.36975415812
 21
160.3400113385418
 31
0.0
1001
ACAD_DSTYLE_DIMINSPECT
1070
   393
1070
     0
1001
ACAD
1000
DSTYLE
1002
{
1070
   140
1040
3.0
1070
   170
1070
     0
1070
    72
1070
     0
1070
    71
1070
     0
1002
}
  0
LINE
  5
1B78E
330
1B896
100
AcDbEntity
  8
AM_5
100
AcDbLine
 10
4413.36975415812
 20
162.3400113385418
 30
0.0
 11
4423.935500381351
 21
162.3400113385418
 31
0.0
1001
ACAD_DSTYLE_DIMINSPECT
1070
   393
1070
     0
1001
ACAD
1000
DSTYLE
1002
{
1070
   140
1040
3.0
1070
   170
1070
     0
1070
    72
1070
     0
1070
    71
1070
     0
1002
}
  0
LINE
  5
1B78F
330
1B896
100
AcDbEntity
  8
AM_5
100
AcDbLine
 10
4410.36975415812
 20
162.3400113385418
 30
0.0
 11
4413.36975415812
 21
162.3400113385418
 31
0.0
1001
ACAD_DSTYLE_DIMINSPECT
1070
   393
1070
     0
1001
ACAD
1000
DSTYLE
1002
{
1070
   140
1040
3.0
1070
   170
1070
     0
1070
    72
1070
     0
1070
    71
1070
     0
1002
}
  0
LINE
  5
1B790
330
1B896
100
AcDbEntity
  8
AM_5
100
AcDbLine
 10
4410.36975415812
 20
162.3400113385418
 30
0.0
 11
4408.369754158119
 21
162.3400113385418
 31
0.0
1001
ACAD_DSTYLE_DIMINSPECT
1070
   393
1070
     0
1001
ACAD
1000
DSTYLE
1002
{
1070
   140
1040
3.0
1070
   170
1070
     0
1070
    72
1070
     0
1070
    71
1070
     0
1002
}
  0
LINE
  5
1B791
330
1B896
100
AcDbEntity
  8
AM_5
100
AcDbLine
 10
4370.36975415812
 20
258.0457924013334
 30
0.0
 11
4370.36975415812
 21
160.3400113385418
 31
0.0
1001
ACAD_DSTYLE_DIMINSPECT
1070
   393
1070
     0
1001
ACAD
1000
DSTYLE
1002
{
1070
   140
1040
3.0
1070
   170
1070
     0
1070
    72
1070
     0
1070
    71
1070
     0
1002
}
  0
LINE
  5
1B792
330
1B896
100
AcDbEntity
  8
AM_5
100
AcDbLine
 10
4410.36975415812
 20
226.6033045738235
 30
0.0
 11
4410.36975415812
 21
160.3400113385418
 31
0.0
1001
ACAD_DSTYLE_DIMINSPECT
1070
   393
1070
     0
1001
ACAD
1000
DSTYLE
1002
{
1070
   140
1040
3.0
1070
   170
1070
     0
1070
    72
1070
     0
1070
    71
1070
     0
1002
}
  0
LINE
  5
1B793
330
1B896
100
AcDbEntity
  8
AM_5
100
AcDbLine
 10
4370.36975415812
 20
162.3400113385418
 30
0.0
 11
4410.36975415812
 21
162.3400113385418
 31
0.0
1001
ACAD_DSTYLE_DIMINSPECT
1070
   393
1070
     0
1001
ACAD
1000
DSTYLE
1002
{
1070
   140
1040
3.0
1070
   170
1070
     0
1070
    72
1070
     0
1070
    71
1070
     0
1002
}
  0
LINE
  5
1B794
330
1B896
100
AcDbEntity
  8
AM_5
100
AcDbLine
 10
4366.369754158119
 20
261.0457924013334
 30
0.0
 11
4366.369754158119
 21
160.3400113385418
 31
0.0
1001
ACAD_DSTYLE_DIMINSPECT
1070
   393
1070
     0
1001
ACAD
1000
DSTYLE
1002
{
1070
   140
1040
3.0
1070
   170
1070
     0
1070
    72
1070
     0
1070
    71
1070
     0
1002
}
  0
LINE
  5
1B795
330
1B896
100
AcDbEntity
  8
AM_5
100
AcDbLine
 10
4370.36975415812
 20
258.0457924013334
 30
0.0
 11
4370.36975415812
 21
160.3400113385418
 31
0.0
1001
ACAD_DSTYLE_DIMINSPECT
1070
   393
1070
     0
1001
ACAD
1000
DSTYLE
1002
{
1070
   140
1040
3.0
1070
   170
1070
     0
1070
    72
1070
     0
1070
    71
1070
     0
1002
}
  0
LINE
  5
1B796
330
1B896
100
AcDbEntity
  8
AM_5
100
AcDbLine
 10
4366.369754158119
 20
162.3400113385418
 30
0.0
 11
4354.657352956561
 21
162.3400113385418
 31
0.0
1001
ACAD_DSTYLE_DIMINSPECT
1070
   393
1070
     0
1001
ACAD
1000
DSTYLE
1002
{
1070
   140
1040
3.0
1070
   170
1070
     0
1070
    72
1070
     0
1070
    71
1070
     0
1002
}
  0
LINE
  5
1B797
330
1B896
100
AcDbEntity
  8
AM_5
100
AcDbLine
 10
4366.369754158119
 20
162.3400113385418
 30
0.0
 11
4370.36975415812
 21
162.3400113385418
 31
0.0
1001
ACAD_DSTYLE_DIMINSPECT
1070
   393
1070
     0
1001
ACAD
1000
DSTYLE
1002
{
1070
   140
1040
3.0
1070
   170
1070
     0
1070
    72
1070
     0
1070
    71
1070
     0
1002
}
  0
LINE
  5
1B798
330
1B896
100
AcDbEntity
  8
AM_5
100
AcDbLine
 10
4366.369754158119
 20
289.5457924013334
 30
0.0
 11
4366.369754158119
 21
330.0898461239615
 31
0.0
1001
ACAD_DSTYLE_DIMINSPECT
1070
   393
1070
     0
1001
ACAD
1000
DSTYLE
1002
{
1070
   140
1040
3.0
1070
   170
1070
     0
1070
    72
1070
     0
1070
    71
1070
     0
1002
}
  0
LINE
  5
1B799
330
1B896
100
AcDbEntity
  8
AM_5
100
AcDbLine
 10
4390.369754158119
 20
327.1627134911934
 30
0.0
 11
4390.369754158119
 21
326.0898461239615
 31
0.0
1001
ACAD_DSTYLE_DIMINSPECT
1070
   393
1070
     0
1001
ACAD
1000
DSTYLE
1002
{
1070
   140
1040
3.0
1070
   170
1070
     0
1070
    72
1070
     0
1070
    71
1070
     0
1002
}
  0
LINE
  5
1B79A
330
1B896
100
AcDbEntity
  8
AM_5
100
AcDbLine
 10
4366.369754158119
 20
328.0898461239615
 30
0.0
 11
4390.369754158119
 21
328.0898461239615
 31
0.0
1001
ACAD_DSTYLE_DIMINSPECT
1070
   393
1070
     0
1001
ACAD
1000
DSTYLE
1002
{
1070
   140
1040
3.0
1070
   170
1070
     0
1070
    72
1070
     0
1070
    71
1070
     0
1002
}
  0
LINE
  5
1B79B
330
1B896
100
AcDbEntity
  8
AM_5
100
AcDbLine
 10
4413.36975415812
 20
289.0457924013334
 30
0.0
 11
4413.36975415812
 21
343.5898461239616
 31
0.0
1001
ACAD_DSTYLE_DIMINSPECT
1070
   393
1070
     0
1001
ACAD
1000
DSTYLE
1002
{
1070
   140
1040
3.0
1070
   174
1070
     1
1070
   170
1070
     0
1070
    72
1070
     0
1070
    71
1070
     0
1002
}
  0
LINE
  5
1B79C
330
1B896
100
AcDbEntity
  8
AM_5
100
AcDbLine
 10
4426.369754158119
 20
289.5457924013334
 30
0.0
 11
4426.369754158119
 21
343.5898461239616
 31
0.0
1001
ACAD_DSTYLE_DIMINSPECT
1070
   393
1070
     0
1001
ACAD
1000
DSTYLE
1002
{
1070
   140
1040
3.0
1070
   174
1070
     1
1070
   170
1070
     0
1070
    72
1070
     0
1070
    71
1070
     0
1002
}
  0
LINE
  5
1B79D
330
1B896
100
AcDbEntity
  8
AM_5
100
AcDbLine
 10
4413.36975415812
 20
341.5898461239616
 30
0.0
 11
4426.369754158119
 21
341.5898461239616
 31
0.0
1001
ACAD_DSTYLE_DIMINSPECT
1070
   393
1070
     0
1001
ACAD
1000
DSTYLE
1002
{
1070
   140
1040
3.0
1070
   174
1070
     1
1070
   170
1070
     0
1070
    72
1070
     0
1070
    71
1070
     0
1002
}
  0
LINE
  5
1B79E
330
1B896
100
AcDbEntity
  8
AM_5
100
AcDbLine
 10
4672.296326812365
 20
240.5829611335377
 30
0.0
 11
4777.996157239075
 21
240.5829611335377
 31
0.0
1001
ACAD_DSTYLE_DIMINSPECT
1070
   393
1070
     0
1001
ACAD
1000
DSTYLE
1002
{
1070
   140
1040
3.0
1002
}
  0
LINE
  5
1B79F
330
1B896
100
AcDbEntity
  8
AM_5
100
AcDbLine
 10
4664.296326812365
 20
200.5829611335377
 30
0.0
 11
4777.996157239075
 21
200.5829611335377
 31
0.0
1001
ACAD_DSTYLE_DIMINSPECT
1070
   393
1070
     0
1001
ACAD
1000
DSTYLE
1002
{
1070
   140
1040
3.0
1002
}
  0
LINE
  5
1B7A0
330
1B896
100
AcDbEntity
  8
AM_5
100
AcDbLine
 10
4775.996157239075
 20
240.5829611335377
 30
0.0
 11
4775.996157239075
 21
200.5829611335377
 31
0.0
1001
ACAD_DSTYLE_DIMINSPECT
1070
   393
1070
     0
1001
ACAD
1000
DSTYLE
1002
{
1070
   140
1040
3.0
1002
}
  0
TEXT
  5
1B7A1
330
1B896
100
AcDbEntity
  8
AM_5
100
AcDbText
 10
4773.996157239074
 20
215.7258182763944
 30
0.0
 40
6.0
  1
40
 50
90.0
  7
SIMPLEX
100
AcDbText
1001
ACAD_DSTYLE_DIMINSPECT
1070
   393
1070
     0
1001
ACAD
1000
DSTYLE
1002
{
1070
   140
1040
3.0
1002
}
  0
CIRCLE
  5
1B7A2
330
1B896
100
AcDbEntity
  8
AM_5
100
AcDbCircle
 10
4775.996157239075
 20
200.5829611335377
 30
0.0
 40
0.5
  0
CIRCLE
  5
1B7A3
330
1B896
100
AcDbEntity
  8
AM_5
100
AcDbCircle
 10
4775.996157239075
 20
240.5829611335377
 30
0.0
 40
0.5
  0
LINE
  5
1B7A4
330
1B896
100
AcDbEntity
  8
AM_5
100
AcDbLine
 10
4398.656978152704
 20
450.9131422121265
 30
0.0
 11
4433.954572718451
 21
473.7732802397293
 31
0.0
1001
ACAD
1000
DSTYLE
1002
{
1070
    40
1040
3.0
1070
   176
1070
     4
1070
    41
1040
1.5
1070
   147
1040
1.0
1070
    77
1070
     0
1002
}
  0
LINE
  5
1B7A5
330
1B896
100
AcDbEntity
  8
AM_5
100
AcDbLine
 10
4433.954572718451
 20
473.7732802397293
 30
0.0
 11
4553.131091711676
 21
473.7732802397293
 31
0.0
1001
ACAD
1000
DSTYLE
1002
{
1070
    40
1040
3.0
1070
   176
1070
     4
1070
    41
1040
1.5
1070
   147
1040
1.0
1070
    77
1070
     0
1002
}
  0
LINE
  5
1B7A6
330
1B896
100
AcDbEntity
  8
AM_5
100
AcDbLine
 10
4398.249281795036
 20
451.5426528791883
 30
0.0
 11
4394.879914150333
 21
448.4669640661212
 31
0.0
210
0.0
220
0.0
230
-1.0
  0
LINE
  5
1B7A7
330
1B896
100
AcDbEntity
  8
AM_5
100
AcDbLine
 10
4399.064674510372
 20
450.2836315450648
 30
0.0
 11
4394.879914150333
 21
448.4669640661212
 31
0.0
210
0.0
220
0.0
230
-1.0
  0
LINE
  5
1B7A8
330
1B896
100
AcDbEntity
  8
AM_5
100
AcDbLine
 10
4394.879914150333
 20
448.4669640661212
 30
0.0
 11
4398.656978152704
 21
450.9131422121265
 31
0.0
210
0.0
220
0.0
230
-1.0
  0
LINE
  5
1B7A9
330
1B896
100
AcDbEntity
  8
AM_5
100
AcDbLine
 10
4397.381771125431
 20
419.0948982457995
 30
0.0
 11
4433.954572718451
 21
473.7732802397293
 31
0.0
1001
ACAD
1000
DSTYLE
1002
{
1070
    40
1040
3.0
1070
   176
1070
     4
1070
    41
1040
1.5
1070
   147
1040
1.0
1070
    77
1070
     0
1002
}
  0
LINE
  5
1B7AA
330
1B896
100
AcDbEntity
  8
AM_5
100
AcDbLine
 10
4433.954572718451
 20
473.7732802397293
 30
0.0
 11
4553.131091711676
 21
473.7732802397293
 31
0.0
1001
ACAD
1000
DSTYLE
1002
{
1070
    40
1040
3.0
1070
   176
1070
     4
1070
    41
1040
1.5
1070
   147
1040
1.0
1070
    77
1070
     0
1002
}
  0
LINE
  5
1B7AB
330
1B896
100
AcDbEntity
  8
AM_5
100
AcDbLine
 10
4396.758368462704
 20
419.5118744083158
 30
0.0
 11
4394.879914150333
 21
415.3544822694463
 31
0.0
210
0.0
220
0.0
230
-1.0
  0
LINE
  5
1B7AC
330
1B896
100
AcDbEntity
  8
AM_5
100
AcDbLine
 10
4398.005173788155
 20
418.6779220832835
 30
0.0
 11
4394.879914150333
 21
415.3544822694463
 31
0.0
210
0.0
220
0.0
230
-1.0
  0
LINE
  5
1B7AD
330
1B896
100
AcDbEntity
  8
AM_5
100
AcDbLine
 10
4394.879914150333
 20
415.3544822694463
 30
0.0
 11
4397.381771125431
 21
419.0948982457995
 31
0.0
210
0.0
220
0.0
230
-1.0
  0
CIRCLE
  5
1B7AF
330
1B896
100
AcDbEntity
  8
AM_5
100
AcDbCircle
 10
4426.369754158119
 20
341.5898461239616
 30
0.0
 40
0.5
  0
CIRCLE
  5
1B7B0
330
1B896
100
AcDbEntity
  8
AM_5
100
AcDbCircle
 10
4413.36975415812
 20
341.5898461239616
 30
0.0
 40
0.5
  0
TEXT
  5
1B7B1
330
1B896
100
AcDbEntity
  8
AM_5
100
AcDbText
 10
4373.369754158119
 20
330.0898461239615
 30
0.0
 40
6.0
  1
24
  7
SIMPLEX
100
AcDbText
1001
ACAD_DSTYLE_DIMINSPECT
1070
   393
1070
     0
1001
ACAD
1000
DSTYLE
1002
{
1070
   140
1040
3.0
1070
   170
1070
     0
1070
    72
1070
     0
1070
    71
1070
     0
1002
}
  0
CIRCLE
  5
1B7B2
330
1B896
100
AcDbEntity
  8
AM_5
100
AcDbCircle
 10
4390.369754158119
 20
328.0898461239615
 30
0.0
 40
0.5
  0
CIRCLE
  5
1B7B3
330
1B896
100
AcDbEntity
  8
AM_5
100
AcDbCircle
 10
4366.369754158119
 20
328.0898461239615
 30
0.0
 40
0.5
  0
TEXT
  5
1B7B4
330
1B896
100
AcDbEntity
  8
AM_5
100
AcDbText
 10
4356.657352956561
 20
164.3400113385418
 30
0.0
 40
6.0
  1
4
  7
SIMPLEX
100
AcDbText
1001
ACAD_DSTYLE_DIMINSPECT
1070
   393
1070
     0
1001
ACAD
1000
DSTYLE
1002
{
1070
   140
1040
3.0
1070
   170
1070
     0
1070
    72
1070
     0
1070
    71
1070
     0
1002
}
  0
CIRCLE
  5
1B7B5
330
1B896
100
AcDbEntity
  8
AM_5
100
AcDbCircle
 10
4370.36975415812
 20
162.3400113385418
 30
0.0
 40
0.5
  0
CIRCLE
  5
1B7B6
330
1B896
100
AcDbEntity
  8
AM_5
100
AcDbCircle
 10
4366.369754158119
 20
162.3400113385418
 30
0.0
 40
0.5
  0
TEXT
  5
1B7B7
330
1B896
100
AcDbEntity
  8
AM_5
100
AcDbText
 10
4385.512611300975
 20
164.3400113385418
 30
0.0
 40
6.0
  1
40
  7
SIMPLEX
100
AcDbText
1001
ACAD_DSTYLE_DIMINSPECT
1070
   393
1070
     0
1001
ACAD
1000
DSTYLE
1002
{
1070
   140
1040
3.0
1070
   170
1070
     0
1070
    72
1070
     0
1070
    71
1070
     0
1002
}
  0
CIRCLE
  5
1B7B8
330
1B896
100
AcDbEntity
  8
AM_5
100
AcDbCircle
 10
4410.36975415812
 20
162.3400113385418
 30
0.0
 40
0.5
  0
CIRCLE
  5
1B7B9
330
1B896
100
AcDbEntity
  8
AM_5
100
AcDbCircle
 10
4370.36975415812
 20
162.3400113385418
 30
0.0
 40
0.5
  0
TEXT
  5
1B7BA
330
1B896
100
AcDbEntity
  8
AM_5
100
AcDbText
 10
4417.935500381352
 20
164.3400113385418
 30
0.0
 40
6.0
  1
3
  7
SIMPLEX
100
AcDbText
1001
ACAD_DSTYLE_DIMINSPECT
1070
   393
1070
     0
1001
ACAD
1000
DSTYLE
1002
{
1070
   140
1040
3.0
1070
   170
1070
     0
1070
    72
1070
     0
1070
    71
1070
     0
1002
}
  0
CIRCLE
  5
1B7BB
330
1B896
100
AcDbEntity
  8
AM_5
100
AcDbCircle
 10
4413.36975415812
 20
162.3400113385418
 30
0.0
 40
0.5
  0
CIRCLE
  5
1B7BC
330
1B896
100
AcDbEntity
  8
AM_5
100
AcDbCircle
 10
4410.36975415812
 20
162.3400113385418
 30
0.0
 40
0.5
  0
TEXT
  5
1B7BD
330
1B896
100
AcDbEntity
  8
AM_5
100
AcDbText
 10
4272.369754158119
 20
293.3681499522563
 30
0.0
 40
6.0
  1
12.5(9.5)
 50
90.0
  7
SIMPLEX
100
AcDbText
1001
ACAD_DSTYLE_DIMINSPECT
1070
   393
1070
     0
1001
ACAD
1000
DSTYLE
1002
{
1070
   140
1040
3.0
1070
    76
1070
     1
1070
    75
1070
     1
1070
   174
1070
     1
1070
   170
1070
     0
1070
    72
1070
     0
1070
    71
1070
     0
1002
}
  0
CIRCLE
  5
1B7BE
330
1B896
100
AcDbEntity
  8
AM_5
100
AcDbCircle
 10
4276.369754158119
 20
288.5457924013334
 30
0.0
 40
0.5
  0
CIRCLE
  5
1B7BF
330
1B896
100
AcDbEntity
  8
AM_5
100
AcDbCircle
 10
4276.369754158119
 20
276.0457924013334
 30
0.0
 40
0.5
  0
TEXT
  5
1B7C0
330
1B896
100
AcDbEntity
  8
AM_5
100
AcDbText
 10
4274.36975415812
 20
117.9457924013332
 30
0.0
 40
6.0
  1
PB下H
 50
90.0
  7
SIMPLEX
100
AcDbText
1001
ACAD_DSTYLE_DIMINSPECT
1070
   393
1070
     0
1001
ACAD
1000
DSTYLE
1002
{
1070
   140
1040
3.0
1070
    76
1070
     1
1070
    75
1070
     1
1070
    72
1070
     0
1070
    71
1070
     0
1002
}
  0
CIRCLE
  5
1B7C1
330
1B896
100
AcDbEntity
  8
AM_5
100
AcDbCircle
 10
4276.369754158119
 20
-16.95420759866647
 30
0.0
 40
0.5
  0
CIRCLE
  5
1B7C2
330
1B896
100
AcDbEntity
  8
AM_5
100
AcDbCircle
 10
4276.369754158119
 20
276.0457924013334
 30
0.0
 40
0.5
  0
TEXT
  5
1B7C3
330
1B896
100
AcDbEntity
  8
AM_5
100
AcDbText
 10
4463.813717390676
 20
-15.23992188438115
 30
0.0
 40
6.0
  1
12
 50
90.0
  7
SIMPLEX
100
AcDbText
1001
ACAD_DSTYLE_DIMINSPECT
1070
   393
1070
     0
1001
ACAD
1000
DSTYLE
1002
{
1070
   140
1040
3.0
1070
   174
1070
     1
1002
}
  0
CIRCLE
  5
1B7C4
330
1B896
100
AcDbEntity
  8
AM_5
100
AcDbCircle
 10
4465.813717390676
 20
-4.954207598666474
 30
0.0
 40
0.5
  0
CIRCLE
  5
1B7C5
330
1B896
100
AcDbEntity
  8
AM_5
100
AcDbCircle
 10
4465.813717390676
 20
-16.95420759866647
 30
0.0
 40
0.5
  0
TEXT
  5
1B7C6
330
1B896
100
AcDbEntity
  8
AM_5
100
AcDbText
 10
4463.813717390676
 20
87.96722112821226
 30
0.0
 40
6.0
  1
ドアH（DH）＝H-15
 50
90.0
  7
SIMPLEX
100
AcDbText
1001
ACAD_DSTYLE_DIMINSPECT
1070
   393
1070
     0
1001
ACAD
1000
DSTYLE
1002
{
1070
   140
1040
3.0
1070
    72
1070
     0
1070
    71
1070
     0
1002
}
  0
CIRCLE
  5
1B7C7
330
1B896
100
AcDbEntity
  8
AM_5
100
AcDbCircle
 10
4465.813717390676
 20
260.0457927122334
 30
0.0
 40
0.5
  0
CIRCLE
  5
1B7C8
330
1B896
100
AcDbEntity
  8
AM_5
100
AcDbCircle
 10
4465.813717390676
 20
-4.954207598666471
 30
0.0
 40
0.5
  0
TEXT
  5
1B7C9
330
1B896
100
AcDbEntity
  8
AM_5
100
AcDbText
 10
4463.813717390676
 20
252.0852453695602
 30
0.0
 40
6.0
  1
3
 50
90.0
  7
SIMPLEX
100
AcDbText
1001
ACAD_DSTYLE_DIMINSPECT
1070
   393
1070
     0
1001
ACAD
1000
DSTYLE
1002
{
1070
   140
1040
3.0
1070
   174
1070
     1
1070
    40
1040
2.0
1002
}
  0
CIRCLE
  5
1B7CA
330
1B896
100
AcDbEntity
  8
AM_5
100
AcDbCircle
 10
4465.813717390676
 20
263.0457924012336
 30
0.0
 40
0.5
  0
CIRCLE
  5
1B7CB
330
1B896
100
AcDbEntity
  8
AM_5
100
AcDbCircle
 10
4465.813717390676
 20
260.0457927122334
 30
0.0
 40
0.5
  0
TEXT
  5
1B7CC
330
1B896
100
AcDbEntity
  8
AM_5
100
AcDbText
 10
4503.613238212474
 20
113.5457924013335
 30
0.0
 40
6.0
  1
WH=H+25
 50
90.0
  7
SIMPLEX
100
AcDbText
1001
ACAD_DSTYLE_DIMINSPECT
1070
   393
1070
     0
1001
ACAD
1000
DSTYLE
1002
{
1070
    72
1070
     0
1070
    71
1070
     0
1002
}
  0
CIRCLE
  5
1B7CD
330
1B896
100
AcDbEntity
  8
AM_5
100
AcDbCircle
 10
4505.613238212474
 20
288.0457924013334
 30
0.0
 40
0.5
  0
CIRCLE
  5
1B7CE
330
1B896
100
AcDbEntity
  8
AM_5
100
AcDbCircle
 10
4505.613238212474
 20
-16.95420759866647
 30
0.0
 40
0.5
  0
TEXT
  5
1B7CF
330
1B896
100
AcDbEntity
  8
AM_5
100
AcDbText
 10
4608.466810204186
 20
192.2258182763943
 30
0.0
 40
6.0
  1
25
 50
90.0
  7
SIMPLEX
100
AcDbText
1001
ACAD_DSTYLE_DIMINSPECT
1070
   393
1070
     0
1001
ACAD
1000
DSTYLE
1002
{
1070
   140
1040
3.0
1070
   174
1070
     1
1002
}
  0
CIRCLE
  5
1B7D0
330
1B896
100
AcDbEntity
  8
AM_5
100
AcDbCircle
 10
4610.466810204186
 20
209.5829611335377
 30
0.0
 40
0.5
  0
CIRCLE
  5
1B7D1
330
1B896
100
AcDbEntity
  8
AM_5
100
AcDbCircle
 10
4610.466810204186
 20
184.5829611335377
 30
0.0
 40
0.5
  0
TEXT
  5
1B7D2
330
1B896
100
AcDbEntity
  8
AM_5
100
AcDbText
 10
4608.466810204186
 20
222.2258182763944
 30
0.0
 40
6.0
  1
35
 50
90.0
  7
SIMPLEX
100
AcDbText
1001
ACAD_DSTYLE_DIMINSPECT
1070
   393
1070
     0
1001
ACAD
1000
DSTYLE
1002
{
1070
   140
1040
3.0
1070
   174
1070
     1
1070
    40
1040
2.0
1002
}
  0
CIRCLE
  5
1B7D3
330
1B896
100
AcDbEntity
  8
AM_5
100
AcDbCircle
 10
4610.466810204186
 20
244.5829611335377
 30
0.0
 40
0.5
  0
CIRCLE
  5
1B7D4
330
1B896
100
AcDbEntity
  8
AM_5
100
AcDbCircle
 10
4610.466810204186
 20
209.5829611335377
 30
0.0
 40
0.5
  0
LINE
  5
1B7D5
330
1B896
100
AcDbEntity
  8
AM_5
100
AcDbLine
 10
4621.592435041839
 20
175.7010855583017
 30
0.0
 11
4607.378891639193
 21
152.425486080733
 31
0.0
1001
ACAD
1000
DSTYLE
1002
{
1070
    40
1040
3.0
1070
   176
1070
     4
1070
    41
1040
1.5
1070
   147
1040
1.0
1070
    77
1070
     0
1002
}
  0
LINE
  5
1B7D6
330
1B896
100
AcDbEntity
  8
AM_5
100
AcDbLine
 10
4607.378891639193
 20
152.425486080733
 30
0.0
 11
4590.855664988028
 21
152.425486080733
 31
0.0
1001
ACAD
1000
DSTYLE
1002
{
1070
    40
1040
3.0
1070
   176
1070
     4
1070
    41
1040
1.5
1070
   147
1040
1.0
1070
    77
1070
     0
1002
}
  0
LINE
  5
1B7D7
330
1B896
100
AcDbEntity
  8
AM_5
100
AcDbLine
 10
4622.232524055616
 20
175.3102069909145
 30
0.0
 11
4623.937706446162
 21
179.5416196409606
 31
0.0
210
0.0
220
0.0
230
-1.0
  0
LINE
  5
1B7D8
330
1B896
100
AcDbEntity
  8
AM_5
100
AcDbLine
 10
4620.952346028061
 20
176.0919641256888
 30
0.0
 11
4623.937706446162
 21
179.5416196409606
 31
0.0
210
0.0
220
0.0
230
-1.0
  0
LINE
  5
1B7D9
330
1B896
100
AcDbEntity
  8
AM_5
100
AcDbLine
 10
4623.937706446162
 20
179.5416196409606
 30
0.0
 11
4621.592435041839
 21
175.7010855583017
 31
0.0
210
0.0
220
0.0
230
-1.0
  0
TEXT
  5
1B7DA
330
1B896
100
AcDbEntity
  8
AM_5
100
AcDbText
 10
4998.519502420453
 20
205.7228992025734
 30
0.0
 40
6.0
  1
17.5
 50
90.0
  7
SIMPLEX
100
AcDbText
1001
ACAD_DSTYLE_DIMINSPECT
1070
   393
1070
     0
1001
ACAD
1000
DSTYLE
1002
{
1070
   140
1040
3.0
1002
}
  0
CIRCLE
  5
1B7DB
330
1B896
100
AcDbEntity
  8
AM_5
100
AcDbCircle
 10
5000.519502420453
 20
244.5829611335377
 30
0.0
 40
0.5
  0
CIRCLE
  5
1B7DC
330
1B896
100
AcDbEntity
  8
AM_5
100
AcDbCircle
 10
5000.519502420453
 20
227.0829611335376
 30
0.0
 40
0.5
  0
TEXT
  5
1B7DD
330
1B896
100
AcDbEntity
  8
AM_5
100
AcDbText
 10
4753.18204109808
 20
145.3859985472251
 30
0.0
 40
6.0
  1
ドアW2（DW2）＝W-8
  7
SIMPLEX
100
AcDbText
1001
ACAD_DSTYLE_DIMINSPECT
1070
   393
1070
     0
1001
ACAD
1000
DSTYLE
1002
{
1070
   140
1040
3.0
1070
    72
1070
     0
1070
    71
1070
     0
1002
}
  0
CIRCLE
  5
1B7DE
330
1B896
100
AcDbEntity
  8
AM_5
100
AcDbCircle
 10
4923.796326812365
 20
143.3859985472251
 30
0.0
 40
0.5
  0
CIRCLE
  5
1B7DF
330
1B896
100
AcDbEntity
  8
AM_5
100
AcDbCircle
 10
4670.296326812366
 20
143.3859985472251
 30
0.0
 40
0.5
  0
TEXT
  5
1B7E0
330
1B896
100
AcDbEntity
  8
AM_5
100
AcDbText
 10
4754.324907549388
 20
126.3859985472251
 30
0.0
 40
6.0
  1
ドアW1（DW1）＝W+8
  7
SIMPLEX
100
AcDbText
1001
ACAD_DSTYLE_DIMINSPECT
1070
   393
1070
     0
1001
ACAD
1000
DSTYLE
1002
{
1070
   140
1040
3.0
1070
    72
1070
     0
1070
    71
1070
     0
1002
}
  0
CIRCLE
  5
1B7E1
330
1B896
100
AcDbEntity
  8
AM_5
100
AcDbCircle
 10
4931.796345429266
 20
124.3859985472251
 30
0.0
 40
0.5
  0
CIRCLE
  5
1B7E2
330
1B896
100
AcDbEntity
  8
AM_5
100
AcDbCircle
 10
4662.296326812366
 20
124.3859985472251
 30
0.0
 40
0.5
  0
TEXT
  5
1B7E3
330
1B896
100
AcDbEntity
  8
AM_5
100
AcDbText
 10
4934.296345429267
 20
126.3859985472251
 30
0.0
 40
6.0
  1
11
  7
SIMPLEX
100
AcDbText
1001
ACAD_DSTYLE_DIMINSPECT
1070
   393
1070
     0
1001
ACAD
1000
DSTYLE
1002
{
1070
   140
1040
3.0
1070
   174
1070
     1
1070
    72
1070
     0
1070
    71
1070
     0
1002
}
  0
CIRCLE
  5
1B7E4
330
1B896
100
AcDbEntity
  8
AM_5
100
AcDbCircle
 10
4942.796345429266
 20
124.3859985472251
 30
0.0
 40
0.5
  0
CIRCLE
  5
1B7E5
330
1B896
100
AcDbEntity
  8
AM_5
100
AcDbCircle
 10
4931.796345429266
 20
124.3859985472251
 30
0.0
 40
0.5
  0
TEXT
  5
1B7E6
330
1B896
100
AcDbEntity
  8
AM_5
100
AcDbText
 10
4959.361943867211
 20
126.3859985472251
 30
0.0
 40
6.0
  1
12.5
  7
SIMPLEX
100
AcDbText
1001
ACAD_DSTYLE_DIMINSPECT
1070
   393
1070
     0
1001
ACAD
1000
DSTYLE
1002
{
1070
   140
1040
3.0
1070
   174
1070
     1
1070
    40
1040
2.0
1002
}
  0
CIRCLE
  5
1B7E7
330
1B896
100
AcDbEntity
  8
AM_5
100
AcDbCircle
 10
4955.296345429267
 20
124.3859985472251
 30
0.0
 40
0.5
  0
CIRCLE
  5
1B7E8
330
1B896
100
AcDbEntity
  8
AM_5
100
AcDbCircle
 10
4942.796345429266
 20
124.3859985472251
 30
0.0
 40
0.5
  0
TEXT
  5
1B7E9
330
1B896
100
AcDbEntity
  8
AM_5
100
AcDbText
 10
4653.796326812366
 20
126.3859985472251
 30
0.0
 40
6.0
  1
11
  7
SIMPLEX
100
AcDbText
1001
ACAD_DSTYLE_DIMINSPECT
1070
   393
1070
     0
1001
ACAD
1000
DSTYLE
1002
{
1070
   140
1040
3.0
1070
   174
1070
     1
1070
    72
1070
     0
1070
    71
1070
     0
1002
}
  0
CIRCLE
  5
1B7EA
330
1B896
100
AcDbEntity
  8
AM_5
100
AcDbCircle
 10
4651.296326812365
 20
124.3859985472251
 30
0.0
 40
0.5
  0
CIRCLE
  5
1B7EB
330
1B896
100
AcDbEntity
  8
AM_5
100
AcDbCircle
 10
4662.296326812366
 20
124.3859985472251
 30
0.0
 40
0.5
  0
TEXT
  5
1B7EC
330
1B896
100
AcDbEntity
  8
AM_5
100
AcDbText
 10
4616.044735633674
 20
126.3859985472251
 30
0.0
 40
6.0
  1
12.5
  7
SIMPLEX
100
AcDbText
1001
ACAD_DSTYLE_DIMINSPECT
1070
   393
1070
     0
1001
ACAD
1000
DSTYLE
1002
{
1070
   140
1040
3.0
1070
   174
1070
     1
1070
    40
1040
2.0
1002
}
  0
CIRCLE
  5
1B7ED
330
1B896
100
AcDbEntity
  8
AM_5
100
AcDbCircle
 10
4638.796326812365
 20
124.3859985472251
 30
0.0
 40
0.5
  0
CIRCLE
  5
1B7EE
330
1B896
100
AcDbEntity
  8
AM_5
100
AcDbCircle
 10
4651.296326812365
 20
124.3859985472251
 30
0.0
 40
0.5
  0
TEXT
  5
1B7EF
330
1B896
100
AcDbEntity
  8
AM_5
100
AcDbText
 10
4774.474907549389
 20
88.38599854722508
 30
0.0
 40
6.0
  1
WW=W+55
  7
SIMPLEX
100
AcDbText
1001
ACAD_DSTYLE_DIMINSPECT
1070
   393
1070
     0
1001
ACAD
1000
DSTYLE
1002
{
1070
    72
1070
     0
1070
    71
1070
     0
1070
   140
1040
3.0
1002
}
  0
CIRCLE
  5
1B7F0
330
1B896
100
AcDbEntity
  8
AM_5
100
AcDbCircle
 10
4955.296345429267
 20
86.38599854722507
 30
0.0
 40
0.5
  0
CIRCLE
  5
1B7F1
330
1B896
100
AcDbEntity
  8
AM_5
100
AcDbCircle
 10
4638.796326812365
 20
86.38599854722512
 30
0.0
 40
0.5
  0
TEXT
  5
1B7F2
330
1B896
100
AcDbEntity
  8
AM_5
100
AcDbText
 10
4675.301061598578
 20
145.3859985472251
 30
0.0
 40
6.0
  1
4
  7
SIMPLEX
100
AcDbText
1001
ACAD_DSTYLE_DIMINSPECT
1070
   393
1070
     0
1001
ACAD
1000
DSTYLE
1002
{
1070
   170
1070
     0
1070
    72
1070
     0
1070
    71
1070
     0
1002
}
  0
CIRCLE
  5
1B7F3
330
1B896
100
AcDbEntity
  8
AM_5
100
AcDbCircle
 10
4666.296326812366
 20
143.3859985472251
 30
0.0
 40
0.5
  0
CIRCLE
  5
1B7F4
330
1B896
100
AcDbEntity
  8
AM_5
100
AcDbCircle
 10
4670.296326812366
 20
143.3859985472251
 30
0.0
 40
0.5
  0
TEXT
  5
1B7F5
330
1B896
100
AcDbEntity
  8
AM_5
100
AcDbText
 10
4671.767878700484
 20
133.3131098265745
 30
0.0
 40
6.0
  1
4
  7
SIMPLEX
100
AcDbText
1001
ACAD_DSTYLE_DIMINSPECT
1070
   393
1070
     0
1001
ACAD
1000
DSTYLE
1002
{
1070
   170
1070
     0
1070
    72
1070
     0
1070
    71
1070
     0
1002
}
  0
CIRCLE
  5
1B7F6
330
1B896
100
AcDbEntity
  8
AM_5
100
AcDbCircle
 10
4662.296326812366
 20
143.3859985472251
 30
0.0
 40
0.5
  0
CIRCLE
  5
1B7F7
330
1B896
100
AcDbEntity
  8
AM_5
100
AcDbCircle
 10
4666.296326812366
 20
143.3859985472251
 30
0.0
 40
0.5
  0
TEXT
  5
1B7F8
330
1B896
100
AcDbEntity
  8
AM_5
100
AcDbText
 10
4914.703345826241
 20
145.3859985472251
 30
0.0
 40
6.0
  1
4
  7
SIMPLEX
100
AcDbText
1001
ACAD_DSTYLE_DIMINSPECT
1070
   393
1070
     0
1001
ACAD
1000
DSTYLE
1002
{
1070
   140
1040
3.0
1070
   173
1070
     1
1002
}
  0
CIRCLE
  5
1B7F9
330
1B896
100
AcDbEntity
  8
AM_5
100
AcDbCircle
 10
4927.796345429267
 20
143.3859985472251
 30
0.0
 40
0.5
  0
CIRCLE
  5
1B7FA
330
1B896
100
AcDbEntity
  8
AM_5
100
AcDbCircle
 10
4923.796326812365
 20
143.3859985472251
 30
0.0
 40
0.5
  0
TEXT
  5
1B7FB
330
1B896
100
AcDbEntity
  8
AM_5
100
AcDbText
 10
4916.785164124138
 20
132.7173521381921
 30
0.0
 40
6.0
  1
4
  7
SIMPLEX
100
AcDbText
1001
ACAD_DSTYLE_DIMINSPECT
1070
   393
1070
     0
1001
ACAD
1000
DSTYLE
1002
{
1070
   140
1040
3.0
1070
   173
1070
     1
1002
}
  0
CIRCLE
  5
1B7FC
330
1B896
100
AcDbEntity
  8
AM_5
100
AcDbCircle
 10
4931.796345429266
 20
143.3859985472251
 30
0.0
 40
0.5
  0
CIRCLE
  5
1B7FD
330
1B896
100
AcDbEntity
  8
AM_5
100
AcDbCircle
 10
4927.796345429267
 20
143.3859985472251
 30
0.0
 40
0.5
  0
TEXT
  5
1B7FE
330
1B896
100
AcDbEntity
  8
AM_5
100
AcDbText
 10
4622.466810204186
 20
214.1422760893728
 30
0.0
 40
6.0
  1
3
 50
90.0
  7
SIMPLEX
100
AcDbText
1001
ACAD_DSTYLE_DIMINSPECT
1070
   393
1070
     0
1001
ACAD
1000
DSTYLE
1002
{
1070
   140
1040
3.0
1070
   173
1070
     1
1002
}
  0
CIRCLE
  5
1B7FF
330
1B896
100
AcDbEntity
  8
AM_5
100
AcDbCircle
 10
4624.466810204186
 20
206.5829611335376
 30
0.0
 40
0.5
  0
CIRCLE
  5
1B800
330
1B896
100
AcDbEntity
  8
AM_5
100
AcDbCircle
 10
4624.466810204186
 20
209.5829611335377
 30
0.0
 40
0.5
  0
TEXT
  5
1B801
330
1B896
100
AcDbEntity
  8
AM_5
100
AcDbText
 10
4622.466810204186
 20
201.7258182763943
 30
0.0
 40
6.0
  1
6
 50
90.0
  7
SIMPLEX
100
AcDbText
1001
ACAD_DSTYLE_DIMINSPECT
1070
   393
1070
     0
1001
ACAD
1000
DSTYLE
1002
{
1070
   140
1040
3.0
1070
   173
1070
     1
1002
}
  0
CIRCLE
  5
1B802
330
1B896
100
AcDbEntity
  8
AM_5
100
AcDbCircle
 10
4624.466810204186
 20
200.5829611335377
 30
0.0
 40
0.5
  0
CIRCLE
  5
1B803
330
1B896
100
AcDbEntity
  8
AM_5
100
AcDbCircle
 10
4624.466810204186
 20
206.5829611335376
 30
0.0
 40
0.5
  0
TEXT
  5
1B804
330
1B896
100
AcDbEntity
  8
AM_5
100
AcDbText
 10
4932.40348828641
 20
107.3859985472251
 30
0.0
 40
6.0
  1
27.5
  7
SIMPLEX
100
AcDbText
1001
ACAD_DSTYLE_DIMINSPECT
1070
   393
1070
     0
1001
ACAD
1000
DSTYLE
1002
{
1070
   140
1040
3.0
1070
   173
1070
     1
1070
   174
1070
     1
1070
    40
1040
2.0
1002
}
  0
CIRCLE
  5
1B805
330
1B896
100
AcDbEntity
  8
AM_5
100
AcDbCircle
 10
4955.296345429267
 20
105.3859985472251
 30
0.0
 40
0.5
  0
TEXT
  5
1B806
330
1B896
100
AcDbEntity
  8
AM_5
100
AcDbText
 10
4643.403469669509
 20
107.3859985472251
 30
0.0
 40
6.0
  1
27.5
  7
SIMPLEX
100
AcDbText
1001
ACAD_DSTYLE_DIMINSPECT
1070
   393
1070
     0
1001
ACAD
1000
DSTYLE
1002
{
1070
   140
1040
3.0
1070
   173
1070
     1
1070
   174
1070
     1
1070
    40
1040
2.0
1002
}
  0
CIRCLE
  5
1B807
330
1B896
100
AcDbEntity
  8
AM_5
100
AcDbCircle
 10
4638.796326812365
 20
105.3859985472251
 30
0.0
 40
0.5
  0
TEXT
  5
1B808
330
1B896
100
AcDbEntity
  8
AM_5
100
AcDbText
 10
4385.012611300975
 20
343.5898461239616
 30
0.0
 40
6.0
  1
47
  7
SIMPLEX
100
AcDbText
1001
ACAD_DSTYLE_DIMINSPECT
1070
   393
1070
     0
1001
ACAD
1000
DSTYLE
1002
{
1070
   140
1040
3.0
1070
   174
1070
     1
1070
    40
1040
2.0
1002
}
  0
CIRCLE
  5
1B809
330
1B896
100
AcDbEntity
  8
AM_5
100
AcDbCircle
 10
4366.369754158119
 20
341.5898461239616
 30
0.0
 40
0.5
  0
CIRCLE
  5
1B80A
330
1B896
100
AcDbEntity
  8
AM_5
100
AcDbCircle
 10
4413.36975415812
 20
341.5898461239616
 30
0.0
 40
0.5
  0
TEXT
  5
1B80B
330
1B896
100
AcDbEntity
  8
AM_5
100
AcDbText
 10
4485.607692981329
 20
270.6886495441403
 30
0.0
 40
6.0
  1
25
 50
90.0
  7
SIMPLEX
100
AcDbText
1001
ACAD_DSTYLE_DIMINSPECT
1070
   393
1070
     0
1001
ACAD
1000
DSTYLE
1002
{
1070
   140
1040
3.0
1070
   173
1070
     1
1070
   174
1070
     1
1070
    40
1040
2.0
1002
}
  0
CIRCLE
  5
1B80C
330
1B896
100
AcDbEntity
  8
AM_5
100
AcDbCircle
 10
4487.60769298133
 20
288.0457924013334
 30
0.0
 40
0.5
  0
TEXT
  5
1B80D
330
1B896
100
AcDbEntity
  8
AM_5
100
AcDbText
 10
4503.613238212474
 20
293.6369507280177
 30
0.0
 40
6.0
  1
0.5
 50
90.0
  7
SIMPLEX
100
AcDbText
1001
ACAD_DSTYLE_DIMINSPECT
1070
   393
1070
     0
1001
ACAD
1000
DSTYLE
1002
{
1070
   140
1040
3.0
1070
    76
1070
     1
1070
    75
1070
     1
1070
   174
1070
     1
1070
    40
1040
2.0
1002
}
  0
CIRCLE
  5
1B80E
330
1B896
100
AcDbEntity
  8
AM_5
100
AcDbCircle
 10
4505.613238212474
 20
288.5457924013334
 30
0.0
 40
0.5
  0
CIRCLE
  5
1B80F
330
1B896
100
AcDbEntity
  8
AM_5
100
AcDbCircle
 10
4505.613238212474
 20
288.0457924013334
 30
0.0
 40
0.5
  0
CIRCLE
  5
1BA5F
330
1B896
100
AcDbEntity
  8
AM_2
  6
DASHED1
100
AcDbCircle
 10
4916.296345429266
 20
182.5829611335377
 30
0.0
 40
3.799999999999998
  0
LINE
  5
1BA60
330
1B896
100
AcDbEntity
  8
１点斜線
100
AcDbLine
 10
4916.296345429266
 20
191.2079282216556
 30
0.0
 11
4916.296345429266
 21
175.1678289904277
 31
0.0
  0
LINE
  5
1BA61
330
1B896
100
AcDbEntity
  8
１点斜線
100
AcDbLine
 10
4910.413876732388
 20
182.5829611335377
 30
0.0
 11
4922.245318244777
 21
182.5829611335377
 31
0.0
  0
CIRCLE
  5
1BA62
330
1B896
100
AcDbEntity
  8
AM_2
  6
DASHED1
100
AcDbCircle
 10
4916.296345429266
 20
182.5829611335376
 30
0.0
 40
3.799999999999998
  0
LINE
  5
1BA63
330
1B896
100
AcDbEntity
  8
________
100
AcDbLine
 10
4916.296345429266
 20
191.2079282216556
 30
0.0
 11
4916.296345429266
 21
175.1678289904276
 31
0.0
  0
LINE
  5
1BA64
330
1B896
100
AcDbEntity
  8
________
100
AcDbLine
 10
4910.413876732388
 20
182.5829611335376
 30
0.0
 11
4922.245318244777
 21
182.5829611335376
 31
0.0
  0
CIRCLE
  5
1BB03
330
1B896
100
AcDbEntity
  8
AM_2
100
AcDbCircle
 10
4916.296344944917
 20
167.3329611335326
 30
0.0
 40
3.75
  0
LINE
  5
1BB04
330
1B896
100
AcDbEntity
  8
AM_2
100
AcDbLine
 10
4916.696345429266
 20
168.9329611335325
 30
0.0
 11
4915.896345429266
 21
168.9329611335325
 31
0.0
  0
LINE
  5
1BB05
330
1B896
100
AcDbEntity
  8
AM_2
100
AcDbLine
 10
4917.896345429266
 20
166.9329611335326
 30
0.0
 11
4917.896345429266
 21
167.7329611335326
 31
0.0
  0
LINE
  5
1BB06
330
1B896
100
AcDbEntity
  8
AM_2
100
AcDbLine
 10
4915.896345429266
 20
165.7329611335326
 30
0.0
 11
4916.696345429266
 21
165.7329611335326
 31
0.0
  0
LINE
  5
1BB07
330
1B896
100
AcDbEntity
  8
AM_2
100
AcDbLine
 10
4914.696345429266
 20
167.7329611335325
 30
0.0
 11
4914.696345429266
 21
166.9329611335325
 31
0.0
  0
LINE
  5
1BB08
330
1B896
100
AcDbEntity
  8
AM_2
100
AcDbLine
 10
4916.996345429266
 20
167.7329611335326
 30
0.0
 11
4917.896345429266
 21
167.7329611335326
 31
0.0
  0
LINE
  5
1BB09
330
1B896
100
AcDbEntity
  8
AM_2
100
AcDbLine
 10
4916.696345429266
 20
168.0329611335325
 30
0.0
 11
4916.696345429266
 21
168.9329611335325
 31
0.0
  0
ARC
  5
1BB0A
330
1B896
100
AcDbEntity
  8
AM_2
100
AcDbCircle
 10
4916.996345429266
 20
168.0329611335325
 30
0.0
 40
0.3
100
AcDbArc
 50
180.0
 51
270.0
  0
LINE
  5
1BB0B
330
1B896
100
AcDbEntity
  8
AM_2
100
AcDbLine
 10
4915.896345429266
 20
168.0329611335325
 30
0.0
 11
4915.896345429266
 21
168.9329611335325
 31
0.0
  0
LINE
  5
1BB0C
330
1B896
100
AcDbEntity
  8
AM_2
100
AcDbLine
 10
4915.596345429266
 20
167.7329611335326
 30
0.0
 11
4914.696345429266
 21
167.7329611335326
 31
0.0
  0
ARC
  5
1BB0D
330
1B896
100
AcDbEntity
  8
AM_2
100
AcDbCircle
 10
4915.596345429266
 20
168.0329611335325
 30
0.0
 40
0.3
100
AcDbArc
 50
270.0
 51
0.0
  0
LINE
  5
1BB0E
330
1B896
100
AcDbEntity
  8
AM_2
100
AcDbLine
 10
4915.896345429266
 20
166.6329611335326
 30
0.0
 11
4915.896345429266
 21
165.7329611335326
 31
0.0
  0
LINE
  5
1BB0F
330
1B896
100
AcDbEntity
  8
AM_2
100
AcDbLine
 10
4915.596345429266
 20
166.9329611335325
 30
0.0
 11
4914.696345429266
 21
166.9329611335325
 31
0.0
  0
ARC
  5
1BB10
330
1B896
100
AcDbEntity
  8
AM_2
100
AcDbCircle
 10
4915.596345429266
 20
166.6329611335326
 30
0.0
 40
0.3
100
AcDbArc
 50
0.0
 51
90.0
  0
LINE
  5
1BB11
330
1B896
100
AcDbEntity
  8
AM_2
100
AcDbLine
 10
4916.996345429266
 20
166.9329611335325
 30
0.0
 11
4917.896345429266
 21
166.9329611335325
 31
0.0
  0
LINE
  5
1BB12
330
1B896
100
AcDbEntity
  8
AM_2
100
AcDbLine
 10
4916.696345429266
 20
166.6329611335326
 30
0.0
 11
4916.696345429266
 21
165.7329611335326
 31
0.0
  0
ARC
  5
1BB13
330
1B896
100
AcDbEntity
  8
AM_2
100
AcDbCircle
 10
4916.996345429266
 20
166.6329611335326
 30
0.0
 40
0.3
100
AcDbArc
 50
90.0
 51
180.0
  0
LINE
  5
1BB14
330
1B896
100
AcDbEntity
  8
AM_2
100
AcDbLine
 10
4907.696344944916
 20
177.1829611335326
 30
0.0
 11
4906.896344944916
 21
177.1829611335326
 31
0.0
  0
LINE
  5
1BB15
330
1B896
100
AcDbEntity
  8
AM_2
100
AcDbLine
 10
4908.896344944917
 20
175.1829611335326
 30
0.0
 11
4908.896344944917
 21
175.9829611335326
 31
0.0
  0
LINE
  5
1BB16
330
1B896
100
AcDbEntity
  8
AM_2
100
AcDbLine
 10
4906.896344944916
 20
173.9829611335326
 30
0.0
 11
4907.696344944916
 21
173.9829611335326
 31
0.0
  0
LINE
  5
1BB17
330
1B896
100
AcDbEntity
  8
AM_2
100
AcDbLine
 10
4905.696344944916
 20
175.9829611335326
 30
0.0
 11
4905.696344944916
 21
175.1829611335326
 31
0.0
  0
LINE
  5
1BB18
330
1B896
100
AcDbEntity
  8
AM_2
100
AcDbLine
 10
4907.996344944915
 20
175.9829611335326
 30
0.0
 11
4908.896344944917
 21
175.9829611335326
 31
0.0
  0
LINE
  5
1BB19
330
1B896
100
AcDbEntity
  8
AM_2
100
AcDbLine
 10
4907.696344944916
 20
176.2829611335326
 30
0.0
 11
4907.696344944916
 21
177.1829611335326
 31
0.0
  0
ARC
  5
1BB1A
330
1B896
100
AcDbEntity
  8
AM_2
100
AcDbCircle
 10
4907.996344944915
 20
176.2829611335326
 30
0.0
 40
0.3
100
AcDbArc
 50
180.0
 51
270.0
  0
LINE
  5
1BB1B
330
1B896
100
AcDbEntity
  8
AM_2
100
AcDbLine
 10
4906.896344944916
 20
176.2829611335326
 30
0.0
 11
4906.896344944916
 21
177.1829611335326
 31
0.0
  0
LINE
  5
1BB1C
330
1B896
100
AcDbEntity
  8
AM_2
100
AcDbLine
 10
4906.596344944916
 20
175.9829611335326
 30
0.0
 11
4905.696344944916
 21
175.9829611335326
 31
0.0
  0
ARC
  5
1BB1D
330
1B896
100
AcDbEntity
  8
AM_2
100
AcDbCircle
 10
4906.596344944916
 20
176.2829611335326
 30
0.0
 40
0.3
100
AcDbArc
 50
270.0
 51
0.0
  0
LINE
  5
1BB1E
330
1B896
100
AcDbEntity
  8
AM_2
100
AcDbLine
 10
4906.896344944916
 20
174.8829611335326
 30
0.0
 11
4906.896344944916
 21
173.9829611335326
 31
0.0
  0
LINE
  5
1BB1F
330
1B896
100
AcDbEntity
  8
AM_2
100
AcDbLine
 10
4906.596344944916
 20
175.1829611335326
 30
0.0
 11
4905.696344944916
 21
175.1829611335326
 31
0.0
  0
ARC
  5
1BB20
330
1B896
100
AcDbEntity
  8
AM_2
100
AcDbCircle
 10
4906.596344944916
 20
174.8829611335326
 30
0.0
 40
0.3
100
AcDbArc
 50
0.0
 51
90.0
  0
LINE
  5
1BB21
330
1B896
100
AcDbEntity
  8
AM_2
100
AcDbLine
 10
4907.996344944915
 20
175.1829611335326
 30
0.0
 11
4908.896344944917
 21
175.1829611335326
 31
0.0
  0
LINE
  5
1BB22
330
1B896
100
AcDbEntity
  8
AM_2
100
AcDbLine
 10
4907.696344944916
 20
174.8829611335326
 30
0.0
 11
4907.696344944916
 21
173.9829611335326
 31
0.0
  0
ARC
  5
1BB23
330
1B896
100
AcDbEntity
  8
AM_2
100
AcDbCircle
 10
4907.996344944915
 20
174.8829611335326
 30
0.0
 40
0.3
100
AcDbArc
 50
90.0
 51
180.0
  0
LINE
  5
1BB24
330
1B896
100
AcDbEntity
  8
AM_2
100
AcDbLine
 10
4926.896344944917
 20
175.1829611335326
 30
0.0
 11
4926.896344944917
 21
175.9829611335326
 31
0.0
  0
LINE
  5
1BB25
330
1B896
100
AcDbEntity
  8
AM_2
100
AcDbLine
 10
4924.896344944916
 20
173.9829611335326
 30
0.0
 11
4925.696344944916
 21
173.9829611335326
 31
0.0
  0
LINE
  5
1BB26
330
1B896
100
AcDbEntity
  8
AM_2
100
AcDbLine
 10
4925.996344944916
 20
175.9829611335326
 30
0.0
 11
4926.896344944917
 21
175.9829611335326
 31
0.0
  0
ARC
  5
1BB27
330
1B896
100
AcDbEntity
  8
AM_2
100
AcDbCircle
 10
4925.996344944916
 20
176.2829611335326
 30
0.0
 40
0.3
100
AcDbArc
 50
180.0
 51
270.0
  0
LINE
  5
1BB28
330
1B896
100
AcDbEntity
  8
AM_2
100
AcDbLine
 10
4924.896344944916
 20
174.8829611335326
 30
0.0
 11
4924.896344944916
 21
173.9829611335326
 31
0.0
  0
ARC
  5
1BB29
330
1B896
100
AcDbEntity
  8
AM_2
100
AcDbCircle
 10
4924.596344944916
 20
174.8829611335326
 30
0.0
 40
0.3
100
AcDbArc
 50
0.0
 51
90.0
  0
LINE
  5
1BB2A
330
1B896
100
AcDbEntity
  8
AM_2
100
AcDbLine
 10
4925.996344944916
 20
175.1829611335326
 30
0.0
 11
4926.896344944917
 21
175.1829611335326
 31
0.0
  0
LINE
  5
1BB2B
330
1B896
100
AcDbEntity
  8
AM_2
100
AcDbLine
 10
4925.696344944916
 20
174.8829611335326
 30
0.0
 11
4925.696344944916
 21
173.9829611335326
 31
0.0
  0
ARC
  5
1BB2C
330
1B896
100
AcDbEntity
  8
AM_2
100
AcDbCircle
 10
4925.996344944916
 20
174.8829611335326
 30
0.0
 40
0.3
100
AcDbArc
 50
90.0
 51
180.0
  0
ARC
  5
1BB2D
330
1B896
100
AcDbEntity
  8
AM_2
100
AcDbCircle
 10
4916.296344944917
 20
176.7822364959325
 30
0.0
 40
18.7
100
AcDbArc
 50
137.0278363282899
 51
54.2727480120164
  0
ARC
  5
1BB2E
330
1B896
100
AcDbEntity
  8
AM_2
100
AcDbCircle
 10
4916.296344944917
 20
176.7822364959325
 30
0.0
 40
17.7
100
AcDbArc
 50
138.2978581556842
 51
50.84529794728204
  0
ARC
  5
1BB2F
330
1B896
100
AcDbEntity
  8
AM_2
100
AcDbCircle
 10
4907.296344944916
 20
175.5829611335326
 30
0.0
 40
3.75
100
AcDbArc
 50
86.54530732576775
 51
333.0557031625947
  0
ARC
  5
1BB30
330
1B896
100
AcDbEntity
  8
AM_2
100
AcDbCircle
 10
4925.296344944916
 20
175.5829611335326
 30
0.0
 40
3.75
100
AcDbArc
 50
214.0090665530378
 51
58.47683335363637
  0
LINE
  5
1BB31
330
1B896
100
AcDbEntity
  8
AM_2
100
AcDbLine
 10
4924.596344944916
 20
175.1829611335326
 30
0.0
 11
4924.195856787518
 21
175.1829611335326
 31
0.0
  0
LINE
  5
1BB32
330
1B896
100
AcDbEntity
  8
AM_2
100
AcDbLine
 10
4925.696344944916
 20
176.2829611335326
 30
0.0
 11
4925.696344944916
 21
176.6834492909325
 31
0.0
  0
LINE
  5
1BC49
330
1B896
100
AcDbEntity
  8
OS
 62
     2
100
AcDbLine
 10
4426.369754158119
 20
288.5457924013334
 30
0.0
 11
4426.369754158119
 21
339.5404216926153
 31
0.0
  0
TEXT
  5
1BD85
330
1B896
100
AcDbEntity
  8
AM_5
100
AcDbText
 10
4415.012611300975
 20
343.5898461239616
 30
0.0
 40
6.0
  1
13
  7
SIMPLEX
100
AcDbText
1001
ACAD_DSTYLE_DIMINSPECT
1070
   393
1070
     0
1001
ACAD
1000
DSTYLE
1002
{
1070
   140
1040
3.0
1070
   174
1070
     1
1070
    40
1040
2.0
1002
}
  0
LINE
  5
1C10C
330
1B896
100
AcDbEntity
  8
OS
100
AcDbLine
 10
4401.36975415812
 20
263.0457924013335
 30
0.0
 11
4401.369754158119
 21
260.0457927122334
 31
0.0
  0
LINE
  5
1C10D
330
1B896
100
AcDbEntity
  8
OS
100
AcDbLine
 10
4401.36975415812
 20
437.8445073306233
 30
0.0
 11
4401.369754158119
 21
434.8445076415233
 31
0.0
  0
LINE
  5
1C151
330
1B896
100
AcDbEntity
  8
AM_0
100
AcDbLine
 10
4666.296326812366
 20
242.5829611335377
 30
0.0
 11
4666.296326812366
 21
233.4829611335377
 31
0.0
  0
LINE
  5
1C152
330
1B896
100
AcDbEntity
  8
AM_0
100
AcDbLine
 10
4664.296326812365
 20
244.5829611335377
 30
0.0
 11
4666.296326812366
 21
242.5829611335377
 31
0.0
  0
LINE
  5
1C156
330
1B896
100
AcDbEntity
  8
AM_0
100
AcDbLine
 10
4664.296326812365
 20
209.5829611335377
 30
0.0
 11
4666.296326812366
 21
211.5829611335377
 31
0.0
  0
LINE
  5
1C157
330
1B896
100
AcDbEntity
  8
AM_2
100
AcDbLine
 10
4659.796326812365
 20
226.9829611335377
 30
0.0
 11
4659.796326812365
 21
227.1829611335376
 31
0.0
  0
LINE
  5
1C158
330
1B896
100
AcDbEntity
  8
AM_2
100
AcDbLine
 10
4666.296326812366
 20
232.5829611335377
 30
0.0
 11
4666.296326812366
 21
221.5829611335377
 31
0.0
  0
LINE
  5
1C159
330
1B896
100
AcDbEntity
  8
AM_2
100
AcDbLine
 10
4664.996326812365
 20
226.5829611335377
 30
0.0
 11
4660.802711679638
 21
226.5829611335377
 31
0.0
  0
LINE
  5
1C15A
330
1B896
100
AcDbEntity
  8
AM_2
100
AcDbLine
 10
4664.996326812365
 20
226.5829611335377
 30
0.0
 11
4664.796326812366
 21
221.0829611335376
 31
0.0
  0
LINE
  5
1C15B
330
1B896
100
AcDbEntity
  8
AM_2
100
AcDbLine
 10
4659.796326812365
 20
226.9829611335377
 30
0.0
 11
4661.13554720865
 21
225.4329611335376
 31
0.0
  0
LINE
  5
1C15C
330
1B896
100
AcDbEntity
  8
AM_2
100
AcDbLine
 10
4660.802711679638
 20
226.5829611335377
 30
0.0
 11
4661.796326812366
 21
225.4329611335376
 31
0.0
  0
LINE
  5
1C15D
330
1B896
100
AcDbEntity
  8
AM_2
100
AcDbLine
 10
4661.796326812366
 20
225.4329611335376
 30
0.0
 11
4661.13554720865
 21
225.4329611335376
 31
0.0
  0
LINE
  5
1C15E
330
1B896
100
AcDbEntity
  8
AM_2
100
AcDbLine
 10
4665.796326812365
 20
221.0829611335376
 30
0.0
 11
4664.796326812366
 21
221.0829611335376
 31
0.0
  0
ARC
  5
1C15F
330
1B896
100
AcDbEntity
  8
AM_2
100
AcDbCircle
 10
4665.796326812365
 20
221.5829611335377
 30
0.0
 40
0.5
100
AcDbArc
 50
270.0
 51
0.0
  0
LINE
  5
1C160
330
1B896
100
AcDbEntity
  8
AM_2
100
AcDbLine
 10
4664.996326812365
 20
227.5829611335377
 30
0.0
 11
4660.802711679638
 21
227.5829611335377
 31
0.0
  0
LINE
  5
1C161
330
1B896
100
AcDbEntity
  8
AM_2
100
AcDbLine
 10
4664.996326812365
 20
227.5829611335377
 30
0.0
 11
4664.796326812366
 21
233.0829611335377
 31
0.0
  0
LINE
  5
1C162
330
1B896
100
AcDbEntity
  8
AM_2
100
AcDbLine
 10
4659.796326812365
 20
227.1829611335376
 30
0.0
 11
4661.13554720865
 21
228.7329611335377
 31
0.0
  0
LINE
  5
1C163
330
1B896
100
AcDbEntity
  8
AM_2
100
AcDbLine
 10
4660.802711679638
 20
227.5829611335377
 30
0.0
 11
4661.796326812366
 21
228.7329611335377
 31
0.0
  0
LINE
  5
1C164
330
1B896
100
AcDbEntity
  8
AM_2
100
AcDbLine
 10
4661.796326812366
 20
228.7329611335377
 30
0.0
 11
4661.13554720865
 21
228.7329611335377
 31
0.0
  0
LINE
  5
1C165
330
1B896
100
AcDbEntity
  8
AM_2
100
AcDbLine
 10
4665.796326812365
 20
233.0829611335377
 30
0.0
 11
4664.796326812366
 21
233.0829611335377
 31
0.0
  0
ARC
  5
1C166
330
1B896
100
AcDbEntity
  8
AM_2
100
AcDbCircle
 10
4665.796326812365
 20
232.5829611335377
 30
0.0
 40
0.5
100
AcDbArc
 50
0.0
 51
90.00000000000003
  0
LINE
  5
1C167
330
1B896
100
AcDbEntity
  8
AM_0
100
AcDbLine
 10
4664.796326812366
 20
228.5829611335377
 30
0.0
 11
4659.296326812365
 21
228.5829611335377
 31
0.0
  0
LINE
  5
1C168
330
1B896
100
AcDbEntity
  8
AM_0
100
AcDbLine
 10
4659.296326812365
 20
228.5829611335377
 30
0.0
 11
4659.296326812365
 21
225.5829611335377
 31
0.0
  0
LINE
  5
1C169
330
1B896
100
AcDbEntity
  8
AM_0
100
AcDbLine
 10
4666.296326812366
 20
220.6829611335377
 30
0.0
 11
4664.796326812366
 21
220.6829611335377
 31
0.0
  0
LINE
  5
1C16A
330
1B896
100
AcDbEntity
  8
AM_0
100
AcDbLine
 10
4664.796326812366
 20
225.5829611335377
 30
0.0
 11
4659.296326812365
 21
225.5829611335377
 31
0.0
  0
LINE
  5
1C16B
330
1B896
100
AcDbEntity
  8
AM_0
100
AcDbLine
 10
4664.796326812366
 20
225.5829611335377
 30
0.0
 11
4664.796326812366
 21
220.6829611335377
 31
0.0
  0
LINE
  5
1C16C
330
1B896
100
AcDbEntity
  8
AM_0
100
AcDbLine
 10
4666.296326812366
 20
233.4829611335377
 30
0.0
 11
4664.796326812366
 21
233.4829611335377
 31
0.0
  0
LINE
  5
1C16D
330
1B896
100
AcDbEntity
  8
AM_0
100
AcDbLine
 10
4664.796326812366
 20
228.5829611335377
 30
0.0
 11
4664.796326812366
 21
233.4829611335377
 31
0.0
  0
LINE
  5
1C16E
330
1B896
100
AcDbEntity
  8
AM_0
100
AcDbLine
 10
4666.296326812366
 20
220.6829611335377
 30
0.0
 11
4666.296326812366
 21
211.5829611335377
 31
0.0
  0
LINE
  5
1C16F
330
1B896
100
AcDbEntity
  8
CONT_S_2
100
AcDbLine
 10
4666.296326812366
 20
234.0137538713905
 30
0.0
 11
4665.765534074512
 21
233.4829611335377
 31
0.0
1001
GENIUS_GENOBJ-N-HTC_13
1002
{
1000
OWNER
1000
GEN
1002
}
1001
GENIUS_GENODEF_13
1002
{
1000
HIER
1070
     0
1002
}
1002
{
1000
MANEDIT
1070
     0
1002
}
1002
{
1000
NOSEL
1070
     0
1002
}
1002
{
1000
BEHIND
1070
     0
1002
}
1002
{
1000
OTHER
1070
     0
1002
}
1002
{
1000
REACTOR
1002
}
1001
GENIUS_GENHATCH_13
1002
{
1000
DATA
1040
45.0
1042
5.0
1000
_U
1070
     0
1011
4654.473864098496
1021
236.3417322080743
1031
0.0
1002
}
1002
{
1000
UCS
1010
0.0
1020
0.0
1030
0.0
1010
1.0
1020
0.0
1030
0.0
1010
0.0
1020
1.0
1030
0.0
1002
}
1001
HATCHBACKGROUNDCOLOR
1071
-939524096
1000

1000

  0
LINE
  5
1C170
330
1B896
100
AcDbEntity
  8
CONT_S_2
100
AcDbLine
 10
4664.796326812366
 20
232.5137538713905
 30
0.0
 11
4660.865534074512
 21
228.5829611335377
 31
0.0
1001
GENIUS_GENOBJ-N-HTC_13
1002
{
1000
OWNER
1000
GEN
1002
}
1001
GENIUS_GENODEF_13
1002
{
1000
HIER
1070
     0
1002
}
1002
{
1000
MANEDIT
1070
     0
1002
}
1002
{
1000
NOSEL
1070
     0
1002
}
1002
{
1000
BEHIND
1070
     0
1002
}
1002
{
1000
OTHER
1070
     0
1002
}
1002
{
1000
REACTOR
1002
}
1001
GENIUS_GENHATCH_13
1002
{
1000
DATA
1040
45.0
1042
5.0
1000
_U
1070
     0
1011
4654.473864098496
1021
236.3417322080743
1031
0.0
1002
}
1002
{
1000
UCS
1010
0.0
1020
0.0
1030
0.0
1010
1.0
1020
0.0
1030
0.0
1010
0.0
1020
1.0
1030
0.0
1002
}
1001
HATCHBACKGROUNDCOLOR
1071
-939524096
1000

1000

  0
LINE
  5
1C171
330
1B896
100
AcDbEntity
  8
CONT_S_2
100
AcDbLine
 10
4666.296326812366
 20
242.4990352456292
 30
0.0
 11
4650.880252700274
 21
227.0829611335376
 31
0.0
1001
GENIUS_GENOBJ-N-HTC_13
1002
{
1000
OWNER
1000
GEN
1002
}
1001
GENIUS_GENODEF_13
1002
{
1000
HIER
1070
     0
1002
}
1002
{
1000
MANEDIT
1070
     0
1002
}
1002
{
1000
NOSEL
1070
     0
1002
}
1002
{
1000
BEHIND
1070
     0
1002
}
1002
{
1000
OTHER
1070
     0
1002
}
1002
{
1000
REACTOR
1002
}
1001
GENIUS_GENHATCH_13
1002
{
1000
DATA
1040
45.0
1042
5.0
1000
_U
1070
     0
1011
4654.473864098496
1021
236.3417322080743
1031
0.0
1002
}
1002
{
1000
UCS
1010
0.0
1020
0.0
1030
0.0
1010
1.0
1020
0.0
1030
0.0
1010
0.0
1020
1.0
1030
0.0
1002
}
1001
HATCHBACKGROUNDCOLOR
1071
-939524096
1000

1000

  0
LINE
  5
1C172
330
1B896
100
AcDbEntity
  8
CONT_S_2
100
AcDbLine
 10
4659.894971326035
 20
244.5829611335377
 30
0.0
 11
4642.394971326035
 21
227.0829611335376
 31
0.0
1001
GENIUS_GENOBJ-N-HTC_13
1002
{
1000
OWNER
1000
GEN
1002
}
1001
GENIUS_GENODEF_13
1002
{
1000
HIER
1070
     0
1002
}
1002
{
1000
MANEDIT
1070
     0
1002
}
1002
{
1000
NOSEL
1070
     0
1002
}
1002
{
1000
BEHIND
1070
     0
1002
}
1002
{
1000
OTHER
1070
     0
1002
}
1002
{
1000
REACTOR
1002
}
1001
GENIUS_GENHATCH_13
1002
{
1000
DATA
1040
45.0
1042
5.0
1000
_U
1070
     0
1011
4654.473864098496
1021
236.3417322080743
1031
0.0
1002
}
1002
{
1000
UCS
1010
0.0
1020
0.0
1030
0.0
1010
1.0
1020
0.0
1030
0.0
1010
0.0
1020
1.0
1030
0.0
1002
}
1001
HATCHBACKGROUNDCOLOR
1071
-939524096
1000

1000

  0
LINE
  5
1C173
330
1B896
100
AcDbEntity
  8
CONT_S_2
100
AcDbLine
 10
4651.409689951797
 20
244.5829611335377
 30
0.0
 11
4638.796326812365
 21
231.9695979941063
 31
0.0
1001
GENIUS_GENOBJ-N-HTC_13
1002
{
1000
OWNER
1000
GEN
1002
}
1001
GENIUS_GENODEF_13
1002
{
1000
HIER
1070
     0
1002
}
1002
{
1000
MANEDIT
1070
     0
1002
}
1002
{
1000
NOSEL
1070
     0
1002
}
1002
{
1000
BEHIND
1070
     0
1002
}
1002
{
1000
OTHER
1070
     0
1002
}
1002
{
1000
REACTOR
1002
}
1001
GENIUS_GENHATCH_13
1002
{
1000
DATA
1040
45.0
1042
5.0
1000
_U
1070
     0
1011
4654.473864098496
1021
236.3417322080743
1031
0.0
1002
}
1002
{
1000
UCS
1010
0.0
1020
0.0
1030
0.0
1010
1.0
1020
0.0
1030
0.0
1010
0.0
1020
1.0
1030
0.0
1002
}
1001
HATCHBACKGROUNDCOLOR
1071
-939524096
1000

1000

  0
LINE
  5
1C174
330
1B896
100
AcDbEntity
  8
CONT_S_2
100
AcDbLine
 10
4642.92440857756
 20
244.5829611335377
 30
0.0
 11
4638.796326812365
 21
240.4548793683449
 31
0.0
1001
GENIUS_GENOBJ-N-HTC_13
1002
{
1000
OWNER
1000
GEN
1002
}
1001
GENIUS_GENODEF_13
1002
{
1000
HIER
1070
     0
1002
}
1002
{
1000
MANEDIT
1070
     0
1002
}
1002
{
1000
NOSEL
1070
     0
1002
}
1002
{
1000
BEHIND
1070
     0
1002
}
1002
{
1000
OTHER
1070
     0
1002
}
1002
{
1000
REACTOR
1002
}
1001
GENIUS_GENHATCH_13
1002
{
1000
DATA
1040
45.0
1042
5.0
1000
_U
1070
     0
1011
4654.473864098496
1021
236.3417322080743
1031
0.0
1002
}
1002
{
1000
UCS
1010
0.0
1020
0.0
1030
0.0
1010
1.0
1020
0.0
1030
0.0
1010
0.0
1020
1.0
1030
0.0
1002
}
1001
HATCHBACKGROUNDCOLOR
1071
-939524096
1000

1000

  0
LINE
  5
1C175
330
1B896
100
AcDbEntity
  8
CONT_S_2
100
AcDbLine
 10
4666.296326812366
 20
217.0431911229136
 30
0.0
 11
4658.83609682299
 21
209.5829611335377
 31
0.0
1001
GENIUS_GENOBJ-N-HTC_13
1002
{
1000
OWNER
1000
GEN
1002
}
1001
GENIUS_GENODEF_13
1002
{
1000
HIER
1070
     0
1002
}
1002
{
1000
MANEDIT
1070
     0
1002
}
1002
{
1000
NOSEL
1070
     0
1002
}
1002
{
1000
BEHIND
1070
     0
1002
}
1002
{
1000
OTHER
1070
     0
1002
}
1002
{
1000
REACTOR
1002
}
1001
GENIUS_GENHATCH_13
1002
{
1000
DATA
1040
45.0
1042
5.0
1000
_U
1070
     0
1011
4647.120096409619
1021
223.7352733128577
1031
0.0
1002
}
1002
{
1000
UCS
1010
0.0
1020
0.0
1030
0.0
1010
1.0
1020
0.0
1030
0.0
1010
0.0
1020
1.0
1030
0.0
1002
}
1001
HATCHBACKGROUNDCOLOR
1071
-939524096
1000

1000

  0
LINE
  5
1C176
330
1B896
100
AcDbEntity
  8
CONT_S_2
100
AcDbLine
 10
4664.796326812366
 20
224.028472497152
 30
0.0
 11
4650.350815448752
 21
209.5829611335377
 31
0.0
1001
GENIUS_GENOBJ-N-HTC_13
1002
{
1000
OWNER
1000
GEN
1002
}
1001
GENIUS_GENODEF_13
1002
{
1000
HIER
1070
     0
1002
}
1002
{
1000
MANEDIT
1070
     0
1002
}
1002
{
1000
NOSEL
1070
     0
1002
}
1002
{
1000
BEHIND
1070
     0
1002
}
1002
{
1000
OTHER
1070
     0
1002
}
1002
{
1000
REACTOR
1002
}
1001
GENIUS_GENHATCH_13
1002
{
1000
DATA
1040
45.0
1042
5.0
1000
_U
1070
     0
1011
4647.120096409619
1021
223.7352733128577
1031
0.0
1002
}
1002
{
1000
UCS
1010
0.0
1020
0.0
1030
0.0
1010
1.0
1020
0.0
1030
0.0
1010
0.0
1020
1.0
1030
0.0
1002
}
1001
HATCHBACKGROUNDCOLOR
1071
-939524096
1000

1000

  0
LINE
  5
1C177
330
1B896
100
AcDbEntity
  8
CONT_S_2
100
AcDbLine
 10
4659.296326812365
 20
227.0137538713906
 30
0.0
 11
4641.865534074512
 21
209.5829611335377
 31
0.0
1001
GENIUS_GENOBJ-N-HTC_13
1002
{
1000
OWNER
1000
GEN
1002
}
1001
GENIUS_GENODEF_13
1002
{
1000
HIER
1070
     0
1002
}
1002
{
1000
MANEDIT
1070
     0
1002
}
1002
{
1000
NOSEL
1070
     0
1002
}
1002
{
1000
BEHIND
1070
     0
1002
}
1002
{
1000
OTHER
1070
     0
1002
}
1002
{
1000
REACTOR
1002
}
1001
GENIUS_GENHATCH_13
1002
{
1000
DATA
1040
45.0
1042
5.0
1000
_U
1070
     0
1011
4647.120096409619
1021
223.7352733128577
1031
0.0
1002
}
1002
{
1000
UCS
1010
0.0
1020
0.0
1030
0.0
1010
1.0
1020
0.0
1030
0.0
1010
0.0
1020
1.0
1030
0.0
1002
}
1001
HATCHBACKGROUNDCOLOR
1071
-939524096
1000

1000

  0
LINE
  5
1C178
330
1B896
100
AcDbEntity
  8
CONT_S_2
100
AcDbLine
 10
4650.880252700274
 20
227.0829611335376
 30
0.0
 11
4638.796326812365
 21
214.9990352456293
 31
0.0
1001
GENIUS_GENOBJ-N-HTC_13
1002
{
1000
OWNER
1000
GEN
1002
}
1001
GENIUS_GENODEF_13
1002
{
1000
HIER
1070
     0
1002
}
1002
{
1000
MANEDIT
1070
     0
1002
}
1002
{
1000
NOSEL
1070
     0
1002
}
1002
{
1000
BEHIND
1070
     0
1002
}
1002
{
1000
OTHER
1070
     0
1002
}
1002
{
1000
REACTOR
1002
}
1001
GENIUS_GENHATCH_13
1002
{
1000
DATA
1040
45.0
1042
5.0
1000
_U
1070
     0
1011
4647.120096409619
1021
223.7352733128577
1031
0.0
1002
}
1002
{
1000
UCS
1010
0.0
1020
0.0
1030
0.0
1010
1.0
1020
0.0
1030
0.0
1010
0.0
1020
1.0
1030
0.0
1002
}
1001
HATCHBACKGROUNDCOLOR
1071
-939524096
1000

1000

  0
LINE
  5
1C179
330
1B896
100
AcDbEntity
  8
CONT_S_2
100
AcDbLine
 10
4642.394971326035
 20
227.0829611335376
 30
0.0
 11
4638.796326812365
 21
223.4843166198678
 31
0.0
1001
GENIUS_GENOBJ-N-HTC_13
1002
{
1000
OWNER
1000
GEN
1002
}
1001
GENIUS_GENODEF_13
1002
{
1000
HIER
1070
     0
1002
}
1002
{
1000
MANEDIT
1070
     0
1002
}
1002
{
1000
NOSEL
1070
     0
1002
}
1002
{
1000
BEHIND
1070
     0
1002
}
1002
{
1000
OTHER
1070
     0
1002
}
1002
{
1000
REACTOR
1002
}
1001
GENIUS_GENHATCH_13
1002
{
1000
DATA
1040
45.0
1042
5.0
1000
_U
1070
     0
1011
4647.120096409619
1021
223.7352733128577
1031
0.0
1002
}
1002
{
1000
UCS
1010
0.0
1020
0.0
1030
0.0
1010
1.0
1020
0.0
1030
0.0
1010
0.0
1020
1.0
1030
0.0
1002
}
1001
HATCHBACKGROUNDCOLOR
1071
-939524096
1000

1000

  0
TEXT
  5
1C380
330
1B896
100
AcDbEntity
  8
AM_5
100
AcDbText
 10
4837.71359297361
 20
183.5093177111937
 30
0.0
 40
6.0
  1
ピボットヒンジ
 41
0.9
100
AcDbText
  0
LINE
  5
1C381
330
1B896
100
AcDbEntity
  8
AM_5
100
AcDbLine
 10
4897.321016067015
 20
190.3355377349475
 30
0.0
 11
4884.097293270565
 21
181.9093177111935
 31
0.0
1001
ACAD
1000
DSTYLE
1002
{
1070
    40
1040
3.0
1070
   176
1070
     4
1070
    41
1040
1.5
1070
   147
1040
1.0
1070
    77
1070
     0
1002
}
  0
LINE
  5
1C382
330
1B896
100
AcDbEntity
  8
AM_5
100
AcDbLine
 10
4835.713592973609
 20
181.9093177111935
 30
0.0
 11
4884.097293270565
 21
181.9093177111935
 31
0.0
1001
ACAD
1000
DSTYLE
1002
{
1070
    40
1040
3.0
1070
   176
1070
     4
1070
    41
1040
1.5
1070
   147
1040
1.0
1070
    77
1070
     0
1002
}
  0
LINE
  5
1C383
330
1B896
100
AcDbEntity
  8
AM_5
100
AcDbLine
 10
4897.728712424683
 20
189.7060270678858
 30
0.0
 11
4901.098080069385
 21
192.781715880953
 31
0.0
210
0.0
220
0.0
230
-1.0
  0
LINE
  5
1C384
330
1B896
100
AcDbEntity
  8
AM_5
100
AcDbLine
 10
4896.913319709348
 20
190.9650484020094
 30
0.0
 11
4901.098080069385
 21
192.781715880953
 31
0.0
210
0.0
220
0.0
230
-1.0
  0
LINE
  5
1C385
330
1B896
100
AcDbEntity
  8
AM_5
100
AcDbLine
 10
4901.098080069385
 20
192.781715880953
 30
0.0
 11
4897.321016067015
 21
190.3355377349475
 31
0.0
210
0.0
220
0.0
230
-1.0
  0
TEXT
  5
1C38B
330
1B896
100
AcDbEntity
  8
AM_5
100
AcDbText
 10
4864.795896992498
 20
163.7218789882526
 30
0.0
 40
6.0
  1
下受け
 41
0.9
100
AcDbText
  0
LINE
  5
1C38C
330
1B896
100
AcDbEntity
  8
AM_5
100
AcDbLine
 10
4894.615512716157
 20
168.9921679313569
 30
0.0
 11
4884.098314144298
 21
162.1218789882525
 31
0.0
1001
ACAD
1000
DSTYLE
1002
{
1070
    40
1040
3.0
1070
   176
1070
     4
1070
    41
1040
1.5
1070
   147
1040
1.0
1070
    77
1070
     0
1002
}
  0
LINE
  5
1C38D
330
1B896
100
AcDbEntity
  8
AM_5
100
AcDbLine
 10
4862.795896992498
 20
162.1218789882525
 30
0.0
 11
4884.098314144298
 21
162.1218789882525
 31
0.0
1001
ACAD
1000
DSTYLE
1002
{
1070
    40
1040
3.0
1070
   176
1070
     4
1070
    41
1040
1.5
1070
   147
1040
1.0
1070
    77
1070
     0
1002
}
  0
LINE
  5
1C38E
330
1B896
100
AcDbEntity
  8
AM_5
100
AcDbLine
 10
4895.023209073825
 20
168.3626572642952
 30
0.0
 11
4898.392576718528
 21
171.4383460773624
 31
0.0
210
0.0
220
0.0
230
-1.0
  0
LINE
  5
1C38F
330
1B896
100
AcDbEntity
  8
AM_5
100
AcDbLine
 10
4894.207816358489
 20
169.6216785984188
 30
0.0
 11
4898.392576718528
 21
171.4383460773624
 31
0.0
210
0.0
220
0.0
230
-1.0
  0
LINE
  5
1C390
330
1B896
100
AcDbEntity
  8
AM_5
100
AcDbLine
 10
4898.392576718528
 20
171.4383460773624
 30
0.0
 11
4894.615512716157
 21
168.9921679313569
 31
0.0
210
0.0
220
0.0
230
-1.0
  0
VIEWPORT
  5
1B810
102
{ACAD_XDICTIONARY
360
1C112
102
}
330
1B892
100
AcDbEntity
 67
     1
  8
0
100
AcDbViewport
 10
219.1102749664252
 20
32.94755905506355
 30
0.0
 40
192.1439262016693
 41
94.52341437258136
 68
     2
 69
     1
1001
ACAD
1000
MVIEW
1002
{
1070
    16
1010
0.0
1020
0.0
1030
0.0
1010
0.0
1020
0.0
1030
1.0
1040
0.0
1040
94.52341437258136
1040
219.1102749664252
1040
32.94755905506355
1040
50.0
1040
0.0
1040
0.0
1070
    16
1070
   100
1070
     1
1070
     1
1070
     0
1070
     0
1070
     0
1070
     0
1040
0.0
1040
0.0
1040
0.0
1040
10.0
1040
10.0
1040
10.0
1040
10.0
1070
     0
1002
{
1002
}
1002
}
1001
GENIUS_GENOBJ-N-SDF_13
1002
{
1000
OWNER
1000
GEN
1002
}
1001
GENIUS_GENODEF_13
1002
{
1000
HIER
1070
     0
1002
}
1002
{
1000
MANEDIT
1070
     0
1002
}
1002
{
1000
NOSEL
1070
     0
1002
}
1002
{
1000
BEHIND
1070
     0
1002
}
1002
{
1000
OTHER
1070
     0
1002
}
1002
{
1000
REACTOR
1002
}
1001
GENIUS_GENSCREG_15
1000
PF
1040
1.0
1000
DF
1040
1.0
1000
MIN
1011
123.0383118655905
1021
-14.31414813122712
1031
0.0
1000
MAX
1011
315.1822380672598
1021
80.20926624135423
1031
0.0
1000
FLAGS
1070
     2
  0
VIEWPORT
  5
1B811
102
{ACAD_XDICTIONARY
360
1C114
102
}
330
1B892
100
AcDbEntity
 67
     1
  8
AM_0
100
AcDbViewport
 10
133.3499908447265
 20
101.5999970436096
 30
0.0
 40
429.1987358241462
 41
228.4221935424805
 68
     1
 69
     2
1001
ACAD
1000
MVIEW
1002
{
1070
    16
1010
0.0
1020
0.0
1030
0.0
1010
0.0
1020
0.0
1030
1.0
1040
0.0
1040
576.69270833791
1040
-202.0655327728323
1040
665.3552720770292
1040
50.0
1040
0.0
1040
0.0
1070
     0
1070
   100
1070
     1
1070
     1
1070
     0
1070
     0
1070
     0
1070
     0
1040
0.0
1040
0.0
1040
0.0
1040
5.0
1040
5.0
1040
20.0
1040
20.0
1070
     0
1002
{
1002
}
1002
}
1001
GENIUS_GENOBJ-N-SDF_13
1002
{
1000
OWNER
1000
GEN
1002
}
1001
GENIUS_GENODEF_13
1002
{
1000
HIER
1070
     0
1002
}
1002
{
1000
MANEDIT
1070
     0
1002
}
1002
{
1000
NOSEL
1070
     0
1002
}
1002
{
1000
BEHIND
1070
     0
1002
}
1002
{
1000
OTHER
1070
     0
1002
}
1002
{
1000
REACTOR
1002
}
1001
GENIUS_GENSCREG_15
1000
PF
1040
9.752589343509985
1000
DF
1040
1.0
1000
MIN
1011
-81.24937706734659
1021
-12.61109972763063
1031
0.0
1000
MAX
1011
347.9493587567997
1021
215.8110938148498
1031
0.0
1000
FLAGS
1070
     2
  0
ENDSEC
  0
SECTION
  2
OBJECTS
  0
DICTIONARY
  5
1B86C
330
0
100
AcDbDictionary
  3
ACAD_2007HEADERVARS_RT
350
1C110
  3
ACAD_COLOR
350
1B88F
  3
ACAD_GROUP
350
1B86D
  3
ACAD_LAYOUT
350
1B88E
  3
ACAD_MATERIAL
350
1B870
  3
ACAD_MLINESTYLE
350
1B88B
  3
ACAD_PLOTSETTINGS
350
1B88D
  3
ACAD_TABLESTYLE
350
1B890
  3
ACAD_VISUALSTYLE
350
1B874
  3
ACMDICTIONARY
350
1B979
  3
AMG
350
1B921
  3
AMGSNAPSETTINGS
350
1B9AE
  3
DWGPROPS
350
1C10F
1001
ACAD
1000
TREAT_AS_HARD
1070
     0
  0
DICTIONARY
  5
1BB85
330
1B868
100
AcDbDictionary
  3
ACAD_XREC_ROUNDTRIP
350
1C116
1001
ACAD
1000
TREAT_AS_HARD
1070
     1
  0
DICTIONARY
  5
1B9CE
330
1B862
100
AcDbDictionary
  3
ACAD_LAYERFILTERS
350
1BD4D
  3
ACAD_LAYERSTATES
350
1B9CF
  3
ACLYDICTIONARY
350
1BD4C
1001
ACAD
1000
TREAT_AS_HARD
1070
     1
  0
DICTIONARY
  5
1C11D
330
1B885
100
AcDbDictionary
  3
ACAD_XREC_ROUNDTRIP
350
1C11E
1001
ACAD
1000
TREAT_AS_HARD
1070
     1
  0
DICTIONARY
  5
1C131
330
1B905
100
AcDbDictionary
  3
ACAD_XREC_ROUNDTRIP
350
1C132
1001
ACAD
1000
TREAT_AS_HARD
1070
     1
  0
DICTIONARY
  5
1C133
330
1B906
100
AcDbDictionary
  3
ACAD_XREC_ROUNDTRIP
350
1C134
1001
ACAD
1000
TREAT_AS_HARD
1070
     1
  0
DICTIONARY
  5
1C135
330
1B907
100
AcDbDictionary
  3
ACAD_XREC_ROUNDTRIP
350
1C136
1001
ACAD
1000
TREAT_AS_HARD
1070
     1
  0
DICTIONARY
  5
1C137
330
1B908
100
AcDbDictionary
  3
ACAD_XREC_ROUNDTRIP
350
1C138
1001
ACAD
1000
TREAT_AS_HARD
1070
     1
  0
DICTIONARY
  5
1C139
330
1B909
100
AcDbDictionary
  3
ACAD_XREC_ROUNDTRIP
350
1C13A
1001
ACAD
1000
TREAT_AS_HARD
1070
     1
  0
DICTIONARY
  5
1C13B
330
1B90A
100
AcDbDictionary
  3
ACAD_XREC_ROUNDTRIP
350
1C13C
1001
ACAD
1000
TREAT_AS_HARD
1070
     1
  0
DICTIONARY
  5
1C13D
330
1B90B
100
AcDbDictionary
  3
ACAD_XREC_ROUNDTRIP
350
1C13E
1001
ACAD
1000
TREAT_AS_HARD
1070
     1
  0
DICTIONARY
  5
1C13F
330
1B90C
100
AcDbDictionary
  3
ACAD_XREC_ROUNDTRIP
350
1C140
1001
ACAD
1000
TREAT_AS_HARD
1070
     1
  0
DICTIONARY
  5
1C141
330
1B90D
100
AcDbDictionary
  3
ACAD_XREC_ROUNDTRIP
350
1C142
1001
ACAD
1000
TREAT_AS_HARD
1070
     1
  0
DICTIONARY
  5
1C143
330
1B90E
100
AcDbDictionary
  3
ACAD_XREC_ROUNDTRIP
350
1C144
1001
ACAD
1000
TREAT_AS_HARD
1070
     1
  0
DICTIONARY
  5
1BA51
330
1BA50
100
AcDbDictionary
  3
ACAD_XREC_ROUNDTRIP
350
1C145
  3
ADSK_XREC_LAYER_RECONCILED
350
1BA52
1001
ACAD
1000
TREAT_AS_HARD
1070
     1
  0
DICTIONARY
  5
1C125
330
1B8AE
100
AcDbDictionary
  3
ACAD_XREC_ROUNDTRIP
350
1C126
1001
ACAD
1000
TREAT_AS_HARD
1070
     1
  0
DICTIONARY
  5
1C127
330
1B8AF
100
AcDbDictionary
  3
ACAD_XREC_ROUNDTRIP
350
1C128
1001
ACAD
1000
TREAT_AS_HARD
1070
     1
  0
DICTIONARY
  5
1C129
330
1B8B0
100
AcDbDictionary
  3
ACAD_XREC_ROUNDTRIP
350
1C12A
1001
ACAD
1000
TREAT_AS_HARD
1070
     1
  0
DICTIONARY
  5
1C12B
330
1B8B1
100
AcDbDictionary
  3
ACAD_XREC_ROUNDTRIP
350
1C12C
1001
ACAD
1000
TREAT_AS_HARD
1070
     1
  0
DICTIONARY
  5
1C12D
330
1B8B2
100
AcDbDictionary
  3
ACAD_XREC_ROUNDTRIP
350
1C12E
1001
ACAD
1000
TREAT_AS_HARD
1070
     1
  0
DICTIONARY
  5
1C12F
330
1B8B3
100
AcDbDictionary
  3
ACAD_XREC_ROUNDTRIP
350
1C130
1001
ACAD
1000
TREAT_AS_HARD
1070
     1
  0
DICTIONARY
  5
1B9BD
330
1B896
100
AcDbDictionary
  3
ACAD_LAYOUTSELFREF
350
1C3C8
  3
ACAD_SORTENTS
350
1B9BE
1001
ACAD
1000
TREAT_AS_HARD
1070
     1
  0
DICTIONARY
  5
1C3C6
330
1B892
100
AcDbDictionary
  3
ACAD_LAYOUTSELFREF
350
1C3C7
  0
DICTIONARY
  5
1C112
330
1B810
100
AcDbDictionary
  3
ACAD_XREC_ROUNDTRIP
350
1C113
1001
ACAD
1000
TREAT_AS_HARD
1070
     1
  0
DICTIONARY
  5
1C114
330
1B811
100
AcDbDictionary
  3
ACAD_XREC_ROUNDTRIP
350
1C115
1001
ACAD
1000
TREAT_AS_HARD
1070
     1
  0
DICTIONARY
  5
1C110
102
{ACAD_REACTORS
330
1B86C
102
}
330
1B86C
100
AcDbDictionary
  3
DIMARCSYM
350
1C111
1001
ACAD
1000
TREAT_AS_HARD
1070
     0
  0
DICTIONARY
  5
1B88F
102
{ACAD_REACTORS
330
1B86C
102
}
330
1B86C
100
AcDbDictionary
1001
ACAD
1000
TREAT_AS_HARD
1070
     0
  0
DICTIONARY
  5
1B86D
102
{ACAD_REACTORS
330
1B86C
102
}
330
1B86C
100
AcDbDictionary
1001
ACAD
1000
TREAT_AS_HARD
1070
     0
  0
DICTIONARY
  5
1B88E
102
{ACAD_REACTORS
330
1B86C
102
}
330
1B86C
100
AcDbDictionary
1001
ACAD
1000
TREAT_AS_HARD
1070
     0
  0
DICTIONARY
  5
1B870
102
{ACAD_REACTORS
330
1B86C
102
}
330
1B86C
100
AcDbDictionary
  3
BYBLOCK
350
1B872
  3
BYLAYER
350
1B871
  3
GLOBAL
350
1B873
1001
ACAD
1000
TREAT_AS_HARD
1070
     0
  0
DICTIONARY
  5
1B88B
102
{ACAD_REACTORS
330
1B86C
102
}
330
1B86C
100
AcDbDictionary
  3
STANDARD
350
1B88C
1001
ACAD
1000
TREAT_AS_HARD
1070
     0
  0
DICTIONARY
  5
1B88D
102
{ACAD_REACTORS
330
1B86C
102
}
330
1B86C
100
AcDbDictionary
1001
ACAD
1000
TREAT_AS_HARD
1070
     0
  0
DICTIONARY
  5
1B890
102
{ACAD_REACTORS
330
1B86C
102
}
330
1B86C
100
AcDbDictionary
  3
STANDARD
350
1B891
1001
ACAD
1000
TREAT_AS_HARD
1070
     0
  0
DICTIONARY
  5
1B874
102
{ACAD_REACTORS
330
1B86C
102
}
330
1B86C
100
AcDbDictionary
  3
2DWIREFRAME
350
1B87A
  3
3D_HIDDEN
350
1B87C
  3
3DWIREFRAME
350
1B87B
  3
BASIC
350
1B879
  3
BRIGHTEN
350
1B880
  3
COLORCHANGE
350
1B884
  3
CONCEPTUAL
350
1B87D
  3
DIM
350
1B87F
  3
FACEPATTERN
350
1B883
  3
FLAT
350
1B875
  3
FLATWITHEDGES
350
1B876
  3
GOURAUD
350
1B877
  3
GOURAUDWITHEDGES
350
1B878
  3
LINEPATTERN
350
1B882
  3
REALISTIC
350
1B87E
  3
THICKEN
350
1B881
1001
ACAD
1000
TREAT_AS_HARD
1070
     0
  0
DICTIONARY
  5
1B979
102
{ACAD_REACTORS
330
1B86C
102
}
330
1B86C
100
AcDbDictionary
  3
ACMSTDDICTIONARY
350
1B984
  3
AMDTSECTSYM_ARROWCOLOR
350
1B99D
1001
ACAD
1000
TREAT_AS_HARD
1070
     0
  0
DICTIONARY
  5
1B921
102
{ACAD_REACTORS
330
1B86C
102
}
330
1B86C
100
AcDbDictionary
1001
ACAD
1000
TREAT_AS_HARD
1070
     0
  0
DICTIONARY
  5
1B9AE
102
{ACAD_REACTORS
330
1B86C
102
}
330
1B86C
100
AcDbDictionary
1001
ACAD
1000
TREAT_AS_HARD
1070
     0
  0
XRECORD
  5
1C10F
102
{ACAD_REACTORS
330
1B86C
102
}
330
1B86C
100
AcDbXrecord
  1
DWGPROPS COOKIE
  2

  3

  4

  6

  7

  8
c-ikeda
  9

300
=
301
=
302
=
303
=
304
=
305
=
306
=
307
=
308
=
309
=
 40
0.8398808912037036
 41
2454489.086194294
 42
2460349.594603044
  1

 90
        0
  0
XRECORD
  5
1C116
102
{ACAD_REACTORS
330
1BB85
102
}
330
1BB85
100
AcDbXrecord
102
VTR_0.000_0.000_1.000_1.000_VISUALSTYLE
340
1B87A
102
VTR_0.000_0.000_1.000_1.000_GRIDDISPLAY
 70
     3
102
VTR_0.000_0.000_1.000_1.000_GRIDMAJOR
 70
     5
102
VTR_0.000_0.000_1.000_1.000_DEFAULTLIGHTING
280
     1
102
VTR_0.000_0.000_1.000_1.000_DEFAULTLIGHTINGTYPE
 70
     0
102
VTR_0.000_0.000_1.000_1.000_BRIGHTNESS
141
0.0
102
VTR_0.000_0.000_1.000_1.000_CONTRAST
142
0.0
  0
DICTIONARY
  5
1BD4D
102
{ACAD_REACTORS
330
1B9CE
102
}
330
1B9CE
100
AcDbDictionary
1001
ACAD
1000
TREAT_AS_HARD
1070
     0
  0
DICTIONARY
  5
1B9CF
102
{ACAD_REACTORS
330
1B9CE
102
}
330
1B9CE
100
AcDbDictionary
1001
ACAD
1000
TREAT_AS_HARD
1070
     0
  0
DICTIONARY
  5
1BD4C
102
{ACAD_REACTORS
330
1B9CE
102
}
330
1B9CE
100
AcDbDictionary
1001
ACAD
1000
<All
1000
TREAT_AS_HARD
1070
     0
  0
XRECORD
  5
1C11E
102
{ACAD_REACTORS
330
1C11D
102
}
330
1C11D
100
AcDbXrecord
102
MATERIAL
340
1B873
  0
XRECORD
  5
1C132
102
{ACAD_REACTORS
330
1C131
102
}
330
1C131
100
AcDbXrecord
102
MATERIAL
340
1B873
  0
XRECORD
  5
1C134
102
{ACAD_REACTORS
330
1C133
102
}
330
1C133
100
AcDbXrecord
102
MATERIAL
340
1B873
  0
XRECORD
  5
1C136
102
{ACAD_REACTORS
330
1C135
102
}
330
1C135
100
AcDbXrecord
102
MATERIAL
340
1B873
  0
XRECORD
  5
1C138
102
{ACAD_REACTORS
330
1C137
102
}
330
1C137
100
AcDbXrecord
102
MATERIAL
340
1B873
  0
XRECORD
  5
1C13A
102
{ACAD_REACTORS
330
1C139
102
}
330
1C139
100
AcDbXrecord
102
MATERIAL
340
1B873
  0
XRECORD
  5
1C13C
102
{ACAD_REACTORS
330
1C13B
102
}
330
1C13B
100
AcDbXrecord
102
MATERIAL
340
1B873
  0
XRECORD
  5
1C13E
102
{ACAD_REACTORS
330
1C13D
102
}
330
1C13D
100
AcDbXrecord
102
MATERIAL
340
1B873
  0
XRECORD
  5
1C140
102
{ACAD_REACTORS
330
1C13F
102
}
330
1C13F
100
AcDbXrecord
102
MATERIAL
340
1B873
  0
XRECORD
  5
1C142
102
{ACAD_REACTORS
330
1C141
102
}
330
1C141
100
AcDbXrecord
102
MATERIAL
340
1B873
  0
XRECORD
  5
1C144
102
{ACAD_REACTORS
330
1C143
102
}
330
1C143
100
AcDbXrecord
102
MATERIAL
340
1B873
  0
XRECORD
  5
1C145
102
{ACAD_REACTORS
330
1BA51
102
}
330
1BA51
100
AcDbXrecord
102
MATERIAL
340
1B873
  0
XRECORD
  5
1BA52
102
{ACAD_REACTORS
330
1BA51
102
}
330
1BA51
100
AcDbXrecord
290
     0
  0
XRECORD
  5
1C126
102
{ACAD_REACTORS
330
1C125
102
}
330
1C125
100
AcDbXrecord
102
CAMERAPLOTTABLE
 70
     0
102
VISUALSTYLENONE
 70
     1
  0
XRECORD
  5
1C128
102
{ACAD_REACTORS
330
1C127
102
}
330
1C127
100
AcDbXrecord
102
CAMERAPLOTTABLE
 70
     0
102
VISUALSTYLENONE
 70
     1
  0
XRECORD
  5
1C12A
102
{ACAD_REACTORS
330
1C129
102
}
330
1C129
100
AcDbXrecord
102
CAMERAPLOTTABLE
 70
     0
102
VISUALSTYLENONE
 70
     1
  0
XRECORD
  5
1C12C
102
{ACAD_REACTORS
330
1C12B
102
}
330
1C12B
100
AcDbXrecord
102
CAMERAPLOTTABLE
 70
     0
102
VISUALSTYLENONE
 70
     1
  0
XRECORD
  5
1C12E
102
{ACAD_REACTORS
330
1C12D
102
}
330
1C12D
100
AcDbXrecord
102
CAMERAPLOTTABLE
 70
     0
102
VISUALSTYLENONE
 70
     1
  0
XRECORD
  5
1C130
102
{ACAD_REACTORS
330
1C12F
102
}
330
1C12F
100
AcDbXrecord
102
CAMERAPLOTTABLE
 70
     0
102
VISUALSTYLENONE
 70
     1
  0
XRECORD
  5
1C3C8
102
{ACAD_REACTORS
330
1B9BD
102
}
330
1B9BD
100
AcDbXrecord
340
1B896
  0
SORTENTSTABLE
  5
1B9BE
102
{ACAD_REACTORS
330
1B9BD
102
}
330
1B9BD
100
AcDbSortentsTable
330
1B896
331
1B4E9
  5
1B4E9
331
1B528
  5
1B528
331
1B530
  5
1B530
331
1B4F1
  5
1B4F1
331
1B6C9
  5
1B6CB
331
1B5DD
  5
1B5DF
331
1B567
  5
1B567
331
1B538
  5
1B538
331
1B4F9
  5
1B4F9
331
1B5A6
  5
1B5A6
331
1B61C
  5
1B61E
331
1B653
  5
1B655
331
1B692
  5
1B694
331
1B708
  5
1B70A
331
1B7FC
  5
1B7FE
331
1B747
  5
1B749
331
1B69A
  5
1B69C
331
1B5AE
  5
1B5AE
331
1B56F
  5
1B56F
331
1B501
  5
1B501
331
1B5E5
  5
1B5E7
331
1B624
  5
1B626
331
1B65B
  5
1B65D
331
1B6D1
  5
1B6D3
331
1B710
  5
1B712
331
1B786
  5
1B788
331
1B7BD
  5
1B7BF
331
1B7C5
  5
1B7C7
331
1B74F
  5
1B751
331
1B718
  5
1B71A
331
1B663
  5
1B665
331
1B5B6
  5
1B5B6
331
1B577
  5
1B577
331
1B5ED
  5
1B5EF
331
1B62C
  5
1B62E
331
1B6A2
  5
1B6A4
331
1B6D9
  5
1B6DB
331
1B78E
  5
1B790
331
1B804
  5
1B806
331
1B796
  5
1B798
331
1B757
  5
1B759
331
1B66B
  5
1B66D
331
1B57F
  5
1B57F
331
1B5F5
  5
1B5F7
331
1B6E1
  5
1B6E3
331
1B7CD
  5
1B7CF
331
1B80C
  5
1B80E
331
1B7D5
  5
1B7D7
331
1B75F
  5
1B761
331
1B509
  5
1B509
331
1B540
  5
1B540
331
1B511
  5
1B511
331
1B720
  5
1B722
331
1B6E9
  5
1B6EB
331
1B5FD
  5
1B5FF
331
1B548
  5
1B548
331
1B519
  5
1B519
331
1B587
  5
1B587
331
1B5BE
  5
1B5BE
331
1B634
  5
1B636
331
1B673
  5
1B675
331
1B6AA
  5
1B6AC
331
1B767
  5
1B769
331
1B728
  5
1B72A
331
1B6B2
  5
1B6B4
331
1B605
  5
1B607
331
1B550
  5
1B550
331
1B521
  5
1B521
331
1B4E2
  5
1B4E2
331
1B58F
  5
1B58F
331
1B63C
  5
1B63E
331
1B67B
  5
1B67D
331
1B6F1
  5
1B6F3
331
1B79E
  5
1B7A0
331
1B7DD
  5
1B7DF
331
1B7E5
  5
1B7E7
331
1B730
  5
1B732
331
1B6BA
  5
1B6BC
331
1B5CE
  5
1B5D0
331
1B558
  5
1B558
331
1B597
  5
1B597
331
1B60D
  5
1B60F
331
1B644
  5
1B646
331
1B683
  5
1B685
331
1B6F9
  5
1B6FB
331
1B76F
  5
1B771
331
1B7A6
  5
1B7A8
331
1B7ED
  5
1B7EF
331
1B777
  5
1B779
331
1B68B
  5
1B68D
331
1B5D6
  5
1B5D8
331
1B615
  5
1B617
331
1B64C
  5
1B64E
331
1B6C2
  5
1B6C4
331
1B701
  5
1B703
331
1B7B6
  5
1B7B8
331
1B77F
  5
1B781
331
1B7F5
  5
1B7F7
331
1B4EA
  5
1B4EA
331
1B529
  5
1B529
331
1B560
  5
1B560
331
1B4F2
  5
1B4F2
331
1B531
  5
1B531
331
1B740
  5
1B742
331
1B709
  5
1B70B
331
1B61D
  5
1B61F
331
1B5A7
  5
1B5A7
331
1B568
  5
1B568
331
1B4FA
  5
1B4FA
331
1B539
  5
1B539
331
1B5DE
  5
1B5E0
331
1B654
  5
1B656
331
1B693
  5
1B695
331
1B6CA
  5
1B6CC
331
1B7BE
  5
1B7C0
331
1B748
  5
1B74A
331
1B6D2
  5
1B6D4
331
1B625
  5
1B627
331
1B570
  5
1B570
331
1B502
  5
1B502
331
1B5AF
  5
1B5AF
331
1B5E6
  5
1B5E8
331
1B65C
  5
1B65E
331
1B69B
  5
1B69D
331
1B711
  5
1B713
331
1B7FD
  5
1B7FF
331
1B805
  5
1B807
331
1B78F
  5
1B791
331
1B750
  5
1B752
331
1B6DA
  5
1B6DC
331
1B5EE
  5
1B5F0
331
1B578
  5
1B578
331
1B5B7
  5
1B5B7
331
1B62D
  5
1B62F
331
1B664
  5
1B666
331
1B6A3
  5
1B6A5
331
1B719
  5
1B71B
331
1B7C6
  5
1B7C8
331
1B80D
  5
1B80F
331
1B758
  5
1B75A
331
1B6E2
  5
1B6E4
331
1B5F6
  5
1B5F8
331
1B66C
  5
1B66E
331
1B797
  5
1B799
331
1B7CE
  5
1B7D0
331
1B7D6
  5
1B7D8
331
1B50A
  5
1B50A
331
1B541
  5
1B541
331
1B512
  5
1B512
331
1B580
  5
1B580
331
1B721
  5
1B723
331
1B674
  5
1B676
331
1B5BF
  5
1B5BF
331
1B549
  5
1B549
331
1B51A
  5
1B51A
331
1B588
  5
1B588
331
1B5FE
  5
1B600
331
1B635
  5
1B637
331
1B6AB
  5
1B6AD
331
1B6EA
  5
1B6EC
331
1B760
  5
1B762
331
1B79F
  5
1B7A1
331
1B729
  5
1B72B
331
1B67C
  5
1B67E
331
1B590
  5
1B590
331
1B551
  5
1B551
331
1B4E3
  5
1B4E3
331
1B522
  5
1B522
331
1B606
  5
1B608
331
1B63D
  5
1B63F
331
1B6B3
  5
1B6B5
331
1B6F2
  5
1B6F4
331
1B768
  5
1B76A
331
1B7DE
  5
1B7E0
331
1B7A7
  5
1B7A9
331
1B731
  5
1B733
331
1B6FA
  5
1B6FC
331
1B60E
  5
1B610
331
1B559
  5
1B559
331
1B598
  5
1B598
331
1B5CF
  5
1B5D1
331
1B645
  5
1B647
331
1B684
  5
1B686
331
1B6BB
  5
1B6BD
331
1B770
  5
1B772
331
1B7E6
  5
1B7E8
331
1B778
  5
1B77A
331
1B6C3
  5
1B6C5
331
1B616
  5
1B618
331
1B5D7
  5
1B5D9
331
1B64D
  5
1B64F
331
1B68C
  5
1B68E
331
1B702
  5
1B704
331
1B7AF
  5
1B7B1
331
1B7EE
  5
1B7F0
331
1B7F6
  5
1B7F8
331
1B7B7
  5
1B7B9
331
1B4EB
  5
1B4EB
331
1B52A
  5
1B52A
331
1B532
  5
1B532
331
1B561
  5
1B561
331
1B5A0
  5
1B5A0
331
1B741
  5
1B743
331
1B6CB
  5
1B6CD
331
1B5DF
  5
1B5E1
331
1B4FB
  5
1B4FB
331
1B53A
  5
1B53A
331
1B569
  5
1B569
331
1B61E
  5
1B620
331
1B655
  5
1B657
331
1B694
  5
1B696
331
1B70A
  5
1B70C
331
1B780
  5
1B782
331
1B7FE
  5
1B800
331
1B749
  5
1B74B
331
1B69C
  5
1B69E
331
1B5B0
  5
1B5B0
331
1B503
  5
1B503
331
1B571
  5
1B571
331
1B5E7
  5
1B5E9
331
1B626
  5
1B628
331
1B65D
  5
1B65F
331
1B6D3
  5
1B6D5
331
1B712
  5
1B714
331
1B788
  5
1B78A
331
1B7BF
  5
1B7C1
331
1B7C7
  5
1B7C9
331
1B751
  5
1B753
331
1B71A
  5
1B71C
331
1B62E
  5
1B630
331
1B5EF
  5
1B5F1
331
1B579
  5
1B579
331
1B665
  5
1B667
331
1B6A4
  5
1B6A6
331
1B6DB
  5
1B6DD
331
1B790
  5
1B792
331
1B806
  5
1B808
331
1B7CF
  5
1B7D1
331
1B759
  5
1B75B
331
1B6E3
  5
1B6E5
331
1B66D
  5
1B66F
331
1B5F7
  5
1B5F9
331
1B80E
  5
1B9BC
331
1B7D7
  5
1B7D9
331
1B50B
  5
1B50B
331
1B581
  5
1B581
331
1B513
  5
1B513
331
1B542
  5
1B542
331
1B5B8
  5
1B5B8
331
1B798
  5
1B79A
331
1B722
  5
1B724
331
1B6EB
  5
1B6ED
331
1B5FF
  5
1B601
331
1B51B
  5
1B51B
331
1B54A
  5
1B54A
331
1B589
  5
1B589
331
1B5C0
  5
1B5C0
331
1B636
  5
1B638
331
1B675
  5
1B677
331
1B6AC
  5
1B6AE
331
1B761
  5
1B763
331
1B769
  5
1B76B
331
1B72A
  5
1B72C
331
1B6B4
  5
1B6B6
331
1B5C8
  5
1B5C8
331
1B523
  5
1B523
331
1B4E4
  5
1B4E4
331
1B552
  5
1B552
331
1B591
  5
1B591
331
1B607
  5
1B609
331
1B63E
  5
1B640
331
1B67D
  5
1B67F
331
1B6F3
  5
1B6F5
331
1B7A0
  5
1B7A2
331
1B7DF
  5
1B7E1
331
1B7E7
  5
1B7E9
331
1B771
  5
1B773
331
1B685
  5
1B687
331
1B5D0
  5
1B5D2
331
1B55A
  5
1B55A
331
1B599
  5
1B599
331
1B60F
  5
1B611
331
1B646
  5
1B648
331
1B6BC
  5
1B6BE
331
1B6FB
  5
1B6FD
331
1B7A8
  5
1B7AA
331
1B7B0
  5
1B7B2
331
1B779
  5
1B77B
331
1B68D
  5
1B68F
331
1B617
  5
1B619
331
1B64E
  5
1B650
331
1B6C4
  5
1B6C6
331
1B703
  5
1B705
331
1B7EF
  5
1B7F1
331
1B7F7
  5
1B7F9
331
1B4EC
  5
1B4EC
331
1B52B
  5
1B52B
331
1B5A1
  5
1B5A1
331
1B4F4
  5
1B4F4
331
1B533
  5
1B533
331
1B562
  5
1B562
331
1B5D8
  5
1B5DA
331
1B7B8
  5
1B7BA
331
1B742
  5
1B744
331
1B70B
  5
1B70D
331
1B61F
  5
1B621
331
1B4FC
  5
1B4FC
331
1B53B
  5
1B53B
331
1B56A
  5
1B56A
331
1B5E0
  5
1B5E2
331
1B656
  5
1B658
331
1B695
  5
1B697
331
1B6CC
  5
1B6CE
331
1B781
  5
1B783
331
1B789
  5
1B78B
331
1B74A
  5
1B74C
331
1B6D4
  5
1B6D6
331
1B627
  5
1B629
331
1B504
  5
1B504
331
1B572
  5
1B572
331
1B5B1
  5
1B5B1
331
1B5E8
  5
1B5EA
331
1B65E
  5
1B660
331
1B69D
  5
1B69F
331
1B713
  5
1B715
331
1B7C0
  5
1B7C2
331
1B7FF
  5
1B801
331
1B807
  5
1B809
331
1B752
  5
1B754
331
1B6DC
  5
1B6DE
331
1B5F0
  5
1B5F2
331
1B57A
  5
1B57A
331
1B62F
  5
1B631
331
1B666
  5
1B668
331
1B6A5
  5
1B6A7
331
1B71B
  5
1B71D
331
1B791
  5
1B793
331
1B7C8
  5
1B7CA
331
1B80F
  5
1B9BF
331
1B75A
  5
1B75C
331
1B6E4
  5
1B6E6
331
1B66E
  5
1B670
331
1B7D0
  5
1B7D2
331
1B50C
  5
1B50C
331
1B5B9
  5
1B5B9
331
1B514
  5
1B514
331
1B543
  5
1B543
331
1B582
  5
1B582
331
1B5F8
  5
1B5FA
331
1B7D8
  5
1B7DA
331
1B723
  5
1B725
331
1B676
  5
1B678
331
1B5C1
  5
1B5C1
331
1B51C
  5
1B51C
331
1B54B
  5
1B54B
331
1B58A
  5
1B58A
331
1B600
  5
1B602
331
1B637
  5
1B639
331
1B6AD
  5
1B6AF
331
1B6EC
  5
1B6EE
331
1B762
  5
1B764
331
1B799
  5
1B79B
331
1B7A1
  5
1B7A3
331
1B72B
  5
1B72D
331
1B6F4
  5
1B6F6
331
1B67E
  5
1B680
331
1B592
  5
1B592
331
1B4E5
  5
1B4E5
331
1B524
  5
1B524
331
1B553
  5
1B553
331
1B5C9
  5
1B5CB
331
1B608
  5
1B60A
331
1B63F
  5
1B641
331
1B6B5
  5
1B6B7
331
1B76A
  5
1B76C
331
1B7E0
  5
1B7E2
331
1B7A9
  5
1B7AB
331
1B772
  5
1B774
331
1B6FC
  5
1B6FE
331
1B610
  5
1B612
331
1B55B
  5
1B55B
331
1B59A
  5
1B59A
331
1B5D1
  5
1B5D3
331
1B647
  5
1B649
331
1B686
  5
1B688
331
1B6BD
  5
1B6BF
331
1B7E8
  5
1B7EA
331
1B77A
  5
1B77C
331
1B6C5
  5
1B6C7
331
1B64F
  5
1B651
331
1B68E
  5
1B690
331
1B704
  5
1B706
331
1B7B1
  5
1B7B3
331
1B7F0
  5
1B7F2
331
1B4ED
  5
1B4ED
331
1B52C
  5
1B52C
331
1B5D9
  5
1B5DB
331
1B534
  5
1B534
331
1B4F5
  5
1B4F5
331
1B563
  5
1B563
331
1B5A2
  5
1B5A2
331
1B618
  5
1B61A
331
1B7F8
  5
1B7FA
331
1B743
  5
1B745
331
1B696
  5
1B698
331
1B5E1
  5
1B5E3
331
1B4FD
  5
1B4FD
331
1B53C
  5
1B53C
331
1B56B
  5
1B56B
331
1B5AA
  5
1B5AA
331
1B620
  5
1B622
331
1B657
  5
1B659
331
1B6CD
  5
1B6CF
331
1B70C
  5
1B70E
331
1B782
  5
1B784
331
1B7B9
  5
1B7BB
331
1B7C1
  5
1B7C3
331
1B74B
  5
1B74D
331
1B69E
  5
1B6A0
331
1B5B2
  5
1B5B2
331
1B505
  5
1B505
331
1B573
  5
1B573
331
1B5E9
  5
1B5EB
331
1B628
  5
1B62A
331
1B65F
  5
1B661
331
1B6D5
  5
1B6D7
331
1B714
  5
1B716
331
1B78A
  5
1B78C
331
1B800
  5
1B802
331
1B7C9
  5
1B7CB
331
1B753
  5
1B755
331
1B71C
  5
1B71E
331
1B667
  5
1B669
331
1B57B
  5
1B57B
331
1B5F1
  5
1B5F3
331
1B6A6
  5
1B6A8
331
1B6DD
  5
1B6DF
331
1B792
  5
1B794
331
1B808
  5
1B80A
331
1B7D1
  5
1B7D3
331
1B75B
  5
1B75D
331
1B6E5
  5
1B6E7
331
1B66F
  5
1B671
331
1B50D
  5
1B50D
331
1B630
  5
1B632
331
1B583
  5
1B583
331
1B515
  5
1B515
331
1B544
  5
1B544
331
1B5BA
  5
1B5BA
331
1B5F9
  5
1B5FB
331
1B763
  5
1B765
331
1B724
  5
1B726
331
1B6ED
  5
1B6EF
331
1B601
  5
1B603
331
1B51D
  5
1B51D
331
1B54C
  5
1B54C
331
1B58B
  5
1B58B
331
1B5C2
  5
1B5C2
331
1B638
  5
1B63A
331
1B677
  5
1B679
331
1B6AE
  5
1B6B0
331
1B79A
  5
1B79C
331
1B7D9
  5
1B7DB
331
1B76B
  5
1B76D
331
1B72C
  5
1B72E
331
1B6B6
  5
1B6B8
331
1B5CA
  5
1B5CC
331
1B525
  5
1B525
331
1B4E6
  5
1B4E6
331
1B554
  5
1B554
331
1B593
  5
1B593
331
1B609
  5
1B60B
331
1B640
  5
1B642
331
1B67F
  5
1B681
331
1B6F5
  5
1B6F7
331
1B7A2
  5
1B7A4
331
1B7E1
  5
1B7E3
331
1B7E9
  5
1B7EB
331
1B773
  5
1B775
331
1B687
  5
1B689
331
1B55C
  5
1B55C
331
1B59B
  5
1B59B
331
1B611
  5
1B613
331
1B648
  5
1B64A
331
1B6BE
  5
1B6C0
331
1B6FD
  5
1B6FF
331
1B7AA
  5
1B7AC
331
1B7B2
  5
1B7B4
331
1B73C
  5
1B73E
331
1B705
  5
1B707
331
1B68F
  5
1B691
331
1B6C6
  5
1B6C8
331
1B77B
  5
1B77D
331
1B7F1
  5
1B7F3
331
1B4EE
  5
1B4EE
331
1B52D
  5
1B52D
331
1B5A3
  5
1B5A3
331
1B4F6
  5
1B4F6
331
1B535
  5
1B535
331
1B564
  5
1B564
331
1B5DA
  5
1B5DC
331
1B619
  5
1B61B
331
1B650
  5
1B652
331
1B7BA
  5
1B7BC
331
1B744
  5
1B746
331
1B70D
  5
1B70F
331
1B621
  5
1B623
331
1B4FE
  5
1B4FE
331
1B53D
  5
1B53D
331
1B56C
  5
1B56C
331
1B5AB
  5
1B5AB
331
1B5E2
  5
1B5E4
331
1B658
  5
1B65A
331
1B697
  5
1B699
331
1B6CE
  5
1B6D0
331
1B783
  5
1B785
331
1B7F9
  5
1B7FB
331
1B78B
  5
1B78D
331
1B74C
  5
1B74E
331
1B6D6
  5
1B6D8
331
1B5EA
  5
1B5EC
331
1B506
  5
1B506
331
1B574
  5
1B574
331
1B5B3
  5
1B5B3
331
1B629
  5
1B62B
331
1B660
  5
1B662
331
1B69F
  5
1B6A1
331
1B715
  5
1B717
331
1B7C2
  5
1B7C4
331
1B801
  5
1B803
331
1B809
  5
1B80B
331
1B754
  5
1B756
331
1B6A7
  5
1B6A9
331
1B5F2
  5
1B5F4
331
1B57C
  5
1B57C
331
1B668
  5
1B66A
331
1B6DE
  5
1B6E0
331
1B71D
  5
1B71F
331
1B793
  5
1B795
331
1B7CA
  5
1B7CC
331
1B7D2
  5
1B7D4
331
1B75C
  5
1B75E
331
1B6E6
  5
1B6E8
331
1B50E
  5
1B50E
331
1B5BB
  5
1B5BB
331
1B516
  5
1B516
331
1B545
  5
1B545
331
1B584
  5
1B584
331
1B5FA
  5
1B5FC
331
1B631
  5
1B633
331
1B670
  5
1B672
331
1B7DA
  5
1B7DC
331
1B725
  5
1B727
331
1B678
  5
1B67A
331
1B58C
  5
1B58C
331
1B51E
  5
1B51E
331
1B54D
  5
1B54D
331
1B5C3
  5
1B5C3
331
1B602
  5
1B604
331
1B639
  5
1B63B
331
1B6AF
  5
1B6B1
331
1B6EE
  5
1B6F0
331
1B764
  5
1B766
331
1B79B
  5
1B79D
331
1B7A3
  5
1B7A5
331
1B72D
  5
1B72F
331
1B6F6
  5
1B6F8
331
1B641
  5
1B643
331
1B594
  5
1B594
331
1B4E7
  5
1B4E7
331
1B526
  5
1B526
331
1B555
  5
1B555
331
1B5CB
  5
1B5CD
331
1B60A
  5
1B60C
331
1B680
  5
1B682
331
1B6B7
  5
1B6B9
331
1B76C
  5
1B76E
331
1B7E2
  5
1B7E4
331
1B774
  5
1B776
331
1B6FE
  5
1B700
331
1B612
  5
1B614
331
1B55D
  5
1B55D
331
1B59C
  5
1B59C
331
1B5D3
  5
1B5D5
331
1B649
  5
1B64B
331
1B688
  5
1B68A
331
1B6BF
  5
1B6C1
331
1B7AB
  5
1B7AD
331
1B7EA
  5
1B7EC
331
1B77C
  5
1B77E
331
1B73D
  5
1B73F
331
1B6C7
  5
1B6C9
331
1B706
  5
1B708
331
1B7B3
  5
1B7B5
331
1B7F2
  5
1B7F4
331
1B52E
  5
1B52E
331
1B4EF
  5
1B4EF
331
1B5DB
  5
1B5DD
331
1B536
  5
1B536
331
1B4F7
  5
1B4F7
331
1B565
  5
1B565
331
1B5A4
  5
1B5A4
331
1B61A
  5
1B61C
331
1B651
  5
1B653
331
1B690
  5
1B692
331
1B7FA
  5
1B7FC
331
1B745
  5
1B747
331
1B698
  5
1B69A
331
1B5E3
  5
1B5E5
331
1B4FF
  5
1B4FF
331
1B53E
  5
1B53E
331
1B56D
  5
1B56D
331
1B5AC
  5
1B5AC
331
1B622
  5
1B624
331
1B659
  5
1B65B
331
1B6CF
  5
1B6D1
331
1B70E
  5
1B710
331
1B784
  5
1B786
331
1B7BB
  5
1B7BD
331
1B7C3
  5
1B7C5
331
1B74D
  5
1B74F
331
1B716
  5
1B718
331
1B6A0
  5
1B6A2
331
1B5B4
  5
1B5B4
331
1B507
  5
1B507
331
1B575
  5
1B575
331
1B5EB
  5
1B5ED
331
1B62A
  5
1B62C
331
1B661
  5
1B663
331
1B6D7
  5
1B6D9
331
1B78C
  5
1B78E
331
1B802
  5
1B804
331
1B7CB
  5
1B7CD
331
1B755
  5
1B757
331
1B71E
  5
1B720
331
1B669
  5
1B66B
331
1B57D
  5
1B57D
331
1B5F3
  5
1B5F5
331
1B6DF
  5
1B6E1
331
1B794
  5
1B796
331
1B80A
  5
1B80C
331
1B7D3
  5
1B7D5
331
1B75D
  5
1B75F
331
1B6E7
  5
1B6E9
331
1B50F
  5
1B50F
331
1B5FB
  5
1B5FD
331
1B585
  5
1B585
331
1B517
  5
1B517
331
1B546
  5
1B546
331
1B5BC
  5
1B5BC
331
1B632
  5
1B634
331
1B671
  5
1B673
331
1B6A8
  5
1B6AA
331
1B765
  5
1B767
331
1B726
  5
1B728
331
1B6B0
  5
1B6B2
331
1B603
  5
1B605
331
1B51F
  5
1B51F
331
1B54E
  5
1B54E
331
1B58D
  5
1B58D
331
1B5C4
  5
1B5C4
331
1B63A
  5
1B63C
331
1B679
  5
1B67B
331
1B6EF
  5
1B6F1
331
1B79C
  5
1B79E
331
1B7DB
  5
1B7DD
331
1B7E3
  5
1B7E5
331
1B76D
  5
1B76F
331
1B72E
  5
1B730
331
1B6B8
  5
1B6BA
331
1B5CC
  5
1B5CE
331
1B527
  5
1B527
331
1B556
  5
1B556
331
1B595
  5
1B595
331
1B60B
  5
1B60D
331
1B642
  5
1B644
331
1B681
  5
1B683
331
1B6F7
  5
1B6F9
331
1B7A4
  5
1B7A6
331
1B7EB
  5
1B7ED
331
1B775
  5
1B777
331
1B689
  5
1B68B
331
1B59D
  5
1B59D
331
1B55E
  5
1B55E
331
1B5D4
  5
1B5D6
331
1B613
  5
1B615
331
1B64A
  5
1B64C
331
1B6C0
  5
1B6C2
331
1B6FF
  5
1B701
331
1B7AC
  5
1B7AE
331
1B7B4
  5
1B7B6
331
1B73E
  5
1B740
331
1B707
  5
1B709
331
1B77D
  5
1B77F
331
1B7F3
  5
1B7F5
331
1B4E8
  5
1B4E8
331
1B4F0
  5
1B4F0
331
1B52F
  5
1B52F
331
1B652
  5
1B654
331
1B5A5
  5
1B5A5
331
1B4F8
  5
1B4F8
331
1B537
  5
1B537
331
1B566
  5
1B566
331
1B5DC
  5
1B5DE
331
1B61B
  5
1B61D
331
1B691
  5
1B693
331
1B6C8
  5
1B6CA
331
1B785
  5
1B787
331
1B746
  5
1B748
331
1B70F
  5
1B711
331
1B623
  5
1B625
331
1B53F
  5
1B53F
331
1B500
  5
1B500
331
1B56E
  5
1B56E
331
1B5AD
  5
1B5AD
331
1B5E4
  5
1B5E6
331
1B65A
  5
1B65C
331
1B699
  5
1B69B
331
1B6D0
  5
1B6D2
331
1B7BC
  5
1B7BE
331
1B7FB
  5
1B7FD
331
1B78D
  5
1B78F
331
1B74E
  5
1B750
331
1B6D8
  5
1B6DA
331
1B5EC
  5
1B5EE
331
1B576
  5
1B576
331
1B5B5
  5
1B5B5
331
1B62B
  5
1B62D
331
1B662
  5
1B664
331
1B6A1
  5
1B6A3
331
1B717
  5
1B719
331
1B7C4
  5
1B7C6
331
1B803
  5
1B805
331
1B80B
  5
1B80D
331
1B756
  5
1B758
331
1B6E0
  5
1B6E2
331
1B5F4
  5
1B5F6
331
1B57E
  5
1B57E
331
1B66A
  5
1B66C
331
1B71F
  5
1B721
331
1B795
  5
1B797
331
1B7CC
  5
1B7CE
331
1B7D4
  5
1B7D6
331
1B75E
  5
1B760
331
1B508
  5
1B508
331
1B510
  5
1B510
331
1B6A9
  5
1B6AB
331
1B5BD
  5
1B5BD
331
1B518
  5
1B518
331
1B547
  5
1B547
331
1B586
  5
1B586
331
1B5FC
  5
1B5FE
331
1B633
  5
1B635
331
1B672
  5
1B674
331
1B6E8
  5
1B6EA
331
1B7DC
  5
1B7DE
331
1B727
  5
1B729
331
1B67A
  5
1B67C
331
1B58E
  5
1B58E
331
1B520
  5
1B520
331
1B54F
  5
1B54F
331
1B5C5
  5
1B5C5
331
1B604
  5
1B606
331
1B63B
  5
1B63D
331
1B6B1
  5
1B6B3
331
1B6F0
  5
1B6F2
331
1B766
  5
1B768
331
1B79D
  5
1B79F
331
1B7A5
  5
1B7A7
331
1B72F
  5
1B731
331
1B6F8
  5
1B6FA
331
1B60C
  5
1B60E
331
1B596
  5
1B596
331
1B557
  5
1B557
331
1B5CD
  5
1B5CF
331
1B643
  5
1B645
331
1B682
  5
1B684
331
1B6B9
  5
1B6BB
331
1B76E
  5
1B770
331
1B7E4
  5
1B7E6
331
1B776
  5
1B778
331
1B6C1
  5
1B6C3
331
1B614
  5
1B616
331
1B55F
  5
1B55F
331
1B59E
  5
1B59E
331
1B5D5
  5
1B5D7
331
1B64B
  5
1B64D
331
1B68A
  5
1B68C
331
1B700
  5
1B702
331
1B7AD
  5
1B7AF
331
1B7EC
  5
1B7EE
331
1B7F4
  5
1B7F6
331
1B77E
  5
1B780
331
1B73F
  5
1B741
331
1B7B5
  5
1B7B7
  0
XRECORD
  5
1C3C7
102
{ACAD_REACTORS
330
1C3C6
102
}
330
1C3C6
100
AcDbXrecord
340
1B892
  0
XRECORD
  5
1C113
102
{ACAD_REACTORS
330
1C112
102
}
330
1C112
100
AcDbXrecord
102
SHADEPLOT
 70
     0
102
VISUALSTYLE
340
1B87A
102
GRIDDISPLAY
 70
     0
102
GRIDMAJOR
 70
     5
102
DEFAULTLIGHTING
280
     1
102
DEFAULTLIGHTINGTYPE
 70
     1
102
BRIGHTNESS
141
0.0
102
CONTRAST
142
0.0
  0
XRECORD
  5
1C115
102
{ACAD_REACTORS
330
1C114
102
}
330
1C114
100
AcDbXrecord
102
SHADEPLOT
 70
     0
102
VISUALSTYLE
340
1B87A
102
GRIDDISPLAY
 70
     0
102
GRIDMAJOR
 70
     5
102
DEFAULTLIGHTING
280
     1
102
DEFAULTLIGHTINGTYPE
 70
     1
102
BRIGHTNESS
141
0.0
102
CONTRAST
142
0.0
  0
XRECORD
  5
1C111
102
{ACAD_REACTORS
330
1C110
102
}
330
1C110
100
AcDbXrecord
 70
     1
  0
ACAD_ZOMBIE_OBJECT
  5
1B872
102
{ACAD_XDICTIONARY
360
1C119
102
}
102
{ACAD_REACTORS
330
1B870
102
}
330
1B870
100
AcDbZombieObject
 90
      499
 91
      591
 93
      582
310
42109E509B1BD8DAC02004014040405AA6A9AA4060050101016A9AA6A9018000000000000E03F4040405AA6A9AA40650101016A9AA6A90190101016A9AA6A90194040405AA6A9AA403
 94
        0
1001
ACAD
1000
AcadProxyRoundTripData
1071
      501
1071
   917527
1070
     0
  0
ACAD_ZOMBIE_OBJECT
  5
1B871
102
{ACAD_XDICTIONARY
360
1C117
102
}
102
{ACAD_REACTORS
330
1B870
102
}
330
1B870
100
AcDbZombieObject
 90
      499
 91
      591
 93
      582
310
42109E53185E595C802004014040405AA6A9AA4060050101016A9AA6A9018000000000000E03F4040405AA6A9AA40650101016A9AA6A90190101016A9AA6A90194040405AA6A9AA403
 94
        0
1001
ACAD
1000
AcadProxyRoundTripData
1071
      501
1071
   917527
1070
     0
  0
ACAD_ZOMBIE_OBJECT
  5
1B873
102
{ACAD_XDICTIONARY
360
1C11B
102
}
102
{ACAD_REACTORS
330
1B870
102
}
330
1B870
100
AcDbZombieObject
 90
      499
 91
      591
 93
      574
310
41D1DB1BD8985B002004014040405AA6A9AA4060050101016A9AA6A9018000000000000E03F4040405AA6A9AA40650101016A9AA6A90190101016A9AA6A90194040405AA6A9AA400
 94
        0
1001
ACAD
1000
AcadProxyRoundTripData
1071
      501
1071
   917527
1070
     0
  0
MLINESTYLE
  5
1B88C
102
{ACAD_REACTORS
330
1B88B
102
}
330
1B88B
100
AcDbMlineStyle
  2
STANDARD
 70
     0
  3

 62
   256
 51
90.0
 52
90.0
 71
     2
 49
0.5
 62
   256
  6
BYLAYER
 49
-0.5
 62
   256
  6
BYLAYER
  0
ACAD_ZOMBIE_OBJECT
  5
1B891
102
{ACAD_XDICTIONARY
360
1C11F
102
}
102
{ACAD_REACTORS
330
1B890
102
}
330
1B890
100
AcDbZombieObject
 90
      499
 91
      591
 93
     1849
310
4254DD185B99185C990028B81E85EB51B8AE3F2E07A17AD46E2B8FC02B5E8DC0F42B1CFD028000000C1008070000C3001FDFF8000000C1003FBFF000000182007F7FE00000030400FEFFC00000060801FDFF8000000C1003FBFF00000018200000000000000681FA0B0000001820100E000186003FBFF000000182007F7FE0
310
0000030400FEFFC00000060801FDFF8000000C1003FBFF000000182007F7FE000000304000AD7A3703D0AC73F4160000003040201C00030C007F7FE00000030400FEFFC00000060801FDFF8000000C1003FBFF000000182007F7FE00000030400FEFFC00000060803C
340
1B886
340
1B886
340
1B886
 94
        0
1001
ACAD
1000
AcadProxyRoundTripData
1071
      503
1071
   917527
1070
     0
  0
ACAD_ZOMBIE_OBJECT
  5
1B87A
102
{ACAD_REACTORS
330
1B874
102
}
330
1B874
100
AcDbZombieObject
 90
      499
 91
      591
 93
      444
310
430C9915DA5C99599C985B59401049028333333333333E3BF0000000000000FB0107901411070040501600405405064090741402480A0340
 94
        0
1001
ACAD
1000
AcDbSavedByObjectVersion
1070
     0
1000
AcadProxyRoundTripData
1071
      502
1071
   917527
1070
     0
  0
ACAD_ZOMBIE_OBJECT
  5
1B87C
102
{ACAD_REACTORS
330
1B874
102
}
330
1B874
100
AcDbZombieObject
 90
      499
 91
      591
 93
      508
310
428CD108121A5919195B8010640502408333333333333E3BF0000000000000FB01079024090700405020000000000001110200405405064090740C02480A0344
 94
        0
1001
ACAD
1000
AcDbSavedByObjectVersion
1070
     0
1000
AcadProxyRoundTripData
1071
      502
1071
   917527
1070
     0
  0
ACAD_ZOMBIE_OBJECT
  5
1B87B
102
{ACAD_REACTORS
330
1B874
102
}
330
1B874
100
AcDbZombieObject
 90
      499
 91
      591
 93
      444
310
430CD915DA5C99599C985B59401059028333333333333E3BF0000000000000FB0107901411070040501600405405064090741402480A0340
 94
        0
1001
ACAD
1000
AcDbSavedByObjectVersion
1070
     0
1000
AcadProxyRoundTripData
1071
      502
1071
   917527
1070
     0
  0
ACAD_ZOMBIE_OBJECT
  5
1B879
102
{ACAD_REACTORS
330
1B874
102
}
330
1B874
100
AcDbZombieObject
 90
      499
 91
      591
 93
      396
310
4190985CDA58C0107406404333333333333E3BF0000000000000FB0107A41107004050150841D405064090741402480A0356
 94
        0
1001
ACAD
1000
AcDbSavedByObjectVersion
1070
     0
1000
AcadProxyRoundTripData
1071
      502
1071
   917527
1070
     0
  0
ACAD_ZOMBIE_OBJECT
  5
1B880
102
{ACAD_REACTORS
330
1B874
102
}
330
1B874
100
AcDbZombieObject
 90
      499
 91
      591
 93
      436
310
42509C9A59DA1D195B8010C409028333333333333E3BF0000000000000FB010790141107004050150841D405064090741402480A029956
 94
        0
1001
ACAD
1000
AcDbSavedByObjectVersion
1070
     0
1000
AcadProxyRoundTripData
1071
      502
1071
   917527
1070
     0
  0
ACAD_ZOMBIE_OBJECT
  5
1B884
102
{ACAD_REACTORS
330
1B874
102
}
330
1B874
100
AcDbZombieObject
 90
      499
 91
      591
 93
      460
310
4310DBDB1BDC90DA185B99D9401104090240C333333333333E3BF0000000000000FB0108901411070040501508421405064090741402480A0354
 94
        0
1001
ACAD
1000
AcDbSavedByObjectVersion
1070
     0
1000
AcadProxyRoundTripData
1071
      502
1071
   917527
1070
     0
  0
ACAD_ZOMBIE_OBJECT
  5
1B87D
102
{ACAD_REACTORS
330
1B874
102
}
330
1B874
100
AcDbZombieObject
 90
      499
 91
      591
 93
      508
310
42D0DBDB98D95C1D1D585B0010940D028333333333333E3BF0000000000000FB0107902409070040501000000000000111010841D405064090740C02480A0344
 94
        0
1001
ACAD
1000
AcDbSavedByObjectVersion
1070
     0
1000
AcadProxyRoundTripData
1071
      502
1071
   917527
1070
     0
  0
ACAD_ZOMBIE_OBJECT
  5
1B87F
102
{ACAD_REACTORS
330
1B874
102
}
330
1B874
100
AcDbZombieObject
 90
      499
 91
      591
 93
      420
310
41111A5B4010B409028333333333333E3BF0000000000000FB010790141107004050150841D405064090741402480A02677FFFFFDB
 94
        0
1001
ACAD
1000
AcDbSavedByObjectVersion
1070
     0
1000
AcadProxyRoundTripData
1071
      502
1071
   917527
1070
     0
  0
ACAD_ZOMBIE_OBJECT
  5
1B883
102
{ACAD_REACTORS
330
1B874
102
}
330
1B874
100
AcDbZombieObject
 90
      499
 91
      591
 93
      452
310
43119858D95C185D1D195C9B8010F409028333333333333E3BF0000000000000FB010790141107004050150841D405064090741402480A0350
 94
        0
1001
ACAD
1000
AcDbSavedByObjectVersion
1070
     0
1000
AcadProxyRoundTripData
1071
      502
1071
   917527
1070
     0
  0
ACAD_ZOMBIE_OBJECT
  5
1B875
102
{ACAD_REACTORS
330
1B874
102
}
330
1B874
100
AcDbZombieObject
 90
      499
 91
      591
 93
      396
310
41519B185D00240901404333333333333E3BF0000000000000F9010740A41107004050150841D405064090741402480A1B56
 94
        0
1001
ACAD
1000
AcDbSavedByObjectVersion
1070
     0
1000
AcadProxyRoundTripData
1071
      502
1071
   917527
1070
     0
  0
ACAD_ZOMBIE_OBJECT
  5
1B876
102
{ACAD_REACTORS
330
1B874
102
}
330
1B874
100
AcDbZombieObject
 90
      499
 91
      591
 93
      484
310
43919B185D15DA5D1A115919D95CC010140901404333333333333E3BF0000000000000F9010740901411070040501600405405064090741402480A1B56
 94
        0
1001
ACAD
1000
AcDbSavedByObjectVersion
1070
     0
1000
AcadProxyRoundTripData
1071
      502
1071
   917527
1070
     0
  0
ACAD_ZOMBIE_OBJECT
  5
1B877
102
{ACAD_REACTORS
330
1B874
102
}
330
1B874
100
AcDbZombieObject
 90
      499
 91
      591
 93
      420
310
4211DBDD5C985D590010240902404333333333333E3BF0000000000000F9010740A411070040501641D405064090741402480A1B50
 94
        0
1001
ACAD
1000
AcDbSavedByObjectVersion
1070
     0
1000
AcadProxyRoundTripData
1071
      502
1071
   917527
1070
     0
  0
ACAD_ZOMBIE_OBJECT
  5
1B878
102
{ACAD_REACTORS
330
1B874
102
}
330
1B874
100
AcDbZombieObject
 90
      499
 91
      591
 93
      508
310
4451DBDD5C985D5915DA5D1A115919D95CC010340902404333333333333E3BF0000000000000F9010740901411070040501600405405064090741402480A1B54
 94
        0
1001
ACAD
1000
AcDbSavedByObjectVersion
1070
     0
1000
AcadProxyRoundTripData
1071
      502
1071
   917527
1070
     0
  0
ACAD_ZOMBIE_OBJECT
  5
1B882
102
{ACAD_REACTORS
330
1B874
102
}
330
1B874
100
AcDbZombieObject
 90
      499
 91
      591
 93
      452
310
43131A5B995C185D1D195C9B8010E409028333333333333E3BF0000000000000FB010790141107004050750841D405064090741402483A0350
 94
        0
1001
ACAD
1000
AcDbSavedByObjectVersion
1070
     0
1000
AcadProxyRoundTripData
1071
      502
1071
   917527
1070
     0
  0
ACAD_ZOMBIE_OBJECT
  5
1B87E
102
{ACAD_REACTORS
330
1B874
102
}
330
1B874
100
AcDbZombieObject
 90
      499
 91
      591
 93
      428
310
429499585B1A5CDD1A58C0108409028333333333333E3BF0000000000000FB01079019070040501508421405064090741402480A1B45
 94
        0
1001
ACAD
1000
AcDbSavedByObjectVersion
1070
     0
1000
AcadProxyRoundTripData
1071
      502
1071
   917527
1070
     0
  0
ACAD_ZOMBIE_OBJECT
  5
1B881
102
{ACAD_REACTORS
330
1B874
102
}
330
1B874
100
AcDbZombieObject
 90
      499
 91
      591
 93
      420
310
42151A1A58DAD95B8010D409028333333333333E3BF0000000000000FB010790141107004050150C41D405064090741402480A0352
 94
        0
1001
ACAD
1000
AcDbSavedByObjectVersion
1070
     0
1000
AcadProxyRoundTripData
1071
      502
1071
   917527
1070
     0
  0
DICTIONARY
  5
1B984
102
{ACAD_REACTORS
330
1B979
102
}
330
1B979
100
AcDbDictionary
1001
ACAD
1000
TREAT_AS_HARD
1070
     0
  0
XRECORD
  5
1B99D
102
{ACAD_REACTORS
330
1B979
102
}
330
1B979
100
AcDbXrecord
 90
-1023410169
  0
DICTIONARY
  5
1C119
330
1B872
100
AcDbDictionary
  3
ACAD_XREC_ROUNDTRIP
350
1C11A
1001
ACAD
1000
TREAT_AS_HARD
1070
     1
  0
DICTIONARY
  5
1C117
330
1B871
100
AcDbDictionary
  3
ACAD_XREC_ROUNDTRIP
350
1C118
1001
ACAD
1000
TREAT_AS_HARD
1070
     1
  0
DICTIONARY
  5
1C11B
330
1B873
100
AcDbDictionary
  3
ACAD_XREC_ROUNDTRIP
350
1C11C
1001
ACAD
1000
TREAT_AS_HARD
1070
     1
  0
DICTIONARY
  5
1C11F
330
1B891
100
AcDbDictionary
  3
ACAD_XREC_ROUNDTRIP
350
1C120
1001
ACAD
1000
TREAT_AS_HARD
1070
     1
  0
XRECORD
  5
1C11A
102
{ACAD_REACTORS
330
1C119
102
}
330
1C119
100
AcDbXrecord
102
MATERIAL
148
0.0
149
0.0
149
0.0
 93
        0
 94
       63
282
     0
 72
     1
 77
     1
171
     1
175
     1
179
     1
273
     0
  0
XRECORD
  5
1C118
102
{ACAD_REACTORS
330
1C117
102
}
330
1C117
100
AcDbXrecord
102
MATERIAL
148
0.0
149
0.0
149
0.0
 93
        0
 94
       63
282
     0
 72
     1
 77
     1
171
     1
175
     1
179
     1
273
     0
  0
XRECORD
  5
1C11C
102
{ACAD_REACTORS
330
1C11B
102
}
330
1C11B
100
AcDbXrecord
102
MATERIAL
148
0.0
149
0.0
149
0.0
 93
        0
 94
       63
282
     0
 72
     1
 77
     1
171
     1
175
     1
179
     1
273
     0
  0
XRECORD
  5
1C120
102
{ACAD_REACTORS
330
1C11F
102
}
330
1C11F
100
AcDbXrecord
102
ACAD_ROUNDTRIP_PRE2007_TABLESTYLE
 90
      512
 91
        0
  1

 92
      512
 93
        0
  2

 94
      512
 95
        0
  3

  0
ENDSEC
  0
EOF
