  0
SECTION
  2
HEADER
  9
$ACADVER
  1
AC1009
  9
$INSBASE
 10
0.0
 20
0.0
 30
0.0
  9
$EXTMIN
 10
-378.0952891936704
 20
-269.33518848444231
 30
-0.0000000000112498
  9
$EXTMAX
 10
333.16851988500952
 20
250.48101934869891
 30
0.0000000000002956
  9
$LIMMIN
 10
-410.0
 20
-286.0
  9
$LIMMAX
 10
408.99999999999989
 20
279.0
  9
$ORTHOMODE
 70
     1
  9
$REGENMODE
 70
     1
  9
$FILLMODE
 70
     1
  9
$QTEXTMODE
 70
     0
  9
$MIRRTEXT
 70
     0
  9
$DRAGMODE
 70
     2
  9
$LTSCALE
 40
1.0
  9
$OSMODE
 70
     0
  9
$ATTMODE
 70
     1
  9
$TEXTSIZE
 40
2.5
  9
$TRACEWID
 40
1.0
  9
$TEXTSTYLE
  7
STANDARD
  9
$CLAYER
  8
0
  9
$CELTYPE
  6
BYLAYER
  9
$CECOLOR
 62
   256
  9
$DIMSCALE
 40
1.0
  9
$DIMASZ
 40
1.5
  9
$DIMEXO
 40
3.0
  9
$DIMDLI
 40
7.0
  9
$DIMRND
 40
0.0
  9
$DIMDLE
 40
0.0
  9
$DIMEXE
 40
1.0
  9
$DIMTP
 40
0.1
  9
$DIMTM
 40
0.1
  9
$DIMTXT
 40
10.0
  9
$DIMCEN
 40
0.0
  9
$DIMTSZ
 40
0.0
  9
$DIMTOL
 70
     0
  9
$DIMLIM
 70
     0
  9
$DIMTIH
 70
     0
  9
$DIMTOH
 70
     0
  9
$DIMSE1
 70
     0
  9
$DIMSE2
 70
     0
  9
$DIMTAD
 70
     1
  9
$DIMZIN
 70
     0
  9
$DIMBLK
  1
DOTSMALL
  9
$DIMASO
 70
     1
  9
$DIMSHO
 70
     1
  9
$DIMPOST
  1

  9
$DIMAPOST
  1
"
  9
$DIMALT
 70
     0
  9
$DIMALTD
 70
     2
  9
$DIMALTF
 40
0.0393701
  9
$DIMLFAC
 40
1.0
  9
$DIMTOFL
 70
     1
  9
$DIMTVP
 40
0.0
  9
$DIMTIX
 70
     0
  9
$DIMSOXD
 70
     0
  9
$DIMSAH
 70
     0
  9
$DIMBLK1
  1

  9
$DIMBLK2
  1

  9
$DIMSTYLE
  2
SANKYO
  9
$DIMCLRD
 70
   256
  9
$DIMCLRE
 70
   256
  9
$DIMCLRT
 70
   256
  9
$DIMTFAC
 40
0.71
  9
$DIMGAP
 40
0.5
  9
$LUNITS
 70
     2
  9
$LUPREC
 70
     4
  9
$SKETCHINC
 40
1.0
  9
$FILLETRAD
 40
0.5
  9
$AUNITS
 70
     0
  9
$AUPREC
 70
     0
  9
$MENU
  1
.
  9
$ELEVATION
 40
0.0
  9
$PELEVATION
 40
0.0
  9
$THICKNESS
 40
0.0
  9
$LIMCHECK
 70
     0
  9
$BLIPMODE
 70
     0
  9
$CHAMFERA
 40
10.0
  9
$CHAMFERB
 40
10.0
  9
$SKPOLY
 70
     0
  9
$TDCREATE
 40
2452388.6082117362
  9
$TDUPDATE
 40
2456027.6125321868
  9
$TDINDWG
 40
1.8620491204
  9
$TDUSRTIMER
 40
1.8620491204
  9
$USRTIMER
 70
     1
  9
$ANGBASE
 50
0.0
  9
$ANGDIR
 70
     0
  9
$PDMODE
 70
     0
  9
$PDSIZE
 40
0.0
  9
$PLINEWID
 40
0.0
  9
$COORDS
 70
     1
  9
$SPLFRAME
 70
     0
  9
$SPLINETYPE
 70
     6
  9
$SPLINESEGS
 70
     8
  9
$ATTDIA
 70
     0
  9
$ATTREQ
 70
     1
  9
$HANDLING
 70
-16383
  9
$HANDSEED
  5
1C245
  9
$SURFTAB1
 70
     6
  9
$SURFTAB2
 70
     6
  9
$SURFTYPE
 70
     6
  9
$SURFU
 70
     6
  9
$SURFV
 70
     6
  9
$UCSNAME
  2

  9
$UCSORG
 10
0.0
 20
0.0
 30
0.0
  9
$UCSXDIR
 10
1.0
 20
0.0
 30
0.0
  9
$UCSYDIR
 10
0.0
 20
1.0
 30
0.0
  9
$PUCSNAME
  2

  9
$PUCSORG
 10
0.0
 20
0.0
 30
0.0
  9
$PUCSXDIR
 10
1.0
 20
0.0
 30
0.0
  9
$PUCSYDIR
 10
0.0
 20
1.0
 30
0.0
  9
$USERI1
 70
     0
  9
$USERI2
 70
     1
  9
$USERI3
 70
     0
  9
$USERI4
 70
     0
  9
$USERI5
 70
     0
  9
$USERR1
 40
0.0
  9
$USERR2
 40
0.0
  9
$USERR3
 40
0.0
  9
$USERR4
 40
0.0
  9
$USERR5
 40
0.0
  9
$WORLDVIEW
 70
     1
  9
$SHADEDGE
 70
     3
  9
$SHADEDIF
 70
    70
  9
$TILEMODE
 70
     1
  9
$MAXACTVP
 70
    48
  9
$PLIMCHECK
 70
     0
  9
$PEXTMIN
 10
1.0000000000000000E+020
 20
1.0000000000000000E+020
 30
1.0000000000000000E+020
  9
$PEXTMAX
 10
-1.0000000000000000E+020
 20
-1.0000000000000000E+020
 30
-1.0000000000000000E+020
  9
$PLIMMIN
 10
0.0
 20
0.0
  9
$PLIMMAX
 10
420.0
 20
297.0
  9
$UNITMODE
 70
     0
  9
$VISRETAIN
 70
     1
  9
$PLINEGEN
 70
     0
  9
$PSLTSCALE
 70
     1
  0
ENDSEC
  0
SECTION
  2
TABLES
  0
TABLE
  2
VPORT
 70
     2
  0
VPORT
  2
*ACTIVE
 70
     0
 10
0.0
 20
0.0
 11
1.0
 21
1.0
 12
-22.463384654330401
 22
-9.4270845678717023
 13
0.0
 23
0.0
 14
2.5
 24
2.5
 15
10.0
 25
10.0
 16
0.0
 26
0.0
 36
1.0
 17
0.0
 27
0.0
 37
0.0
 40
524.06538664376637
 41
1.3969986357435189
 42
50.0
 43
0.0
 44
0.0
 50
0.0
 51
0.0
 71
    16
 72
   100
 73
     1
 74
     0
 75
     0
 76
     0
 77
     0
 78
     0
  0
ENDTAB
  0
TABLE
  2
LTYPE
 70
    17
  0
LTYPE
  2
CONTINUOUS
 70
     0
  3
Solid line
 72
    65
 73
     0
 40
0.0
  0
LTYPE
  2
CENTER2
 70
     0
  3
Center (.5x) ___ _ ___ _ ___ _ ___ _ ___ _ ___
 72
    65
 73
     4
 40
28.574999999999989
 49
19.050000000000001
 49
-3.174999999999998
 49
3.174999999999998
 49
-3.174999999999998
  0
LTYPE
  2
DASHED2
 70
     0
  3
Dashed (.5x) _ _ _ _ _ _ _ _ _ _ _ _ _ _ _ _ _
 72
    65
 73
     2
 40
9.5249999999999986
 49
6.349999999999997
 49
-3.174999999999998
  0
ENDTAB
  0
TABLE
  2
LAYER
 70
     4
  0
LAYER
  2
0
 70
     0
 62
     7
  6
CONTINUOUS
  0
LAYER
  2
SU
 70
     0
 62
     7
  6
CONTINUOUS
  0
LAYER
  2
KI
 70
     0
 62
     7
  6
CONTINUOUS
  0
LAYER
  2
OS
 70
     0
 62
     7
  6
CONTINUOUS
  0
ENDTAB
  0
TABLE
  2
STYLE
 70
     4
  0
STYLE
  2
STANDARD
 70
     0
 40
0.0
 41
0.8299999999999999
 50
0.0
 71
     0
 42
2.5
  3
txt.shx
  4
extfont.shx
  0
ENDTAB
  0
TABLE
  2
VIEW
 70
     6
  0
VIEW
  2
AM_VIEW1
 70
     0
 40
148.9999998536185
 10
126.61001776470241
 20
223.4999997804278
 41
253.2200355294051
 11
0.0
 21
0.0
 31
1.0
 12
0.0
 22
0.0
 32
0.0
 42
50.0
 43
0.0
 44
0.0
 50
0.0
 71
    16
  0
VIEW
  2
AM_VIEW2
 70
     0
 40
148.9999998536185
 10
294.38998139545481
 20
223.4999997804278
 41
253.2200355294051
 11
0.0
 21
0.0
 31
1.0
 12
0.0
 22
0.0
 32
0.0
 42
50.0
 43
0.0
 44
0.0
 50
0.0
 71
    16
  0
VIEW
  2
AM_VIEW3
 70
     0
 40
148.9999998536185
 10
126.61001776470241
 20
74.499999926809267
 41
253.2200355294051
 11
0.0
 21
0.0
 31
1.0
 12
0.0
 22
0.0
 32
0.0
 42
50.0
 43
0.0
 44
0.0
 50
0.0
 71
    16
  0
VIEW
  2
AM_VIEW4
 70
     0
 40
148.9999998536185
 10
294.38998139545481
 20
74.499999926809267
 41
253.2200355294051
 11
0.0
 21
0.0
 31
1.0
 12
0.0
 22
0.0
 32
0.0
 42
50.0
 43
0.0
 44
0.0
 50
0.0
 71
    16
  0
VIEW
  2
AM_VIEW5
 70
     0
 40
148.9999998536185
 10
210.49999958007871
 20
148.9999998536185
 41
253.2200355294051
 11
0.0
 21
0.0
 31
1.0
 12
0.0
 22
0.0
 32
0.0
 42
50.0
 43
0.0
 44
0.0
 50
0.0
 71
    16
  0
VIEW
  2
AM_VIEW6
 70
     0
 40
297.99701970723982
 10
210.49999958007871
 20
148.9999998536185
 41
506.43500665810018
 11
0.0
 21
0.0
 31
1.0
 12
0.0
 22
0.0
 32
0.0
 42
50.0
 43
0.0
 44
0.0
 50
0.0
 71
    16
  0
ENDTAB
  0
TABLE
  2
UCS
 70
     0
  0
ENDTAB
  0
TABLE
  2
APPID
 70
    22
  0
APPID
  2
ACAD
 70
     0
  0
APPID
  2
MCAD_NO_VIS
 70
     0
  0
APPID
  2
ACAD_TEMP_GRAPHIC
 70
     0
  0
APPID
  2
ACATTRIBSERVICES
 70
     0
  0
APPID
  2
GENIUS_GENDIMSH_14
 70
     0
  0
APPID
  2
GENIUS_GENOLIS_13
 70
     0
  0
APPID
  2
GENIUS_GENOENT_13
 70
     0
  0
APPID
  2
GENIUS_GENODEF_13
 70
     0
  0
APPID
  2
GENIUS_GENOBJ-N-TIT_13
 70
     0
  0
APPID
  2
GENIUS_GENTITLE_13
 70
     0
  0
APPID
  2
GENIUS_GENOREF_13
 70
     0
  0
APPID
  2
GENIUS_GENSCREG_15
 70
     0
  0
APPID
  2
GENIUS_GENOBJ-N-SDF_13
 70
     0
  0
APPID
  2
GENIUS_GENOBJ-N-FIL_13
 70
     0
  0
APPID
  2
GENIUS_GENREC_14
 70
     0
  0
APPID
  2
GENIUS_GENOBJ-N-REC_13
 70
     0
  0
APPID
  2
GENIUS_GENDTOL_13
 70
     0
  0
APPID
  2
GENIUS_GENOBJ-N-CEN_13
 70
     0
  0
APPID
  2
GENIUS_GENOBJ-N-HTC_13
 70
     0
  0
APPID
  2
GENIUS_GENHATCH_13
 70
     0
  0
APPID
  2
GENIUS_GENFIL_13
 70
     0
  0
APPID
  2
GENIUS_GENOBJ-N-CHA_13
 70
     0
  0
ENDTAB
  0
TABLE
  2
DIMSTYLE
 70
     7
  0
DIMSTYLE
  2
SANKYO
 70
     0
  3

  4
"
  5

  6

  7

 40
1.0
 41
2.399999999999999
 42
3.0
 43
7.0
 44
3.0
 45
0.0
 46
0.0
 47
0.1
 48
0.1
140
4.0
141
0.0
142
0.0
143
0.0393701
144
1.0
145
0.0
146
0.71
147
1.3
 71
     0
 72
     0
 73
     0
 74
     0
 75
     0
 76
     0
 77
     1
 78
     8
170
     0
171
     2
172
     1
173
     0
174
     0
175
     0
176
   256
177
   256
178
   256
  0
ENDTAB
  0
ENDSEC
  0
SECTION
  2
BLOCKS
  0
BLOCK
  8
0
  2
$MODEL_SPACE
 70
     0
 10
0.0
 20
0.0
 30
0.0
  3
$MODEL_SPACE
  1

  0
ENDBLK
  5
1BC17
  8
0
  0
BLOCK
 67
     1
  8
0
  2
$PAPER_SPACE
 70
     0
 10
0.0
 20
0.0
 30
0.0
  3
$PAPER_SPACE
  1

  0
ENDBLK
  5
1BC13
 67
     1
  8
0
  0
BLOCK
  8
0
  2
_DOTSMALL
 70
     0
 10
0.0
 20
0.0
 30
0.0
  3
_DOTSMALL
  1

  0
POLYLINE
  5
1BC5F
  8
0
  6
BYBLOCK
 62
     0
 66
     1
 10
0.0
 20
0.0
 30
0.0
 70
     1
 40
1.0
 41
1.0
  0
VERTEX
  5
1BC60
  8
0
  6
BYBLOCK
 62
     0
 10
-0.125
 20
0.0
 30
0.0
 42
1.0
  0
VERTEX
  5
1BC61
  8
0
  6
BYBLOCK
 62
     0
 10
0.125
 20
0.0
 30
0.0
 42
1.0
  0
SEQEND
  5
1BC62
  8
0
  6
BYBLOCK
 62
     0
  0
ENDBLK
  5
1BC63
  8
0
  0
ENDSEC
  0
SECTION
  2
ENTITIES
  0
LINE
  5
1BC68
  8
KI
  6
CONTINUOUS
 62
     7
 10
-156.76332064105191
 20
156.7047657657244
 30
0.0
 11
-156.76332064105191
 21
27.45668743779062
 31
0.0
  0
LINE
  5
1BC69
  8
KI
  6
CONTINUOUS
 62
     7
 10
-156.76332064105191
 20
25.45668743779062
 30
0.0
 11
-156.76332064105191
 21
-70.791390897414686
 31
0.0
  0
TEXT
  5
1BC6A
  8
KI
  6
CONTINUOUS
 62
     7
 10
218.72700534888969
 20
-260.34023246429672
 30
0.0
 40
7.0
  1
厚壁枠（ケーシング枠・L型タイプ）
 41
0.84552428
  0
TEXT
  5
1BC6B
  8
KI
  6
CONTINUOUS
 62
     7
 10
-353.71134397188422
 20
243.4766688808366
 30
0.0
 40
7.0
  1
●標準たて枠
 41
0.84552428
  0
LINE
  5
1BC6C
  8
KI
  6
CONTINUOUS
 62
     7
 10
-260.2633182952278
 20
25.456687438820119
 30
0.0
 11
-260.26331829522712
 21
-47.791388068497596
 31
0.0
  0
LINE
  5
1BC6D
  8
KI
  6
CONTINUOUS
 62
     7
 10
-236.26332076962589
 20
-47.791388068497596
 30
0.0
 11
-236.2633207696262
 21
25.456687438820119
 31
0.0
  0
LINE
  5
1BC6E
  8
KI
  6
CONTINUOUS
 62
     7
 10
-225.2633207693741
 20
-62.791388068497611
 30
0.0
 11
-225.26332076937479
 21
25.456687438820119
 31
0.0
  0
LINE
  5
1BC6F
  8
KI
  6
CONTINUOUS
 62
     7
 10
-185.26331906086119
 20
-62.791388068497611
 30
0.0
 11
-185.2633190608617
 21
25.456687438820119
 31
0.0
  0
LINE
  5
1BC70
  8
KI
  6
CONTINUOUS
 62
     7
 10
-317.76332064699801
 20
25.456687438824641
 30
0.0
 11
-317.76332064699659
 21
-70.791390896382183
 31
0.0
  0
LINE
  5
1BC71
  8
KI
  6
CONTINUOUS
 62
     7
 10
-177.76332064709811
 20
25.456687438824641
 30
0.0
 11
-177.76332064709649
 21
-70.791390896381287
 31
0.0
  0
LINE
  5
1BC72
  8
SU
  6
CONTINUOUS
 62
     3
 10
-243.7744492387869
 20
-246.87994046408329
 30
0.0
 11
-215.01332150520159
 21
-218.11881264152811
 31
0.0
  0
LINE
  5
1BC73
  8
OS
  6
CONTINUOUS
 62
     2
 10
-136.263320647098
 20
-82.791390896381259
 30
0.0
 11
-357.76332064699562
 21
-82.791390896383817
 31
0.0
  0
LINE
  5
1BC74
  8
OS
  6
CONTINUOUS
 62
     2
 10
-150.7633200747909
 20
-231.618812641528
 30
0.0
 11
-347.76332064699773
 21
-231.618812641528
 31
0.0
  0
LINE
  5
1BC75
  8
OS
  6
CONTINUOUS
 62
     2
 10
-150.7633200747909
 20
-228.61881264152811
 30
0.0
 11
-347.76332064699773
 21
-228.61881264152811
 31
0.0
  0
LINE
  5
1BC76
  8
OS
  6
CONTINUOUS
 62
     2
 10
-150.7633200747909
 20
-225.618812641528
 30
0.0
 11
-347.76332064699773
 21
-225.618812641528
 31
0.0
  0
LINE
  5
1BC77
  8
OS
  6
CONTINUOUS
 62
     2
 10
-150.7633200747909
 20
-222.618812641528
 30
0.0
 11
-347.76332064699773
 21
-222.618812641528
 31
0.0
  0
LINE
  5
1BC78
  8
OS
  6
CONTINUOUS
 62
     2
 10
-150.7633200747909
 20
-234.61881264152811
 30
0.0
 11
-347.76332064699773
 21
-234.61881264152811
 31
0.0
  0
LINE
  5
1BC79
  8
KI
  6
CONTINUOUS
 62
     7
 10
-258.76331988531149
 20
-123.97075028512241
 30
0.0
 11
-258.76331988531109
 21
-222.618812641528
 31
0.0
  0
LINE
  5
1BC7A
  8
SU
  6
CONTINUOUS
 62
     3
 10
-298.2335403276162
 20
-246.87994046408329
 30
0.0
 11
-243.7744492387869
 21
-246.87994046408329
 31
0.0
  0
LINE
  5
1BC7B
  8
SU
  6
CONTINUOUS
 62
     3
 10
-278.84978097198399
 20
-34.286376946826053
 30
0.0
 11
-266.21057751458341
 21
-49.34919302739825
 31
0.0
  0
LINE
  5
1BC7C
  8
OS
  6
CONTINUOUS
 62
     2
 10
-289.26331640997199
 20
-70.791390896385622
 30
0.0
 11
-357.76332064699562
 21
-70.791390896383788
 31
0.0
  0
LINE
  5
1BC7D
  8
OS
  6
CONTINUOUS
 62
     2
 10
-289.26331640997199
 20
-79.791390896385622
 30
0.0
 11
-357.76332064699562
 21
-79.791390896376782
 31
0.0
  0
LINE
  5
1BC7E
  8
OS
  6
CONTINUOUS
 62
     2
 10
-289.26331640997199
 20
-73.791390896385622
 30
0.0
 11
-357.76332064699562
 21
-73.791390896383774
 31
0.0
  0
LINE
  5
1BC7F
  8
OS
  6
CONTINUOUS
 62
     2
 10
-289.26331640997199
 20
-76.791390896385622
 30
0.0
 11
-357.76332064699562
 21
-76.791390896383788
 31
0.0
  0
LINE
  5
1BC80
  8
SU
  6
CONTINUOUS
 62
     3
 10
-316.4856656772173
 20
-34.286376946826053
 30
0.0
 11
-278.84978097198399
 21
-34.286376946826053
 31
0.0
  0
LINE
  5
1BC81
  8
OS
  6
CONTINUOUS
 62
     2
 10
-289.26331640997199
 20
-82.791390896381259
 30
0.0
 11
-289.26331640997199
 21
-70.7913908963897
 31
0.0
  0
LINE
  5
1BC82
  8
KI
  6
DASHED2
 62
     7
 10
-317.76332064699659
 20
-70.791390896381458
 30
0.0
 11
-317.76332064699659
 21
-82.791390896373287
 31
0.0
  0
LINE
  5
1BC83
  8
KI
  6
CONTINUOUS
 62
     7
 10
-177.7633206470968
 20
-123.97075028512241
 30
0.0
 11
-177.7633206470968
 21
-222.618812641528
 31
0.0
  0
LINE
  5
1BC84
  8
KI
  6
CONTINUOUS
 62
     7
 10
-196.26332150520159
 20
-214.618812641528
 30
0.0
 11
-196.26332150520159
 21
-184.118812641528
 31
0.0
  0
LINE
  5
1BC85
  8
KI
  6
CONTINUOUS
 62
     7
 10
-211.26332150520159
 20
-214.618812641528
 30
0.0
 11
-211.26332150520159
 21
-184.118812641528
 31
0.0
  0
LINE
  5
1BC86
  8
KI
  6
CONTINUOUS
 62
     7
 10
-183.7633206509451
 20
-214.618812641528
 30
0.0
 11
-183.7633206509453
 21
-123.97075028512241
 31
0.0
  0
LINE
  5
1BC87
  8
KI
  6
CONTINUOUS
 62
     7
 10
-223.76332235945799
 20
-214.618812641528
 30
0.0
 11
-223.7633223594583
 21
-123.97075028512241
 31
0.0
  0
LINE
  5
1BC88
  8
KI
  6
CONTINUOUS
 62
     7
 10
-234.7633223597096
 20
-222.618812641528
 30
0.0
 11
-234.76332235971
 21
-123.97075028512241
 31
0.0
  0
LINE
  5
1BC89
  8
KI
  6
CONTINUOUS
 62
     7
 10
-192.51332150520159
 20
-165.86881264152811
 30
0.0
 11
-192.51332150520159
 21
-214.618812641528
 31
0.0
  0
LINE
  5
1BC8A
  8
KI
  6
CONTINUOUS
 62
     7
 10
-215.01332150520159
 20
-165.86881264152811
 30
0.0
 11
-215.01332150520159
 21
-214.618812641528
 31
0.0
  0
LINE
  5
1BC8B
  8
KI
  6
CONTINUOUS
 62
     7
 10
-223.76332235945799
 20
-214.618812641528
 30
0.0
 11
-211.26332150520159
 21
-214.618812641528
 31
0.0
  0
LINE
  5
1BC8C
  8
KI
  6
DASHED2
 62
     7
 10
-177.7633206470968
 20
-222.618812641528
 30
0.0
 11
-177.7633206470968
 21
-234.61881264151981
 31
0.0
  0
LINE
  5
1BC8D
  8
KI
  6
CONTINUOUS
 62
     7
 10
-196.26332150520159
 20
-214.618812641528
 30
0.0
 11
-183.7633206509451
 21
-214.618812641528
 31
0.0
  0
LINE
  5
1BC8E
  8
KI
  6
CONTINUOUS
 62
     7
 10
-196.26332150520159
 20
-184.118812641528
 30
0.0
 11
-211.26332150520159
 21
-184.118812641528
 31
0.0
  0
ARC
  5
1BC8F
  8
KI
  6
CONTINUOUS
 62
     7
 10
-203.76332150520159
 20
-165.86881264152811
 30
0.0
 40
11.25
 50
0.0
 51
180.0
  0
LINE
  5
1BC90
  8
KI
  6
CONTINUOUS
 62
     7
 10
-156.76332064105191
 20
-70.791390897414686
 30
0.0
 11
-177.76332064719909
 21
-70.79139089639763
 31
0.0
  0
LINE
  5
1BC91
  8
OS
  6
CONTINUOUS
 62
     2
 10
-136.263320647098
 20
-70.791390896381287
 30
0.0
 11
-179.26332064699571
 21
-70.791390896381287
 31
0.0
  0
LINE
  5
1BC92
  8
OS
  6
CONTINUOUS
 62
     2
 10
-136.263320647098
 20
-79.791390896381259
 30
0.0
 11
-179.26332064699571
 21
-79.791390896381259
 31
0.0
  0
LINE
  5
1BC93
  8
OS
  6
CONTINUOUS
 62
     2
 10
-136.263320647098
 20
-76.791390896381287
 30
0.0
 11
-179.26332064699571
 21
-76.791390896381287
 31
0.0
  0
LINE
  5
1BC94
  8
OS
  6
CONTINUOUS
 62
     2
 10
-136.263320647098
 20
-73.791390896381287
 30
0.0
 11
-179.26332064699571
 21
-73.791390896381287
 31
0.0
  0
LINE
  5
1BC95
  8
KI
  6
DASHED2
 62
     7
 10
-177.76332064709649
 20
-70.791390896381287
 30
0.0
 11
-177.76332064709649
 21
-82.791390896373088
 31
0.0
  0
LINE
  5
1BC96
  8
OS
  6
CONTINUOUS
 62
     2
 10
-179.26332064699571
 20
-82.791390896381259
 30
0.0
 11
-179.26332064699571
 21
-70.7913908963897
 31
0.0
  0
LINE
  5
1BC97
  8
KI
  6
CONTINUOUS
 62
     7
 10
-225.2633207693741
 20
-62.791388068497611
 30
0.0
 11
-185.26331906086119
 21
-62.791388068497611
 31
0.0
  0
LINE
  5
1BC98
  8
KI
  6
CONTINUOUS
 62
     7
 10
-260.26331829522712
 20
103.7047332533683
 30
0.0
 11
-260.26331829522752
 21
27.456687438823309
 31
0.0
  0
LINE
  5
1BC99
  8
KI
  6
CONTINUOUS
 62
     7
 10
-317.76332064699659
 20
27.456687438816122
 30
0.0
 11
-317.76332064699551
 21
123.70476577403061
 31
0.0
  0
LINE
  5
1BC9A
  8
KI
  6
CONTINUOUS
 62
     7
 10
-236.2633207696262
 20
27.456687438823309
 30
0.0
 11
-236.26332076962589
 21
103.7047332533683
 31
0.0
  0
LINE
  5
1BC9B
  8
KI
  6
CONTINUOUS
 62
     7
 10
-225.2633207693741
 20
120.7047332533685
 30
0.0
 11
-225.26332076937479
 21
27.456687438823309
 31
0.0
  0
LINE
  5
1BC9C
  8
KI
  6
CONTINUOUS
 62
     7
 10
-185.26331906086119
 20
120.7047332533685
 30
0.0
 11
-185.2633190608617
 21
27.456687438823309
 31
0.0
  0
LINE
  5
1BC9D
  8
KI
  6
CONTINUOUS
 62
     7
 10
-177.7633206470968
 20
123.704765774031
 30
0.0
 11
-177.76332064709811
 21
27.456687438816122
 31
0.0
  0
LINE
  5
1BC9E
  8
KI
  6
CONTINUOUS
 62
     7
 10
-185.26331906086119
 20
120.7047332533685
 30
0.0
 11
-225.2633207693741
 21
120.7047332533685
 31
0.0
  0
LINE
  5
1BC9F
  8
KI
  6
CONTINUOUS
 62
     7
 10
-317.76332064699801
 20
-123.97075028512241
 30
0.0
 11
-317.76332064699659
 21
-222.6188126415268
 31
0.0
  0
LINE
  5
1BCA0
  8
KI
  6
DASHED2
 62
     7
 10
-317.76332064699659
 20
-222.6188126415264
 30
0.0
 11
-317.76332064699659
 21
-234.6188126415181
 31
0.0
  0
LINE
  5
1BCA1
  8
KI
  6
CONTINUOUS
 62
     7
 10
236.71621988705471
 20
-100.2968680277299
 30
0.0
 11
234.6880960699778
 21
-100.2968680277299
 31
0.0
  0
LINE
  5
1BCA2
  8
KI
  6
CONTINUOUS
 62
     7
 10
235.0162198870548
 20
-54.296866315266492
 30
0.0
 11
139.016219887055
 21
-54.296866315266492
 31
0.0
  0
LINE
  5
1BCA3
  8
KI
  6
CONTINUOUS
 62
     7
 10
235.0162198870548
 20
-94.296868023779581
 30
0.0
 11
139.016219887055
 21
-94.296868023779581
 31
0.0
  0
LINE
  5
1BCA4
  8
KI
  6
CONTINUOUS
 62
     7
 10
37.016219887055129
 20
-100.2968680277299
 30
0.0
 11
137.016219887055
 21
-100.2968680277299
 31
0.0
  0
LINE
  5
1BCA5
  8
KI
  6
CONTINUOUS
 62
     7
 10
57.016219887055151
 20
-19.296868789664611
 30
0.0
 11
137.016219887055
 21
-19.296868789664611
 31
0.0
  0
LINE
  5
1BCA6
  8
KI
  6
CONTINUOUS
 62
     7
 10
137.016219887055
 20
-43.296866315266492
 30
0.0
 11
57.016219887055151
 21
-43.296866315266492
 31
0.0
  0
LINE
  5
1BCA7
  8
KI
  6
CONTINUOUS
 62
     7
 10
43.016228017220627
 20
-54.296866315266492
 30
0.0
 11
137.016219887055
 21
-54.296866315266492
 31
0.0
  0
LINE
  5
1BCA8
  8
KI
  6
CONTINUOUS
 62
     7
 10
41.01622530716562
 20
-94.296868023779581
 30
0.0
 11
137.016219887055
 21
-94.296868023779581
 31
0.0
  0
LINE
  5
1BCA9
  8
KI
  6
CONTINUOUS
 62
     7
 10
41.01622530716562
 20
-94.296868023779581
 30
0.0
 11
43.016228017220627
 21
-54.296866315266492
 31
0.0
  0
LINE
  5
1BCAA
  8
KI
  6
CONTINUOUS
 62
     7
 10
219.0162198870548
 20
-19.296868789664611
 30
0.0
 11
139.016219887055
 21
-19.296868789664611
 31
0.0
  0
LINE
  5
1BCAB
  8
KI
  6
CONTINUOUS
 62
     7
 10
139.016219887055
 20
-43.296866315266492
 30
0.0
 11
219.0162198870548
 21
-43.296866315266492
 31
0.0
  0
LINE
  5
1BCAC
  8
KI
  6
CONTINUOUS
 62
     7
 10
235.0162198870548
 20
-54.296866315266492
 30
0.0
 11
235.0162198870548
 21
-94.296868023779581
 31
0.0
  0
LINE
  5
1BCAD
  8
KI
  6
CONTINUOUS
 62
     7
 10
239.0162198870548
 20
9.7031312103353837
 30
0.0
 11
139.016219887055
 21
9.7031312103353837
 31
0.0
  0
LINE
  5
1BCAE
  8
KI
  6
CONTINUOUS
 62
     7
 10
239.0162198870548
 20
9.7031312103353837
 30
0.0
 11
139.016219887055
 21
9.7031312103353837
 31
0.0
  0
LINE
  5
1BCAF
  8
KI
  6
CONTINUOUS
 62
     7
 10
37.016219887055129
 20
9.7031312103353837
 30
0.0
 11
137.016219887055
 21
9.7031312103353837
 31
0.0
  0
LINE
  5
1BCB0
  8
KI
  6
CONTINUOUS
 62
     7
 10
37.016219887055129
 20
9.7031312103353837
 30
0.0
 11
137.016219887055
 21
9.7031312103353837
 31
0.0
  0
TEXT
  5
1BCB1
  8
KI
  6
CONTINUOUS
 62
     7
 10
218.6672664069456
 20
-242.4411371107378
 30
0.0
 40
7.0
  1
D TOS多機能商品シリーズ
 41
0.84552428
  0
TEXT
  5
1BCB2
  8
KI
  6
CONTINUOUS
 62
     7
 10
218.6672664069456
 20
-251.36442957220399
 30
0.0
 40
7.0
  1
防音ドア
 41
0.84552428
  0
TEXT
  5
1BCB3
  8
KI
  6
CONTINUOUS
 62
     7
 10
217.70790036644311
 20
-269.30914795167661
 30
0.0
 40
7.0
  1
dt05a005
 41
0.84552428
  0
LINE
  5
1BCB4
  8
KI
  6
CONTINUOUS
 62
     7
 10
239.0162198870548
 20
-15.29686631526832
 30
0.0
 11
139.016219887055
 21
-15.29686631526832
 31
0.0
  0
LINE
  5
1BCB5
  8
KI
  6
CONTINUOUS
 62
     7
 10
37.016219887055129
 20
-15.29686631526832
 30
0.0
 11
137.016219887055
 21
-15.29686631526832
 31
0.0
  0
LINE
  5
1BCB6
  8
KI
  6
CONTINUOUS
 62
     7
 10
232.37405214227161
 20
-100.2968680277299
 30
0.0
 11
139.016219887055
 21
-100.2968680277299
 31
0.0
  0
LINE
  5
1BCB7
  8
OS
  6
CONTINUOUS
 62
     2
 10
-268.35877519913112
 20
-82.791390896381543
 30
0.0
 11
-236.2633207696262
 21
-50.695936466876567
 31
0.0
  0
LINE
  5
1BCB8
  8
OS
  6
CONTINUOUS
 62
     2
 10
-258.45928026251943
 20
-82.791390896381728
 30
0.0
 11
-236.2633207696262
 21
-60.595431403488462
 31
0.0
  0
LINE
  5
1BCB9
  8
OS
  6
CONTINUOUS
 62
     2
 10
-248.55978532590791
 20
-82.791390896381685
 30
0.0
 11
-233.55978249802439
 21
-67.791388068498122
 31
0.0
  0
LINE
  5
1BCBA
  8
OS
  6
CONTINUOUS
 62
     2
 10
-288.15776507235472
 20
-82.791390896381813
 30
0.0
 11
-253.1577622444708
 21
-47.791388068498101
 31
0.0
  0
LINE
  5
1BCBB
  8
OS
  6
CONTINUOUS
 62
     2
 10
-278.25827013574298
 20
-82.791390896381685
 30
0.0
 11
-243.2582673078594
 21
-47.791388068498101
 31
0.0
  0
LINE
  5
1BCBC
  8
OS
  6
CONTINUOUS
 62
     2
 10
-208.96180557946099
 20
-82.791390896381685
 30
0.0
 11
-193.96180275157761
 21
-67.791388068498122
 31
0.0
  0
LINE
  5
1BCBD
  8
OS
  6
CONTINUOUS
 62
     2
 10
-218.8613005160729
 20
-82.791390896381728
 30
0.0
 11
-203.8612976881893
 21
-67.791388068498122
 31
0.0
  0
LINE
  5
1BCBE
  8
OS
  6
CONTINUOUS
 62
     2
 10
-238.66029038929639
 20
-82.791390896381813
 30
0.0
 11
-223.6602875614125
 21
-67.791388068498122
 31
0.0
  0
LINE
  5
1BCBF
  8
OS
  6
CONTINUOUS
 62
     2
 10
-228.7607954526845
 20
-82.791390896381813
 30
0.0
 11
-213.76079262480081
 21
-67.791388068498122
 31
0.0
  0
LINE
  5
1BCC0
  8
OS
  6
CONTINUOUS
 62
     2
 10
-199.0623106428493
 20
-82.791390896381813
 30
0.0
 11
-184.06230781496581
 21
-67.791388068498122
 31
0.0
  0
LINE
  5
1BCC1
  8
OS
  6
CONTINUOUS
 62
     2
 10
-189.16281570623781
 20
-82.791390896381685
 30
0.0
 11
-179.2633207696262
 21
-72.891895959769954
 31
0.0
  0
LINE
  5
1BCC2
  8
OS
  6
CONTINUOUS
 62
     2
 10
-289.26331640997182
 20
-73.997447297387012
 30
0.0
 11
-263.05725718108141
 21
-47.791388068498136
 31
0.0
  0
LINE
  5
1BCC3
  8
KI
  6
CONTINUOUS
 62
     7
 10
-159.26331873048619
 20
25.45668743779062
 30
0.0
 11
-159.26331873048619
 21
-70.791390897414686
 31
0.0
  0
LINE
  5
1BCC4
  8
KI
  6
CONTINUOUS
 62
     7
 10
-159.26331873048611
 20
156.7047657662373
 30
0.0
 11
-159.26331873048619
 21
27.45668743779062
 31
0.0
  0
LINE
  5
1BCC5
  8
KI
  6
CONTINUOUS
 62
     7
 10
-156.76332064105191
 20
156.70476576675011
 30
0.0
 11
-161.76332064268871
 21
156.7047657644855
 31
0.0
  0
LINE
  5
1BCC6
  8
KI
  6
CONTINUOUS
 62
     7
 10
-338.76332065314381
 20
156.70476576675011
 30
0.0
 11
-333.76332065150677
 21
156.7047657644855
 31
0.0
  0
LINE
  5
1BCC7
  8
KI
  6
CONTINUOUS
 62
     7
 10
-336.26332256370961
 20
25.45668743779062
 30
0.0
 11
-336.26332256370961
 21
-70.791390897414686
 31
0.0
  0
LINE
  5
1BCC8
  8
KI
  6
CONTINUOUS
 62
     7
 10
-338.76332065314381
 20
25.45668743779062
 30
0.0
 11
-338.76332065314381
 21
-70.791390897414686
 31
0.0
  0
LINE
  5
1BCC9
  8
KI
  6
CONTINUOUS
 62
     7
 10
-336.26332256370961
 20
156.7047657662373
 30
0.0
 11
-336.26332256370961
 21
27.45668743779062
 31
0.0
  0
LINE
  5
1BCCA
  8
KI
  6
CONTINUOUS
 62
     7
 10
-338.76332065314381
 20
156.7047657657244
 30
0.0
 11
-338.76332065314381
 21
27.45668743779062
 31
0.0
  0
LINE
  5
1BCCB
  8
KI
  6
CONTINUOUS
 62
     7
 10
-338.76332065314381
 20
-70.791390897414686
 30
0.0
 11
-317.76332064699659
 21
-70.79139089639763
 31
0.0
  0
LINE
  5
1BCCC
  8
KI
  6
CONTINUOUS
 62
     7
 10
-159.26331873048619
 20
-123.97075028512241
 30
0.0
 11
-159.26331873048619
 21
-222.618812641528
 31
0.0
  0
LINE
  5
1BCCD
  8
KI
  6
CONTINUOUS
 62
     7
 10
-156.76332064105191
 20
-123.97075028512241
 30
0.0
 11
-156.76332064105191
 21
-222.618812641528
 31
0.0
  0
LINE
  5
1BCCE
  8
KI
  6
CONTINUOUS
 62
     7
 10
-338.76332065314381
 20
-123.97075028512241
 30
0.0
 11
-338.76332065314381
 21
-222.618812641528
 31
0.0
  0
LINE
  5
1BCCF
  8
KI
  6
CONTINUOUS
 62
     7
 10
-336.26332256370961
 20
-123.97075028512241
 30
0.0
 11
-336.26332256370961
 21
-222.618812641528
 31
0.0
  0
LINE
  5
1BCD0
  8
KI
  6
CONTINUOUS
 62
     7
 10
249.016219903051
 20
-93.79686897197027
 30
0.0
 11
248.0162199026409
 21
-94.796868971560002
 31
0.0
  0
LINE
  5
1BCD1
  8
KI
  6
CONTINUOUS
 62
     7
 10
255.01621990305111
 20
-93.796868020756492
 30
0.0
 11
249.016219903051
 21
-93.796868018295285
 31
0.0
  0
LINE
  5
1BCD2
  8
KI
  6
CONTINUOUS
 62
     7
 10
255.01621989689801
 20
-108.79686802075631
 30
0.0
 11
255.01621990305111
 21
-93.796868020756492
 31
0.0
  0
LINE
  5
1BCD3
  8
KI
  6
CONTINUOUS
 62
     7
 10
248.0162199026409
 20
-94.796868971560002
 30
0.0
 11
248.0162199026409
 21
-120.2968699356921
 31
0.0
  0
LINE
  5
1BCD4
  8
KI
  6
CONTINUOUS
 62
     7
 10
250.5162198911552
 20
-122.7968680189104
 30
0.0
 11
272.01621990264073
 21
-122.7968680277299
 31
0.0
  0
LINE
  5
1BCD5
  8
KI
  6
CONTINUOUS
 62
     7
 10
248.0162199026409
 20
-120.2968699356921
 30
0.0
 11
250.5162198911552
 21
-122.7968699262584
 31
0.0
  0
LINE
  5
1BCD6
  8
KI
  6
CONTINUOUS
 62
     7
 10
272.01621990264073
 20
-108.7968680277299
 30
0.0
 11
255.01621989689801
 21
-108.79686802075631
 31
0.0
  0
LINE
  5
1BCD7
  8
KI
  6
CONTINUOUS
 62
     7
 10
272.01621990264073
 20
-108.7968680277299
 30
0.0
 11
272.01621990264073
 21
-122.7968680277299
 31
0.0
  0
LINE
  5
1BCD8
  8
KI
  6
CONTINUOUS
 62
     7
 10
249.016219903051
 20
30.203132916510519
 30
0.0
 11
248.01621990264081
 21
31.20313291610023
 31
0.0
  0
LINE
  5
1BCD9
  8
KI
  6
CONTINUOUS
 62
     7
 10
255.016219903051
 20
30.20313196529673
 30
0.0
 11
249.016219903051
 21
30.203131962835521
 31
0.0
  0
LINE
  5
1BCDA
  8
KI
  6
CONTINUOUS
 62
     7
 10
255.01621989689781
 20
45.203131965296727
 30
0.0
 11
255.016219903051
 21
30.20313196529673
 31
0.0
  0
LINE
  5
1BCDB
  8
KI
  6
CONTINUOUS
 62
     7
 10
248.01621990264081
 20
31.20313291610023
 30
0.0
 11
248.01621990264081
 21
56.7031338802325
 31
0.0
  0
LINE
  5
1BCDC
  8
KI
  6
CONTINUOUS
 62
     7
 10
250.516219891155
 20
59.203131963450787
 30
0.0
 11
272.01621990264073
 21
59.203131972270171
 31
0.0
  0
LINE
  5
1BCDD
  8
KI
  6
CONTINUOUS
 62
     7
 10
248.01621990264081
 20
56.7031338802325
 30
0.0
 11
250.516219891155
 21
59.203133870798752
 31
0.0
  0
LINE
  5
1BCDE
  8
KI
  6
CONTINUOUS
 62
     7
 10
272.01621990264073
 20
45.203131972270171
 30
0.0
 11
255.01621989689781
 21
45.203131965296727
 31
0.0
  0
LINE
  5
1BCDF
  8
KI
  6
CONTINUOUS
 62
     7
 10
272.01621990264073
 20
45.203131972270171
 30
0.0
 11
272.01621990264073
 21
59.203131972270171
 31
0.0
  0
LINE
  5
1BCE0
  8
KI
  6
CONTINUOUS
 62
     7
 10
27.01621990223628
 20
-93.79686897197027
 30
0.0
 11
28.016219902646469
 21
-94.796868971560002
 31
0.0
  0
LINE
  5
1BCE1
  8
KI
  6
CONTINUOUS
 62
     7
 10
21.01621990223628
 20
-93.796868020756492
 30
0.0
 11
27.01621990223628
 21
-93.796868018295285
 31
0.0
  0
LINE
  5
1BCE2
  8
KI
  6
CONTINUOUS
 62
     7
 10
21.016219908389321
 20
-108.79686802075631
 30
0.0
 11
21.01621990223628
 21
-93.796868020756492
 31
0.0
  0
LINE
  5
1BCE3
  8
KI
  6
CONTINUOUS
 62
     7
 10
28.016219902646469
 20
-94.796868971560002
 30
0.0
 11
28.016219902646469
 21
-120.2968699356921
 31
0.0
  0
LINE
  5
1BCE4
  8
KI
  6
CONTINUOUS
 62
     7
 10
25.51621991413225
 20
-122.7968680189104
 30
0.0
 11
4.0162199026464691
 21
-122.7968680277299
 31
0.0
  0
LINE
  5
1BCE5
  8
KI
  6
CONTINUOUS
 62
     7
 10
28.016219902646469
 20
-120.2968699356921
 30
0.0
 11
25.51621991413225
 21
-122.7968699262584
 31
0.0
  0
LINE
  5
1BCE6
  8
KI
  6
CONTINUOUS
 62
     7
 10
4.0162199026464691
 20
-108.7968680277299
 30
0.0
 11
21.016219908389321
 21
-108.79686802075631
 31
0.0
  0
LINE
  5
1BCE7
  8
KI
  6
CONTINUOUS
 62
     7
 10
4.0162199026464691
 20
-108.7968680277299
 30
0.0
 11
4.0162199026464691
 21
-122.7968680277299
 31
0.0
  0
LINE
  5
1BCE8
  8
KI
  6
CONTINUOUS
 62
     7
 10
27.01621990223617
 20
30.203132916510292
 30
0.0
 11
28.016219902646348
 21
31.2031329161
 31
0.0
  0
LINE
  5
1BCE9
  8
KI
  6
CONTINUOUS
 62
     7
 10
21.01621990223617
 20
30.20313196529651
 30
0.0
 11
27.01621990223617
 21
30.2031319628353
 31
0.0
  0
LINE
  5
1BCEA
  8
KI
  6
CONTINUOUS
 62
     7
 10
21.016219908389228
 20
45.2031319652965
 30
0.0
 11
21.01621990223617
 21
30.20313196529651
 31
0.0
  0
LINE
  5
1BCEB
  8
KI
  6
CONTINUOUS
 62
     7
 10
28.016219902646348
 20
31.2031329161
 30
0.0
 11
28.016219902646348
 21
56.703133880232258
 31
0.0
  0
LINE
  5
1BCEC
  8
KI
  6
CONTINUOUS
 62
     7
 10
25.51621991413213
 20
59.203131963450573
 30
0.0
 11
4.0162199026463554
 21
59.203131972269937
 31
0.0
  0
LINE
  5
1BCED
  8
KI
  6
CONTINUOUS
 62
     7
 10
28.016219902646348
 20
56.703133880232258
 30
0.0
 11
25.51621991413213
 21
59.203133870798517
 31
0.0
  0
LINE
  5
1BCEE
  8
KI
  6
CONTINUOUS
 62
     7
 10
4.0162199026463554
 20
45.203131972269922
 30
0.0
 11
21.016219908389228
 21
45.2031319652965
 31
0.0
  0
LINE
  5
1BCEF
  8
KI
  6
CONTINUOUS
 62
     7
 10
4.0162199026463554
 20
45.203131972269922
 30
0.0
 11
4.0162199026463554
 21
59.203131972269937
 31
0.0
  0
LINE
  5
1BCF0
  8
KI
  6
CONTINUOUS
 62
     7
 10
-161.76332064268871
 20
156.70476576675011
 30
0.0
 11
-161.76332064709851
 21
135.20476576675011
 31
0.0
  0
LINE
  5
1BCF1
  8
KI
  6
CONTINUOUS
 62
     7
 10
-170.7633206461756
 20
139.7047657685961
 30
0.0
 11
-170.76332064268871
 21
156.70476576859619
 31
0.0
  0
LINE
  5
1BCF2
  8
KI
  6
CONTINUOUS
 62
     7
 10
-161.76332064709851
 20
135.20476576675011
 30
0.0
 11
-164.26332017077419
 21
132.70476576726281
 31
0.0
  0
LINE
  5
1BCF3
  8
KI
  6
CONTINUOUS
 62
     7
 10
-170.76332064268871
 20
156.70476576859619
 30
0.0
 11
-161.76332064268871
 21
156.70476576675011
 31
0.0
  0
LINE
  5
1BCF4
  8
KI
  6
CONTINUOUS
 62
     7
 10
-185.7633206461754
 20
139.7047657716725
 30
0.0
 11
-170.7633206461756
 21
139.7047657685961
 31
0.0
  0
LINE
  5
1BCF5
  8
KI
  6
CONTINUOUS
 62
     7
 10
-164.26332064761141
 20
132.70476576726281
 30
0.0
 11
-184.76332064761121
 21
132.70476577146741
 31
0.0
  0
LINE
  5
1BCF6
  8
KI
  6
CONTINUOUS
 62
     7
 10
-185.7633206474062
 20
133.70476577167241
 30
0.0
 11
-185.7633206461754
 21
139.7047657716725
 31
0.0
  0
LINE
  5
1BCF7
  8
KI
  6
CONTINUOUS
 62
     7
 10
-185.76331969373121
 20
133.70476577167241
 30
0.0
 11
-184.76331969393641
 21
132.70476577146741
 31
0.0
  0
LINE
  5
1BCF8
  8
KI
  6
CONTINUOUS
 62
     7
 10
-333.76332064268883
 20
156.70476577218491
 30
0.0
 11
-333.76332063827903
 21
135.204765772185
 31
0.0
  0
LINE
  5
1BCF9
  8
KI
  6
CONTINUOUS
 62
     7
 10
-324.76332063920188
 20
139.7047657740309
 30
0.0
 11
-324.76332064268883
 21
156.70476577403079
 31
0.0
  0
LINE
  5
1BCFA
  8
KI
  6
CONTINUOUS
 62
     7
 10
-333.76332063827903
 20
135.204765772185
 30
0.0
 11
-331.26332111460312
 21
132.70476577269761
 31
0.0
  0
LINE
  5
1BCFB
  8
KI
  6
CONTINUOUS
 62
     7
 10
-324.76332064268883
 20
156.70476577403079
 30
0.0
 11
-333.76332064268883
 21
156.70476577218491
 31
0.0
  0
LINE
  5
1BCFC
  8
KI
  6
CONTINUOUS
 62
     7
 10
-309.76332063920182
 20
139.70476577710741
 30
0.0
 11
-324.76332063920188
 21
139.7047657740309
 31
0.0
  0
LINE
  5
1BCFD
  8
KI
  6
CONTINUOUS
 62
     7
 10
-331.26332063776618
 20
132.70476577269761
 30
0.0
 11
-310.7633206377663
 21
132.70476577690221
 31
0.0
  0
LINE
  5
1BCFE
  8
KI
  6
CONTINUOUS
 62
     7
 10
-309.76332063797122
 20
133.70476577710741
 30
0.0
 11
-309.76332063920182
 21
139.70476577710741
 31
0.0
  0
LINE
  5
1BCFF
  8
KI
  6
CONTINUOUS
 62
     7
 10
-309.76332159164622
 20
133.70476577710741
 30
0.0
 11
-310.76332159144113
 21
132.70476577690221
 31
0.0
  0
LINE
  5
1BD00
  8
SU
  6
CONTINUOUS
 62
     3
 10
-359.76332064699562
 20
-82.791390896383817
 30
0.0
 11
-375.76332064699471
 21
-82.791390896383817
 31
0.0
  0
LINE
  5
1BD01
  8
SU
  6
CONTINUOUS
 62
     3
 10
-268.2633223594558
 20
-47.79138806850014
 30
0.0
 11
-375.76332064699471
 21
-47.79138806850009
 31
0.0
  0
LINE
  5
1BD02
  8
SU
  6
CONTINUOUS
 62
     3
 10
-372.76332064699488
 20
-82.791390896383817
 30
0.0
 11
-372.76332064699488
 21
-47.79138806850009
 31
0.0
  0
LINE
  5
1BD03
  8
SU
  6
CONTINUOUS
 62
     3
 10
253.016219887055
 20
-181.2968680277138
 30
0.0
 11
263.016219887055
 21
-175.2968680277138
 31
0.0
  0
LINE
  5
1BD04
  8
SU
  6
CONTINUOUS
 62
     3
 10
253.016219887055
 20
-169.2968680277138
 30
0.0
 11
263.016219887055
 21
-175.2968680277138
 31
0.0
  0
LINE
  5
1BD05
  8
SU
  6
CONTINUOUS
 62
     3
 10
253.016219887055
 20
-181.2968680277138
 30
0.0
 11
253.016219887055
 21
-169.2968680277138
 31
0.0
  0
LINE
  5
1BD06
  8
SU
  6
CONTINUOUS
 62
     3
 10
239.01621987146791
 20
-160.2968680277138
 30
0.0
 11
263.01621988705512
 21
-160.2968680277138
 31
0.0
  0
LINE
  5
1BD07
  8
SU
  6
CONTINUOUS
 62
     3
 10
58.016219887055122
 20
-43.296866315266492
 30
0.0
 11
80.016219887055129
 21
-43.296866315266492
 31
0.0
  0
LINE
  5
1BD08
  8
SU
  6
CONTINUOUS
 62
     3
 10
58.016219887055122
 20
-19.296868789664611
 30
0.0
 11
80.016219887055129
 21
-19.296868789664611
 31
0.0
  0
LINE
  5
1BD09
  8
SU
  6
CONTINUOUS
 62
     3
 10
77.016219887055144
 20
-43.296866315266492
 30
0.0
 11
77.016219887055144
 21
-19.296868789664611
 31
0.0
  0
LINE
  5
1BD0A
  8
SU
  6
CONTINUOUS
 62
     3
 10
77.016219887055144
 20
-54.296866315266492
 30
0.0
 11
77.016219887055144
 21
-43.296866315266492
 31
0.0
  0
LINE
  5
1BD0B
  8
SU
  6
CONTINUOUS
 62
     3
 10
77.016219887055144
 20
-54.296866315266492
 30
0.0
 11
77.016219887055144
 21
-94.296868027712463
 31
0.0
  0
LINE
  5
1BD0C
  8
KI
  6
CONTINUOUS
 62
     7
 10
32.516219887055144
 20
-25.2968687896646
 30
0.0
 11
32.516219887055144
 21
-37.296866315266961
 31
0.0
  0
LINE
  5
1BD0D
  8
KI
  6
CONTINUOUS
 62
     7
 10
32.516219887055144
 20
-37.296866315266961
 30
0.0
 11
37.016219887055129
 21
-37.296866315266961
 31
0.0
  0
LINE
  5
1BD0E
  8
KI
  6
CONTINUOUS
 62
     7
 10
37.016219887055129
 20
-37.29686631526652
 30
0.0
 11
37.016219887055129
 21
-43.296866315266492
 31
0.0
  0
LINE
  5
1BD0F
  8
KI
  6
CONTINUOUS
 62
     7
 10
32.516219887055144
 20
-25.2968687896646
 30
0.0
 11
37.016219887055129
 21
-25.2968687896646
 31
0.0
  0
LINE
  5
1BD10
  8
KI
  6
CONTINUOUS
 62
     7
 10
37.016219887055129
 20
-19.296868789664611
 30
0.0
 11
37.016219887055129
 21
-25.296868789664551
 31
0.0
  0
LINE
  5
1BD11
  8
KI
  6
CONTINUOUS
 62
     7
 10
37.016219887055129
 20
-19.296868789664611
 30
0.0
 11
57.016219887055151
 21
-19.296868789664622
 31
0.0
  0
LINE
  5
1BD12
  8
KI
  6
CONTINUOUS
 62
     7
 10
57.016219887055151
 20
-19.296868789664622
 30
0.0
 11
57.016219887055151
 21
-43.296866315266513
 31
0.0
  0
LINE
  5
1BD13
  8
KI
  6
CONTINUOUS
 62
     7
 10
37.016219887055129
 20
-43.296866315266492
 30
0.0
 11
57.016219887055151
 21
-43.296866315266513
 31
0.0
  0
LINE
  5
1BD14
  8
KI
  6
CONTINUOUS
 62
     7
 10
57.01625488211571
 20
-43.796872315267173
 30
0.0
 11
57.016254882116151
 21
-46.022965046495777
 31
0.0
  0
ARC
  5
1BD15
  8
KI
  6
CONTINUOUS
 62
     7
 10
45.455378991965802
 20
-53.304895364922707
 30
0.0
 40
9.2190722294335075
 50
92.804687340448481
 51
144.37413182448279
  0
LINE
  5
1BD16
  8
KI
  6
CONTINUOUS
 62
     7
 10
54.849250156713737
 20
-43.296866315266037
 30
0.0
 11
55.016254882117522
 21
-43.463871040669829
 31
0.0
  0
LINE
  5
1BD17
  8
KI
  6
CONTINUOUS
 62
     7
 10
54.151224544608212
 20
-43.496866315266772
 30
0.0
 11
54.751230544607409
 21
-44.096872315266893
 31
0.0
  0
LINE
  5
1BD18
  8
KI
  6
CONTINUOUS
 62
     7
 10
53.951224544607001
 20
-43.296866315266513
 30
0.0
 11
54.15122454460775
 21
-43.496866315266772
 31
0.0
  0
LINE
  5
1BD19
  8
KI
  6
CONTINUOUS
 62
     7
 10
53.253198932500567
 20
-43.496866315266772
 30
0.0
 11
53.853204932500688
 21
-44.096872315266893
 31
0.0
  0
LINE
  5
1BD1A
  8
KI
  6
CONTINUOUS
 62
     7
 10
53.053198932500287
 20
-43.296866315266037
 30
0.0
 11
53.253198932500567
 21
-43.496866315266772
 31
0.0
  0
LINE
  5
1BD1B
  8
KI
  6
CONTINUOUS
 62
     7
 10
52.355173320393853
 20
-43.496866315266772
 30
0.0
 11
52.955179320393967
 21
-44.096872315266893
 31
0.0
  0
LINE
  5
1BD1C
  8
KI
  6
CONTINUOUS
 62
     7
 10
52.155173320393573
 20
-43.296866315266037
 30
0.0
 11
52.355173320393853
 21
-43.496866315266772
 31
0.0
  0
LINE
  5
1BD1D
  8
KI
  6
CONTINUOUS
 62
     7
 10
51.457147708286641
 20
-43.496866315266772
 30
0.0
 11
52.057153708287231
 21
-44.096872315266431
 31
0.0
  0
LINE
  5
1BD1E
  8
KI
  6
CONTINUOUS
 62
     7
 10
51.257147708286404
 20
-43.296866315266037
 30
0.0
 11
51.457147708286641
 21
-43.496866315266772
 31
0.0
  0
LINE
  5
1BD1F
  8
KI
  6
CONTINUOUS
 62
     7
 10
50.559122096179927
 20
-43.496866315267667
 30
0.0
 11
51.1591280961796
 21
-44.096872315267341
 31
0.0
  0
LINE
  5
1BD20
  8
KI
  6
CONTINUOUS
 62
     7
 10
50.35912209617922
 20
-43.296866315266961
 30
0.0
 11
50.559122096179927
 21
-43.496866315267212
 31
0.0
  0
LINE
  5
1BD21
  8
KI
  6
CONTINUOUS
 62
     7
 10
49.661096484073212
 20
-43.496866315267667
 30
0.0
 11
50.016254882116613
 21
-43.852024713310612
 31
0.0
  0
LINE
  5
1BD22
  8
KI
  6
CONTINUOUS
 62
     7
 10
50.016254882116613
 20
-43.852024713310612
 30
0.0
 11
50.24046701779146
 21
-44.076236848985928
 31
0.0
  0
LINE
  5
1BD23
  8
KI
  6
CONTINUOUS
 62
     7
 10
49.461096484072947
 20
-43.29686631526738
 30
0.0
 11
49.661096484073212
 21
-43.496866315267212
 31
0.0
  0
LINE
  5
1BD24
  8
KI
  6
CONTINUOUS
 62
     7
 10
48.76307087196605
 20
-43.496866315267212
 30
0.0
 11
49.363070871965029
 21
-44.096866315266666
 31
0.0
  0
LINE
  5
1BD25
  8
KI
  6
CONTINUOUS
 62
     7
 10
48.563070871966218
 20
-43.29686631526738
 30
0.0
 11
48.76307087196605
 21
-43.496866315267212
 31
0.0
  0
LINE
  5
1BD26
  8
KI
  6
CONTINUOUS
 62
     7
 10
47.865045259858853
 20
-43.496866315267212
 30
0.0
 11
48.465045259859238
 21
-44.096866315267128
 31
0.0
  0
LINE
  5
1BD27
  8
KI
  6
CONTINUOUS
 62
     7
 10
47.665045259859042
 20
-43.296866315266961
 30
0.0
 11
47.865045259858853
 21
-43.496866315267212
 31
0.0
  0
LINE
  5
1BD28
  8
KI
  6
CONTINUOUS
 62
     7
 10
47.016254882116613
 20
-43.54610154963121
 30
0.0
 11
47.567019647752517
 21
-44.096866315267128
 31
0.0
  0
LINE
  5
1BD29
  8
KI
  6
CONTINUOUS
 62
     7
 10
47.016254882116613
 20
-43.296866315266961
 30
0.0
 11
47.016254882116613
 21
-44.096866315267128
 31
0.0
  0
LINE
  5
1BD2A
  8
KI
  6
CONTINUOUS
 62
     7
 10
55.01625488211571
 20
-43.296866315266513
 30
0.0
 11
55.016254882116613
 21
-44.096872315267348
 31
0.0
  0
LINE
  5
1BD2B
  8
KI
  6
CONTINUOUS
 62
     7
 10
46.004276129846701
 20
-44.09686631526759
 30
0.0
 11
49.766244882115927
 21
-44.096866315267128
 31
0.0
  0
LINE
  5
1BD2C
  8
KI
  6
CONTINUOUS
 62
     7
 10
50.016244882116389
 20
-43.89686631526687
 30
0.0
 11
50.266254882116158
 21
-44.096866315267128
 31
0.0
  0
LINE
  5
1BD2D
  8
KI
  6
CONTINUOUS
 62
     7
 10
50.016244882116389
 20
-43.89687231526662
 30
0.0
 11
49.766244882115927
 21
-44.096866315267128
 31
0.0
  0
LINE
  5
1BD2E
  8
KI
  6
CONTINUOUS
 62
     7
 10
50.266244882116389
 20
-44.096872315267341
 30
0.0
 11
56.01625488211571
 21
-44.096872315267348
 31
0.0
  0
ARC
  5
1BD2F
  8
KI
  6
CONTINUOUS
 62
     7
 10
45.304276129846443
 20
-43.796866315266961
 30
0.0
 40
0.3
 50
90.000000000348507
 51
180.000000000086
  0
LINE
  5
1BD30
  8
KI
  6
CONTINUOUS
 62
     7
 10
45.004276129846723
 20
-44.096866315267128
 30
0.0
 11
45.004276129846247
 21
-43.796866315266961
 31
0.0
  0
ARC
  5
1BD31
  8
KI
  6
CONTINUOUS
 62
     7
 10
45.704276129845617
 20
-43.796866315264211
 30
0.0
 40
0.3
 50
0.0000000000863075
 51
90.000000000348507
  0
LINE
  5
1BD32
  8
KI
  6
CONTINUOUS
 62
     7
 10
45.304276129846443
 20
-43.496866315266772
 30
0.0
 11
45.704276129845617
 21
-43.496866315264491
 31
0.0
  0
ARC
  5
1BD33
  8
KI
  6
CONTINUOUS
 62
     7
 10
56.316254882115892
 20
-43.796866315264211
 30
0.0
 40
0.3
 50
90.000000000348507
 51
180.000000000086
  0
ARC
  5
1BD34
  8
KI
  6
CONTINUOUS
 62
     7
 10
56.716254882115528
 20
-43.796866315262392
 30
0.0
 40
0.3
 50
0.0000000000863075
 51
90.000000000348507
  0
LINE
  5
1BD35
  8
KI
  6
CONTINUOUS
 62
     7
 10
56.316254882115892
 20
-43.49686631526496
 30
0.0
 11
56.716254882115528
 21
-43.496866315262217
 31
0.0
  0
LINE
  5
1BD36
  8
KI
  6
CONTINUOUS
 62
     7
 10
56.01625488211571
 20
-44.096872315267348
 30
0.0
 11
56.01625488211571
 21
-43.796866315264211
 31
0.0
  0
LINE
  5
1BD37
  8
KI
  6
CONTINUOUS
 62
     7
 10
46.004276129846261
 20
-43.796866315264211
 30
0.0
 11
46.004276129846701
 21
-44.09686631526759
 31
0.0
  0
LINE
  5
1BD38
  8
KI
  6
CONTINUOUS
 62
     7
 10
47.016254882116613
 20
-43.296866315266961
 30
0.0
 11
55.01625488211571
 21
-43.296866315266513
 31
0.0
  0
ARC
  5
1BD39
  8
KI
  6
CONTINUOUS
 62
     7
 10
55.575412939030088
 20
-51.290265164666387
 30
0.0
 40
0.5
 50
26.019067362292621
 51
120.7030765990647
  0
ARC
  5
1BD3A
  8
KI
  6
CONTINUOUS
 62
     7
 10
62.563579283667281
 20
-47.87902944091595
 30
0.0
 40
7.2763100519022599
 50
206.0190673622925
 51
241.88676723364111
  0
ARC
  5
1BD3B
  8
KI
  6
CONTINUOUS
 62
     7
 10
42.799663712166279
 20
-29.776082850138689
 30
0.0
 40
24.521586859558742
 50
266.28881364656843
 51
300.70307659906382
  0
ARC
  5
1BD3C
  8
KI
  6
CONTINUOUS
 62
     7
 10
62.563579283667281
 20
-47.87902944091595
 30
0.0
 40
5.776310051902259
 50
196.18682820039569
 51
241.88676723364111
  0
LINE
  5
1BD3D
  8
KI
  6
CONTINUOUS
 62
     7
 10
57.01625488211706
 20
-46.022965046495777
 30
0.0
 11
57.016254882115248
 21
-49.48929333222398
 31
0.0
  0
ARC
  5
1BD3E
  8
KI
  6
CONTINUOUS
 62
     7
 10
42.799663712166279
 20
-29.776082850138689
 30
0.0
 40
23.321944298558741
 50
266.28881364656843
 51
301.58910060604359
  0
LINE
  5
1BD3F
  8
KI
  6
CONTINUOUS
 62
     7
 10
55.016254882116613
 20
-46.596835746583608
 30
0.0
 11
55.016254882116613
 21
-49.642335291185219
 31
0.0
  0
LINE
  5
1BD40
  8
KI
  6
CONTINUOUS
 62
     7
 10
41.459536475795481
 20
-46.912524748122472
 30
0.0
 11
41.459536672222683
 21
-46.912524507020443
 31
0.0
  0
LINE
  5
1BD41
  8
KI
  6
CONTINUOUS
 62
     7
 10
44.504431816057007
 20
-46.096835746583587
 30
0.0
 11
54.516254882116613
 21
-46.096835746583608
 31
0.0
  0
ARC
  5
1BD42
  8
KI
  6
CONTINUOUS
 62
     7
 10
54.516254882116613
 20
-46.596835746583608
 30
0.0
 40
0.5
 50
359.99999999999829
 51
90.0
  0
ARC
  5
1BD43
  8
KI
  6
CONTINUOUS
 62
     7
 10
37.51257778753174
 20
-49.214328185650203
 30
0.0
 40
0.3
 50
73.716937057229572
 51
257.14909562687677
  0
ARC
  5
1BD44
  8
KI
  6
CONTINUOUS
 62
     7
 10
38.873408526024683
 20
-48.098876834491897
 30
0.0
 40
0.5
 50
319.32741197263852
 51
335.44260642604002
  0
ARC
  5
1BD45
  8
KI
  6
CONTINUOUS
 62
     7
 10
47.150271787548107
 20
-51.880871191463498
 30
0.0
 40
10.0
 50
160.196824205838
 51
162.81541990369081
  0
ARC
  5
1BD46
  8
KI
  6
CONTINUOUS
 62
     7
 10
37.84751133376524
 20
-48.212268195834923
 30
0.0
 40
0.3
 50
67.613299124407419
 51
249.3373552809833
  0
ARC
  5
1BD47
  8
KI
  6
CONTINUOUS
 62
     7
 10
41.376281092687663
 20
-50.249604366060822
 30
0.0
 40
4.0
 50
244.29819125374499
 51
267.65265816413881
  0
ARC
  5
1BD48
  8
KI
  6
CONTINUOUS
 62
     7
 10
47.150271787557642
 20
-51.880878229241283
 30
0.0
 40
8.7999999999999972
 50
164.19808653013251
 51
164.22396225264819
  0
ARC
  5
1BD49
  8
KI
  6
CONTINUOUS
 62
     7
 10
39.376281092688529
 20
-53.713705981198501
 30
0.0
 40
0.3
 50
147.8509043731726
 51
332.1490956268604
  0
ARC
  5
1BD4A
  8
KI
  6
CONTINUOUS
 62
     7
 10
41.376281092687663
 20
-50.249604366060822
 30
0.0
 40
4.0
 50
229.29819125370301
 51
235.70180874629281
  0
ARC
  5
1BD4B
  8
KI
  6
CONTINUOUS
 62
     7
 10
38.547853967940533
 20
-53.078031490805671
 30
0.0
 40
0.3
 50
132.85090437312351
 51
317.14909562685312
  0
ARC
  5
1BD4C
  8
KI
  6
CONTINUOUS
 62
     7
 10
37.376281092687648
 20
-50.249604366062641
 30
0.0
 40
0.3
 50
87.850904373219379
 51
272.14909562685881
  0
ARC
  5
1BD4D
  8
KI
  6
CONTINUOUS
 62
     7
 10
37.512577787532187
 20
-51.284880546473239
 30
0.0
 40
0.3
 50
102.85090437317641
 51
287.14909562692998
  0
ARC
  5
1BD4E
  8
KI
  6
CONTINUOUS
 62
     7
 10
41.376281092687663
 20
-50.249604366060822
 30
0.0
 40
4.0
 50
199.29819125377281
 51
205.701808746263
  0
ARC
  5
1BD4F
  8
KI
  6
CONTINUOUS
 62
     7
 10
37.912179477549522
 20
-52.249604366059891
 30
0.0
 40
0.3
 50
117.8509043731132
 51
302.1490956268803
  0
ARC
  5
1BD50
  8
KI
  6
CONTINUOUS
 62
     7
 10
41.376281092687663
 20
-50.249604366060822
 30
0.0
 40
4.0
 50
214.2981912537214
 51
220.70180874624359
  0
ARC
  5
1BD51
  8
KI
  6
CONTINUOUS
 62
     7
 10
41.376281092687663
 20
-50.249604366060822
 30
0.0
 40
4.0
 50
169.29819125371779
 51
175.7018087463002
  0
ARC
  5
1BD52
  8
KI
  6
CONTINUOUS
 62
     7
 10
41.376281092664932
 20
-50.249604366060822
 30
0.0
 40
4.0
 50
184.2981912537584
 51
190.70180874632001
  0
ARC
  5
1BD53
  8
KI
  6
CONTINUOUS
 62
     7
 10
41.376281092687663
 20
-50.249604366060822
 30
0.0
 40
2.799999999999998
 50
139.32741197264451
 51
267.65265816413881
  0
ARC
  5
1BD54
  8
KI
  6
CONTINUOUS
 62
     7
 10
44.539301778276091
 20
-53.345758828248613
 30
0.0
 40
7.2490069497939373
 50
90.275611457649703
 51
135.96157026528149
  0
ARC
  5
1BD55
  8
KI
  6
CONTINUOUS
 62
     7
 10
59.395534281322711
 20
-53.585803545678608
 30
0.0
 40
0.7573354118943643
 50
249.86775998205039
 51
53.905774485226729
  0
ARC
  5
1BD56
  8
KI
  6
CONTINUOUS
 62
     7
 10
58.066666621980723
 20
-36.797373688680672
 30
0.0
 40
2.5000001067820641
 50
268.84468078613151
 51
348.4749145507817
  0
LINE
  5
1BD57
  8
KI
  6
CONTINUOUS
 62
     7
 10
58.01623873961293
 20
-39.296860899105504
 30
0.0
 11
57.01625488211571
 21
-39.296860899105504
 31
0.0
  0
LINE
  5
1BD58
  8
KI
  6
DASHED2
 62
     7
 10
59.016257592171172
 20
-36.796866260301641
 30
0.0
 11
58.01623873961293
 21
-38.046872328468467
 31
0.0
  0
LINE
  5
1BD59
  8
KI
  6
DASHED2
 62
     7
 10
57.016219887055151
 20
-36.796866256352622
 30
0.0
 11
58.01623873961293
 21
-38.046872324519448
 31
0.0
  0
LINE
  5
1BD5A
  8
KI
  6
DASHED2
 62
     7
 10
59.016257592171172
 20
-25.796868852527961
 30
0.0
 11
59.016257592171172
 21
-36.796866260301641
 31
0.0
  0
LINE
  5
1BD5B
  8
KI
  6
DASHED2
 62
     7
 10
58.01623873961293
 20
-24.546862784361121
 30
0.0
 11
58.01623873961293
 21
-38.046872328468467
 31
0.0
  0
LINE
  5
1BD5C
  8
KI
  6
DASHED2
 62
     7
 10
58.01623873961293
 20
-24.546862784361121
 30
0.0
 11
57.01625488211571
 21
-25.796868852527961
 31
0.0
  0
LINE
  5
1BD5D
  8
KI
  6
DASHED2
 62
     7
 10
58.01623873961293
 20
-24.546862784361121
 30
0.0
 11
59.016257592171172
 21
-25.796868852527961
 31
0.0
  0
LINE
  5
1BD5E
  8
KI
  6
CONTINUOUS
 62
     7
 10
60.516250875947073
 20
-37.296875686580307
 30
0.0
 11
60.516250875947073
 21
-25.29685942624932
 31
0.0
  0
ARC
  5
1BD5F
  8
KI
  6
CONTINUOUS
 62
     7
 10
58.066666621980723
 20
-25.796361424148959
 30
0.0
 40
2.5000001067820641
 50
11.52507019042889
 51
91.155303955076519
  0
LINE
  5
1BD60
  8
KI
  6
CONTINUOUS
 62
     7
 10
58.01623873961293
 20
-23.296874213724571
 30
0.0
 11
57.01625488211571
 21
-23.296874213724571
 31
0.0
  0
ARC
  5
1BD61
  8
KI
  6
CONTINUOUS
 62
     7
 10
44.068444036709771
 20
-83.466532560675233
 30
0.0
 40
16.06232918379629
 50
100.9541706765956
 51
116.0435154452659
  0
LINE
  5
1BD62
  8
KI
  6
CONTINUOUS
 62
     7
 10
41.016219887055129
 20
-67.696867169523131
 30
0.0
 11
42.346227095257149
 21
-67.696867169523131
 31
0.0
  0
LINE
  5
1BD63
  8
KI
  6
DASHED2
 62
     7
 10
28.01621988705514
 20
-82.896867169523375
 30
0.0
 11
37.016219887055129
 21
-82.896867169523375
 31
0.0
  0
ARC
  5
1BD64
  8
KI
  6
DASHED2
 62
     7
 10
44.068444036709771
 20
-83.466532560675233
 30
0.0
 40
16.06232918379629
 50
116.0435154452659
 51
177.96752584043799
  0
LINE
  5
1BD65
  8
KI
  6
CONTINUOUS
 62
     7
 10
37.016219887055129
 20
-82.896867169523375
 30
0.0
 11
41.586226097897757
 21
-82.896867169523375
 31
0.0
  0
LINE
  5
1BD66
  8
KI
  6
DASHED2
 62
     7
 10
57.01625488211571
 20
-32.346859355552652
 30
0.0
 11
59.016257592171172
 21
-33.845592817146112
 31
0.0
  0
LINE
  5
1BD67
  8
KI
  6
DASHED2
 62
     7
 10
57.01625488211571
 20
-30.24687575727787
 30
0.0
 11
59.016257592171172
 21
-28.748142295684389
 31
0.0
  0
LINE
  5
1BD68
  8
KI
  6
DASHED2
 62
     7
 10
33.272316215142688
 20
-30.136396346920279
 30
0.0
 11
35.088944807497541
 21
-32.585473172507612
 31
0.0
  0
LINE
  5
1BD69
  8
KI
  6
DASHED2
 62
     7
 10
32.1621679067824
 20
-30.136396346920279
 30
0.0
 11
33.978796499137687
 21
-32.585473172507612
 31
0.0
  0
LINE
  5
1BD6A
  8
KI
  6
DASHED2
 62
     7
 10
31.051984603362001
 20
-30.136396346920279
 30
0.0
 11
32.86861319571684
 21
-32.585473172507612
 31
0.0
  0
LINE
  5
1BD6B
  8
KI
  6
DASHED2
 62
     7
 10
29.941836295002162
 20
-30.136396346920279
 30
0.0
 11
31.758464887357
 21
-32.585473172507612
 31
0.0
  0
LINE
  5
1BD6C
  8
KI
  6
DASHED2
 62
     7
 10
28.83168798664186
 20
-30.136396346920279
 30
0.0
 11
30.64831657899671
 21
-32.585473172507612
 31
0.0
  0
LINE
  5
1BD6D
  8
KI
  6
DASHED2
 62
     7
 10
27.721504683221472
 20
-30.136396346920279
 30
0.0
 11
29.53813327557631
 21
-32.585473172507612
 31
0.0
  0
LINE
  5
1BD6E
  8
KI
  6
DASHED2
 62
     7
 10
26.611356374861622
 20
-30.136396346920279
 30
0.0
 11
28.42798496721602
 21
-32.585473172507612
 31
0.0
  0
LINE
  5
1BD6F
  8
KI
  6
DASHED2
 62
     7
 10
25.501208066501331
 20
-30.136396346920279
 30
0.0
 11
27.317836658856169
 21
-32.585473172507612
 31
0.0
  0
LINE
  5
1BD70
  8
KI
  6
DASHED2
 62
     7
 10
24.391024763080932
 20
-30.136396346920279
 30
0.0
 11
26.207653355435781
 21
-32.585473172507612
 31
0.0
  0
LINE
  5
1BD71
  8
KI
  6
DASHED2
 62
     7
 10
23.280876454721088
 20
-30.136396346920279
 30
0.0
 11
25.09750504707549
 21
-32.585473172507612
 31
0.0
  0
LINE
  5
1BD72
  8
KI
  6
DASHED2
 62
     7
 10
22.170693151300231
 20
-30.136396346920279
 30
0.0
 11
23.987321743655091
 21
-32.585473172507612
 31
0.0
  0
LINE
  5
1BD73
  8
KI
  6
DASHED2
 62
     7
 10
36.602796135283221
 20
-30.136396346920289
 30
0.0
 11
38.419424727638052
 21
-32.585473172507612
 31
0.0
  0
LINE
  5
1BD74
  8
KI
  6
DASHED2
 62
     7
 10
35.492647826922934
 20
-30.136396346920279
 30
0.0
 11
37.30927641927822
 21
-32.585473172507612
 31
0.0
  0
LINE
  5
1BD75
  8
KI
  6
DASHED2
 62
     7
 10
34.38249951856308
 20
-30.136396346920279
 30
0.0
 11
36.199128110917933
 21
-32.585473172507612
 31
0.0
  0
LINE
  5
1BD76
  8
KI
  6
DASHED2
 62
     7
 10
39.933311050484321
 20
-30.136396346920289
 30
0.0
 11
41.749904647778592
 21
-32.585473172507612
 31
0.0
  0
LINE
  5
1BD77
  8
KI
  6
DASHED2
 62
     7
 10
38.823127747063452
 20
-30.136396346920289
 30
0.0
 11
40.639756339418753
 21
-32.585473172507612
 31
0.0
  0
LINE
  5
1BD78
  8
KI
  6
DASHED2
 62
     7
 10
37.712979438703599
 20
-30.136396346920289
 30
0.0
 11
39.529608031058451
 21
-32.585473172507612
 31
0.0
  0
LINE
  5
1BD79
  8
KI
  6
DASHED2
 62
     7
 10
33.272316215142688
 20
-30.136396350869308
 30
0.0
 11
35.088944807497541
 21
-32.585473176456638
 31
0.0
  0
LINE
  5
1BD7A
  8
KI
  6
DASHED2
 62
     7
 10
32.1621679067824
 20
-30.136396350869308
 30
0.0
 11
33.978796499137687
 21
-32.585473176456638
 31
0.0
  0
LINE
  5
1BD7B
  8
KI
  6
DASHED2
 62
     7
 10
31.051984603362001
 20
-30.136396350869308
 30
0.0
 11
32.86861319571684
 21
-32.585473176456638
 31
0.0
  0
LINE
  5
1BD7C
  8
KI
  6
DASHED2
 62
     7
 10
29.941836295002162
 20
-30.136396350869308
 30
0.0
 11
31.758464887357
 21
-32.585473176456638
 31
0.0
  0
LINE
  5
1BD7D
  8
KI
  6
DASHED2
 62
     7
 10
28.83168798664186
 20
-30.136396350869308
 30
0.0
 11
30.64831657899671
 21
-32.585473176456638
 31
0.0
  0
LINE
  5
1BD7E
  8
KI
  6
DASHED2
 62
     7
 10
27.721504683221472
 20
-30.136396350869308
 30
0.0
 11
29.53813327557631
 21
-32.585473176456638
 31
0.0
  0
LINE
  5
1BD7F
  8
KI
  6
DASHED2
 62
     7
 10
26.611356374861622
 20
-30.136396350869308
 30
0.0
 11
28.42798496721602
 21
-32.585473176456638
 31
0.0
  0
LINE
  5
1BD80
  8
KI
  6
DASHED2
 62
     7
 10
25.501208066501331
 20
-30.136396350869308
 30
0.0
 11
27.317836658856169
 21
-32.585473176456638
 31
0.0
  0
LINE
  5
1BD81
  8
KI
  6
DASHED2
 62
     7
 10
24.391024763080932
 20
-30.136396350869308
 30
0.0
 11
26.207653355435781
 21
-32.585473176456638
 31
0.0
  0
LINE
  5
1BD82
  8
KI
  6
DASHED2
 62
     7
 10
23.280876454721088
 20
-30.136396350869308
 30
0.0
 11
25.09750504707549
 21
-32.585473176456638
 31
0.0
  0
LINE
  5
1BD83
  8
KI
  6
DASHED2
 62
     7
 10
22.170693151300231
 20
-30.136396350869308
 30
0.0
 11
23.987321743655091
 21
-32.585473176456638
 31
0.0
  0
LINE
  5
1BD84
  8
KI
  6
DASHED2
 62
     7
 10
21.06054484293994
 20
-30.136396350869308
 30
0.0
 11
22.877173435295251
 21
-32.585473176456638
 31
0.0
  0
LINE
  5
1BD85
  8
KI
  6
DASHED2
 62
     7
 10
19.950396534580101
 20
-30.136396350869308
 30
0.0
 11
21.767025126934922
 21
-32.585473176456638
 31
0.0
  0
LINE
  5
1BD86
  8
KI
  6
DASHED2
 62
     7
 10
18.84021323115968
 20
-30.136396350869308
 30
0.0
 11
20.656841823514551
 21
-32.585473176456638
 31
0.0
  0
LINE
  5
1BD87
  8
KI
  6
DASHED2
 62
     7
 10
17.730064922799411
 20
-30.136396350869308
 30
0.0
 11
19.546693515154711
 21
-32.585473176456638
 31
0.0
  0
LINE
  5
1BD88
  8
KI
  6
DASHED2
 62
     7
 10
57.01625488211571
 20
-30.24687575727787
 30
0.0
 11
18.901629562565031
 21
-30.24687575727787
 31
0.0
  0
LINE
  5
1BD89
  8
KI
  6
DASHED2
 62
     7
 10
18.901629562565031
 20
-30.24687575727787
 30
0.0
 11
10.313316758096191
 21
-31.2924056861848
 31
0.0
  0
LINE
  5
1BD8A
  8
KI
  6
DASHED2
 62
     7
 10
18.901629562565031
 20
-32.346859355552638
 30
0.0
 11
10.313316758096191
 21
-31.301329426645701
 31
0.0
  0
LINE
  5
1BD8B
  8
KI
  6
DASHED2
 62
     7
 10
57.01625488211571
 20
-32.346859355552652
 30
0.0
 11
18.901629562565031
 21
-32.346859355552638
 31
0.0
  0
LINE
  5
1BD8C
  8
KI
  6
DASHED2
 62
     7
 10
36.602796135283221
 20
-30.136396350869308
 30
0.0
 11
38.419424727638052
 21
-32.585473176456638
 31
0.0
  0
LINE
  5
1BD8D
  8
KI
  6
DASHED2
 62
     7
 10
35.492647826922934
 20
-30.136396350869308
 30
0.0
 11
37.309276419277772
 21
-32.585473176456638
 31
0.0
  0
LINE
  5
1BD8E
  8
KI
  6
DASHED2
 62
     7
 10
34.38249951856308
 20
-30.136396350869308
 30
0.0
 11
36.199128110917933
 21
-32.585473176456638
 31
0.0
  0
LINE
  5
1BD8F
  8
KI
  6
DASHED2
 62
     7
 10
39.933311050484321
 20
-30.136396350869308
 30
0.0
 11
41.749904647778592
 21
-32.585473176456638
 31
0.0
  0
LINE
  5
1BD90
  8
KI
  6
DASHED2
 62
     7
 10
38.823127747063452
 20
-30.136396350869308
 30
0.0
 11
40.639756339418753
 21
-32.585473176456638
 31
0.0
  0
LINE
  5
1BD91
  8
KI
  6
DASHED2
 62
     7
 10
37.712979438703599
 20
-30.136396350869308
 30
0.0
 11
39.529608031058451
 21
-32.585473176456638
 31
0.0
  0
LINE
  5
1BD92
  8
KI
  6
CENTER2
 62
     7
 10
63.371217912249747
 20
-31.296867556415261
 30
0.0
 11
4.9010156761476891
 21
-31.296867556415229
 31
0.0
  0
LINE
  5
1BD93
  8
SU
  6
CONTINUOUS
 62
     3
 10
23.016219887054959
 20
-181.2968680277138
 30
0.0
 11
13.016219887054961
 21
-175.2968680277138
 31
0.0
  0
LINE
  5
1BD94
  8
SU
  6
CONTINUOUS
 62
     3
 10
23.016219887054959
 20
-169.2968680277138
 30
0.0
 11
13.016219887054961
 21
-175.2968680277138
 31
0.0
  0
LINE
  5
1BD95
  8
SU
  6
CONTINUOUS
 62
     3
 10
23.016219887054959
 20
-181.2968680277138
 30
0.0
 11
23.016219887054959
 21
-169.2968680277138
 31
0.0
  0
LINE
  5
1BD96
  8
SU
  6
CONTINUOUS
 62
     3
 10
77.016219887055144
 20
-94.296868027712463
 30
0.0
 11
77.016219887055144
 21
-101.79686802772861
 31
0.0
  0
LINE
  5
1BD97
  8
SU
  6
CONTINUOUS
 62
     3
 10
77.016219887055144
 20
-101.79686802772861
 30
0.0
 11
77.016219887055144
 21
-113.75305850391911
 31
0.0
  0
LINE
  5
1BD98
  8
KI
  6
CONTINUOUS
 62
     7
 10
35.936219887055159
 20
-100.37686802772851
 30
0.0
 11
35.936219887055209
 21
-101.7868680277288
 31
0.0
  0
LINE
  5
1BD99
  8
KI
  6
CONTINUOUS
 62
     7
 10
37.016219887055129
 20
-62.796868027728607
 30
0.0
 11
37.016219887055129
 21
-101.7868680277288
 31
0.0
  0
ARC
  5
1BD9A
  8
KI
  6
CONTINUOUS
 62
     7
 10
35.936219887055209
 20
-101.7868680277288
 30
0.0
 40
1.0800000000000001
 50
297.90344809752992
 51
0.0
  0
LINE
  5
1BD9B
  8
KI
  6
CONTINUOUS
 62
     7
 10
33.98164152602461
 20
-104.0439969999002
 30
0.0
 11
36.441641525983272
 21
-102.7413044933477
 31
0.0
  0
LINE
  5
1BD9C
  8
KI
  6
CONTINUOUS
 62
     7
 10
33.47621988705518
 20
-103.089560534303
 30
0.0
 11
33.98164152602461
 21
-104.0439969999002
 31
0.0
  0
LINE
  5
1BD9D
  8
KI
  6
CONTINUOUS
 62
     7
 10
33.47621988705518
 20
-103.089560534303
 30
0.0
 11
35.936219887055209
 21
-101.7868680277288
 31
0.0
  0
LINE
  5
1BD9E
  8
KI
  6
DASHED2
 62
     7
 10
27.066219887055318
 20
-84.246868027728866
 30
0.0
 11
27.066219887055318
 21
-73.060615414683539
 31
0.0
  0
LINE
  5
1BD9F
  8
KI
  6
DASHED2
 62
     7
 10
28.066219887055318
 20
-85.246868027728894
 30
0.0
 11
37.016219887055129
 21
-85.246868027728894
 31
0.0
  0
LINE
  5
1BDA0
  8
KI
  6
DASHED2
 62
     7
 10
28.066219887055318
 20
-80.826868027728779
 30
0.0
 11
37.016219887055129
 21
-80.826868027728779
 31
0.0
  0
ARC
  5
1BDA1
  8
KI
  6
DASHED2
 62
     7
 10
28.066219887055318
 20
-84.246868027728866
 30
0.0
 40
1.0
 50
180.0
 51
270.0
  0
ARC
  5
1BDA2
  8
KI
  6
DASHED2
 62
     7
 10
28.066219887055318
 20
-79.826868027728779
 30
0.0
 40
1.0
 50
180.0
 51
270.0
  0
LINE
  5
1BDA3
  8
KI
  6
DASHED2
 62
     7
 10
35.936219887055209
 20
-62.796868027728607
 30
0.0
 11
37.016219887055129
 21
-62.796868027728607
 31
0.0
  0
LINE
  5
1BDA4
  8
KI
  6
DASHED2
 62
     7
 10
35.936219887055209
 20
-62.796868027728607
 30
0.0
 11
35.936219887055159
 21
-100.37686802772851
 31
0.0
  0
LINE
  5
1BDA5
  8
SU
  6
CONTINUOUS
 62
     3
 10
37.016219887054959
 20
-102.796868027728
 30
0.0
 11
37.016219887054959
 21
-163.2968680277138
 31
0.0
  0
LINE
  5
1BDA6
  8
SU
  6
CONTINUOUS
 62
     3
 10
41.016219902641829
 20
-160.2968680277138
 30
0.0
 11
37.016219887054959
 21
-160.2968680277138
 31
0.0
  0
LINE
  5
1BDA7
  8
SU
  6
CONTINUOUS
 62
     3
 10
39.01621989484839
 20
-160.2968680277138
 30
0.0
 11
43.716219902641832
 21
-145.2968680277138
 31
0.0
  0
LINE
  5
1BDA8
  8
SU
  6
CONTINUOUS
 62
     3
 10
43.716219902641832
 20
-145.2968680277138
 30
0.0
 11
48.687648474070407
 21
-145.2968680277138
 31
0.0
  0
LINE
  5
1BDA9
  8
SU
  6
CONTINUOUS
 62
     3
 10
37.016219902641822
 20
-160.2968680277138
 30
0.0
 11
13.016219887054911
 21
-160.2968680277138
 31
0.0
  0
LINE
  5
1BDAA
  8
KI
  6
CONTINUOUS
 62
     7
 10
243.5162198870548
 20
-25.2968687896646
 30
0.0
 11
243.5162198870548
 21
-37.296866315266961
 31
0.0
  0
LINE
  5
1BDAB
  8
KI
  6
CONTINUOUS
 62
     7
 10
243.5162198870548
 20
-37.296866315266961
 30
0.0
 11
239.0162198870548
 21
-37.296866315266961
 31
0.0
  0
LINE
  5
1BDAC
  8
KI
  6
CONTINUOUS
 62
     7
 10
239.0162198870548
 20
-37.29686631526652
 30
0.0
 11
239.0162198870548
 21
-43.296866315266492
 31
0.0
  0
LINE
  5
1BDAD
  8
KI
  6
CONTINUOUS
 62
     7
 10
243.5162198870548
 20
-25.2968687896646
 30
0.0
 11
239.0162198870548
 21
-25.2968687896646
 31
0.0
  0
LINE
  5
1BDAE
  8
KI
  6
CONTINUOUS
 62
     7
 10
239.0162198870548
 20
-19.296868789664611
 30
0.0
 11
239.0162198870548
 21
-25.296868789664551
 31
0.0
  0
LINE
  5
1BDAF
  8
KI
  6
CONTINUOUS
 62
     7
 10
239.0162198870548
 20
-19.296868789664611
 30
0.0
 11
219.0162198870548
 21
-19.2968687896646
 31
0.0
  0
LINE
  5
1BDB0
  8
KI
  6
CONTINUOUS
 62
     7
 10
219.0162198870548
 20
-19.2968687896646
 30
0.0
 11
219.0162198870548
 21
-43.296866315266492
 31
0.0
  0
LINE
  5
1BDB1
  8
KI
  6
CONTINUOUS
 62
     7
 10
239.0162198870548
 20
-43.296866315266492
 30
0.0
 11
219.0162198870548
 21
-43.296866315266492
 31
0.0
  0
LINE
  5
1BDB2
  8
KI
  6
CONTINUOUS
 62
     7
 10
219.0161848919943
 20
-43.796872315267152
 30
0.0
 11
219.0161848919939
 21
-46.022965046495777
 31
0.0
  0
ARC
  5
1BDB3
  8
KI
  6
CONTINUOUS
 62
     7
 10
230.57706078214409
 20
-53.304895364922707
 30
0.0
 40
9.2190722294335075
 50
35.625868175516771
 51
87.195312659551448
  0
LINE
  5
1BDB4
  8
KI
  6
CONTINUOUS
 62
     7
 10
221.18318961739621
 20
-43.296866315266037
 30
0.0
 11
221.0161848919924
 21
-43.463871040669829
 31
0.0
  0
LINE
  5
1BDB5
  8
KI
  6
CONTINUOUS
 62
     7
 10
221.88121522950181
 20
-43.496866315266772
 30
0.0
 11
221.28120922950239
 21
-44.096872315266893
 31
0.0
  0
LINE
  5
1BDB6
  8
KI
  6
CONTINUOUS
 62
     7
 10
222.0812152295029
 20
-43.296866315266492
 30
0.0
 11
221.88121522950229
 21
-43.496866315266772
 31
0.0
  0
LINE
  5
1BDB7
  8
KI
  6
CONTINUOUS
 62
     7
 10
222.77924084160941
 20
-43.496866315266772
 30
0.0
 11
222.1792348416092
 21
-44.096872315266893
 31
0.0
  0
LINE
  5
1BDB8
  8
KI
  6
CONTINUOUS
 62
     7
 10
222.9792408416096
 20
-43.296866315266037
 30
0.0
 11
222.77924084160941
 21
-43.496866315266772
 31
0.0
  0
LINE
  5
1BDB9
  8
KI
  6
CONTINUOUS
 62
     7
 10
223.6772664537161
 20
-43.496866315266772
 30
0.0
 11
223.07726045371609
 21
-44.096872315266893
 31
0.0
  0
LINE
  5
1BDBA
  8
KI
  6
CONTINUOUS
 62
     7
 10
223.87726645371629
 20
-43.296866315266037
 30
0.0
 11
223.6772664537161
 21
-43.496866315266772
 31
0.0
  0
LINE
  5
1BDBB
  8
KI
  6
CONTINUOUS
 62
     7
 10
224.57529206582311
 20
-43.496866315266772
 30
0.0
 11
223.97528606582239
 21
-44.096872315266431
 31
0.0
  0
LINE
  5
1BDBC
  8
KI
  6
CONTINUOUS
 62
     7
 10
224.77529206582361
 20
-43.296866315266037
 30
0.0
 11
224.57529206582311
 21
-43.496866315266772
 31
0.0
  0
LINE
  5
1BDBD
  8
KI
  6
CONTINUOUS
 62
     7
 10
225.47331767793011
 20
-43.496866315267667
 30
0.0
 11
224.87331167793039
 21
-44.096872315267341
 31
0.0
  0
LINE
  5
1BDBE
  8
KI
  6
CONTINUOUS
 62
     7
 10
225.6733176779305
 20
-43.296866315266961
 30
0.0
 11
225.47331767793011
 21
-43.496866315267212
 31
0.0
  0
LINE
  5
1BDBF
  8
KI
  6
CONTINUOUS
 62
     7
 10
226.3713432900368
 20
-43.496866315267667
 30
0.0
 11
226.0161848919933
 21
-43.852024713310612
 31
0.0
  0
LINE
  5
1BDC0
  8
KI
  6
CONTINUOUS
 62
     7
 10
226.0161848919933
 20
-43.852024713310612
 30
0.0
 11
225.7919727563185
 21
-44.076236848985928
 31
0.0
  0
LINE
  5
1BDC1
  8
KI
  6
CONTINUOUS
 62
     7
 10
226.57134329003679
 20
-43.29686631526738
 30
0.0
 11
226.3713432900368
 21
-43.496866315267212
 31
0.0
  0
LINE
  5
1BDC2
  8
KI
  6
CONTINUOUS
 62
     7
 10
227.26936890214401
 20
-43.496866315267212
 30
0.0
 11
226.66936890214501
 21
-44.096866315266666
 31
0.0
  0
LINE
  5
1BDC3
  8
KI
  6
CONTINUOUS
 62
     7
 10
227.4693689021438
 20
-43.29686631526738
 30
0.0
 11
227.26936890214401
 21
-43.496866315267212
 31
0.0
  0
LINE
  5
1BDC4
  8
KI
  6
CONTINUOUS
 62
     7
 10
228.16739451425099
 20
-43.496866315267212
 30
0.0
 11
227.56739451425079
 21
-44.096866315267128
 31
0.0
  0
LINE
  5
1BDC5
  8
KI
  6
CONTINUOUS
 62
     7
 10
228.3673945142508
 20
-43.296866315266961
 30
0.0
 11
228.16739451425099
 21
-43.496866315267212
 31
0.0
  0
LINE
  5
1BDC6
  8
KI
  6
CONTINUOUS
 62
     7
 10
229.01618489199319
 20
-43.54610154963121
 30
0.0
 11
228.4654201263574
 21
-44.096866315267128
 31
0.0
  0
LINE
  5
1BDC7
  8
KI
  6
CONTINUOUS
 62
     7
 10
229.01618489199319
 20
-43.296866315266961
 30
0.0
 11
229.01618489199319
 21
-44.096866315267128
 31
0.0
  0
LINE
  5
1BDC8
  8
KI
  6
CONTINUOUS
 62
     7
 10
221.0161848919943
 20
-43.296866315266492
 30
0.0
 11
221.0161848919933
 21
-44.096872315267341
 31
0.0
  0
LINE
  5
1BDC9
  8
KI
  6
CONTINUOUS
 62
     7
 10
230.02816364426309
 20
-44.09686631526759
 30
0.0
 11
226.26619489199399
 21
-44.096866315267128
 31
0.0
  0
LINE
  5
1BDCA
  8
KI
  6
CONTINUOUS
 62
     7
 10
226.01619489199359
 20
-43.89686631526687
 30
0.0
 11
225.7661848919935
 21
-44.096866315267128
 31
0.0
  0
LINE
  5
1BDCB
  8
KI
  6
CONTINUOUS
 62
     7
 10
226.01619489199359
 20
-43.89687231526662
 30
0.0
 11
226.26619489199399
 21
-44.096866315267128
 31
0.0
  0
LINE
  5
1BDCC
  8
KI
  6
CONTINUOUS
 62
     7
 10
225.76619489199359
 20
-44.096872315267341
 30
0.0
 11
220.0161848919943
 21
-44.096872315267341
 31
0.0
  0
ARC
  5
1BDCD
  8
KI
  6
CONTINUOUS
 62
     7
 10
230.72816364426359
 20
-43.796866315266961
 30
0.0
 40
0.3
 50
359.99999999991371
 51
89.999999999651507
  0
LINE
  5
1BDCE
  8
KI
  6
CONTINUOUS
 62
     7
 10
231.0281636442632
 20
-44.096866315267128
 30
0.0
 11
231.02816364426371
 21
-43.796866315266961
 31
0.0
  0
ARC
  5
1BDCF
  8
KI
  6
CONTINUOUS
 62
     7
 10
230.32816364426441
 20
-43.796866315264211
 30
0.0
 40
0.3
 50
89.999999999651507
 51
179.9999999999136
  0
LINE
  5
1BDD0
  8
KI
  6
CONTINUOUS
 62
     7
 10
230.72816364426359
 20
-43.496866315266772
 30
0.0
 11
230.32816364426441
 21
-43.496866315264491
 31
0.0
  0
ARC
  5
1BDD1
  8
KI
  6
CONTINUOUS
 62
     7
 10
219.716184891994
 20
-43.796866315264211
 30
0.0
 40
0.3
 50
359.99999999991371
 51
89.999999999651507
  0
ARC
  5
1BDD2
  8
KI
  6
CONTINUOUS
 62
     7
 10
219.3161848919944
 20
-43.796866315262392
 30
0.0
 40
0.3
 50
89.999999999651507
 51
179.9999999999136
  0
LINE
  5
1BDD3
  8
KI
  6
CONTINUOUS
 62
     7
 10
219.716184891994
 20
-43.496866315264953
 30
0.0
 11
219.3161848919944
 21
-43.496866315262203
 31
0.0
  0
LINE
  5
1BDD4
  8
KI
  6
CONTINUOUS
 62
     7
 10
220.0161848919943
 20
-44.096872315267341
 30
0.0
 11
220.0161848919943
 21
-43.796866315264211
 31
0.0
  0
LINE
  5
1BDD5
  8
KI
  6
CONTINUOUS
 62
     7
 10
230.0281636442638
 20
-43.796866315264211
 30
0.0
 11
230.02816364426309
 21
-44.09686631526759
 31
0.0
  0
LINE
  5
1BDD6
  8
KI
  6
CONTINUOUS
 62
     7
 10
229.01618489199319
 20
-43.296866315266961
 30
0.0
 11
221.0161848919943
 21
-43.296866315266492
 31
0.0
  0
ARC
  5
1BDD7
  8
KI
  6
CONTINUOUS
 62
     7
 10
220.45702683507969
 20
-51.290265164666387
 30
0.0
 40
0.5
 50
59.296923400935583
 51
153.98093263770741
  0
ARC
  5
1BDD8
  8
KI
  6
CONTINUOUS
 62
     7
 10
213.46886049044281
 20
-47.87902944091595
 30
0.0
 40
7.2763100519022599
 50
298.11323276635829
 51
333.98093263770761
  0
ARC
  5
1BDD9
  8
KI
  6
CONTINUOUS
 62
     7
 10
233.2327760619437
 20
-29.776082850138678
 30
0.0
 40
24.521586859558742
 50
239.2969234009355
 51
273.71118635343129
  0
ARC
  5
1BDDA
  8
KI
  6
CONTINUOUS
 62
     7
 10
213.46886049044281
 20
-47.87902944091595
 30
0.0
 40
5.776310051902259
 50
298.11323276635829
 51
343.81317179960399
  0
LINE
  5
1BDDB
  8
KI
  6
CONTINUOUS
 62
     7
 10
219.01618489199271
 20
-46.022965046495777
 30
0.0
 11
219.01618489199481
 21
-49.48929333222398
 31
0.0
  0
ARC
  5
1BDDC
  8
KI
  6
CONTINUOUS
 62
     7
 10
233.2327760619437
 20
-29.776082850138678
 30
0.0
 40
23.321944298558741
 50
238.41089939395661
 51
273.71118635343129
  0
LINE
  5
1BDDD
  8
KI
  6
CONTINUOUS
 62
     7
 10
221.0161848919933
 20
-46.596835746583587
 30
0.0
 11
221.0161848919933
 21
-49.642335291185219
 31
0.0
  0
LINE
  5
1BDDE
  8
KI
  6
CONTINUOUS
 62
     7
 10
234.57290329831449
 20
-46.912524748122472
 30
0.0
 11
234.57290310188711
 21
-46.912524507020443
 31
0.0
  0
LINE
  5
1BDDF
  8
KI
  6
CONTINUOUS
 62
     7
 10
231.528007958053
 20
-46.096835746583587
 30
0.0
 11
221.5161848919933
 21
-46.096835746583587
 31
0.0
  0
ARC
  5
1BDE0
  8
KI
  6
CONTINUOUS
 62
     7
 10
221.5161848919933
 20
-46.596835746583587
 30
0.0
 40
0.5
 50
90.0
 51
180.00000000000151
  0
ARC
  5
1BDE1
  8
KI
  6
CONTINUOUS
 62
     7
 10
238.51986198657829
 20
-49.214328185650203
 30
0.0
 40
0.3
 50
282.850904373123
 51
106.2830629427703
  0
ARC
  5
1BDE2
  8
KI
  6
CONTINUOUS
 62
     7
 10
237.15903124808531
 20
-48.098876834491897
 30
0.0
 40
0.5
 50
204.55739357396001
 51
220.67258802736049
  0
ARC
  5
1BDE3
  8
KI
  6
CONTINUOUS
 62
     7
 10
228.8821679865618
 20
-51.880871191463498
 30
0.0
 40
10.0
 50
17.18458009630881
 51
19.803175794162041
  0
ARC
  5
1BDE4
  8
KI
  6
CONTINUOUS
 62
     7
 10
238.18492844034481
 20
-48.212268195834923
 30
0.0
 40
0.3
 50
290.66264471901661
 51
112.3867008755925
  0
ARC
  5
1BDE5
  8
KI
  6
CONTINUOUS
 62
     7
 10
234.6561586814224
 20
-50.249604366060822
 30
0.0
 40
4.0
 50
272.34734183586102
 51
295.70180874625493
  0
ARC
  5
1BDE6
  8
KI
  6
CONTINUOUS
 62
     7
 10
228.88216798655199
 20
-51.880878229241283
 30
0.0
 40
8.7999999999999972
 50
15.7760377473515
 51
15.80191346986723
  0
ARC
  5
1BDE7
  8
KI
  6
CONTINUOUS
 62
     7
 10
236.6561586814214
 20
-53.713705981198501
 30
0.0
 40
0.3
 50
207.850904373139
 51
32.14909562682751
  0
ARC
  5
1BDE8
  8
KI
  6
CONTINUOUS
 62
     7
 10
234.6561586814224
 20
-50.249604366060822
 30
0.0
 40
4.0
 50
304.29819125370682
 51
310.7018087462971
  0
ARC
  5
1BDE9
  8
KI
  6
CONTINUOUS
 62
     7
 10
237.48458580616941
 20
-53.078031490805671
 30
0.0
 40
0.3
 50
222.85090437314679
 51
47.149095626876061
  0
ARC
  5
1BDEA
  8
KI
  6
CONTINUOUS
 62
     7
 10
238.65615868142231
 20
-50.249604366062641
 30
0.0
 40
0.3
 50
267.85090437314102
 51
92.149095626780564
  0
ARC
  5
1BDEB
  8
KI
  6
CONTINUOUS
 62
     7
 10
238.51986198657781
 20
-51.284880546473239
 30
0.0
 40
0.3
 50
252.8509043730698
 51
77.149095626823382
  0
ARC
  5
1BDEC
  8
KI
  6
CONTINUOUS
 62
     7
 10
234.6561586814224
 20
-50.249604366060822
 30
0.0
 40
4.0
 50
334.29819125373712
 51
340.7018087462269
  0
ARC
  5
1BDED
  8
KI
  6
CONTINUOUS
 62
     7
 10
238.1202602965605
 20
-52.249604366059891
 30
0.0
 40
0.3
 50
237.85090437311931
 51
62.149095626886691
  0
ARC
  5
1BDEE
  8
KI
  6
CONTINUOUS
 62
     7
 10
234.6561586814224
 20
-50.249604366060822
 30
0.0
 40
4.0
 50
319.2981912537565
 51
325.70180874627812
  0
ARC
  5
1BDEF
  8
KI
  6
CONTINUOUS
 62
     7
 10
234.6561586814224
 20
-50.249604366060822
 30
0.0
 40
4.0
 50
4.298191253699807
 51
10.70180874628195
  0
ARC
  5
1BDF0
  8
KI
  6
CONTINUOUS
 62
     7
 10
234.65615868144511
 20
-50.249604366060822
 30
0.0
 40
4.0
 50
349.29819125367982
 51
355.70180874624123
  0
ARC
  5
1BDF1
  8
KI
  6
CONTINUOUS
 62
     7
 10
234.6561586814224
 20
-50.249604366060822
 30
0.0
 40
2.799999999999998
 50
272.34734183586102
 51
40.672588027355317
  0
ARC
  5
1BDF2
  8
KI
  6
CONTINUOUS
 62
     7
 10
231.49313799583391
 20
-53.345758828248613
 30
0.0
 40
7.2490069497939373
 50
44.038429734718477
 51
89.724388542350269
  0
ARC
  5
1BDF3
  8
KI
  6
CONTINUOUS
 62
     7
 10
216.63690549278721
 20
-53.585803545678608
 30
0.0
 40
0.7573354118943643
 50
126.0942255147736
 51
290.13224001794953
  0
ARC
  5
1BDF4
  8
KI
  6
CONTINUOUS
 62
     7
 10
217.96577315212929
 20
-36.797373688680658
 30
0.0
 40
2.5000001067820641
 50
191.5250854492177
 51
271.1553192138681
  0
LINE
  5
1BDF5
  8
KI
  6
CONTINUOUS
 62
     7
 10
218.0162010344971
 20
-39.296860899105447
 30
0.0
 11
219.0161848919943
 21
-39.296860899105447
 31
0.0
  0
LINE
  5
1BDF6
  8
KI
  6
DASHED2
 62
     7
 10
217.0161821819388
 20
-36.79686626030162
 30
0.0
 11
218.0162010344971
 21
-38.046872328468467
 31
0.0
  0
LINE
  5
1BDF7
  8
KI
  6
DASHED2
 62
     7
 10
219.0162198870548
 20
-36.796866256352608
 30
0.0
 11
218.0162010344971
 21
-38.046872324519448
 31
0.0
  0
LINE
  5
1BDF8
  8
KI
  6
DASHED2
 62
     7
 10
217.0161821819388
 20
-25.796868852527961
 30
0.0
 11
217.0161821819388
 21
-36.79686626030162
 31
0.0
  0
LINE
  5
1BDF9
  8
KI
  6
DASHED2
 62
     7
 10
218.0162010344971
 20
-24.546862784361121
 30
0.0
 11
218.0162010344971
 21
-38.046872328468467
 31
0.0
  0
LINE
  5
1BDFA
  8
KI
  6
DASHED2
 62
     7
 10
218.0162010344971
 20
-24.546862784361121
 30
0.0
 11
219.0161848919943
 21
-25.796868852527961
 31
0.0
  0
LINE
  5
1BDFB
  8
KI
  6
DASHED2
 62
     7
 10
218.0162010344971
 20
-24.546862784361121
 30
0.0
 11
217.0161821819388
 21
-25.796868852527961
 31
0.0
  0
LINE
  5
1BDFC
  8
KI
  6
CONTINUOUS
 62
     7
 10
215.51618889816271
 20
-37.296875686580293
 30
0.0
 11
215.51618889816271
 21
-25.296859426249281
 31
0.0
  0
ARC
  5
1BDFD
  8
KI
  6
CONTINUOUS
 62
     7
 10
217.96577315212929
 20
-25.796361424148952
 30
0.0
 40
2.5000001067820641
 50
88.844696044923452
 51
168.47492980957071
  0
LINE
  5
1BDFE
  8
KI
  6
CONTINUOUS
 62
     7
 10
218.0162010344971
 20
-23.296874213724571
 30
0.0
 11
219.0161848919943
 21
-23.296874213724571
 31
0.0
  0
LINE
  5
1BDFF
  8
KI
  6
DASHED2
 62
     7
 10
229.0162198870548
 20
-61.296868023779567
 30
0.0
 11
229.0162198870548
 21
-94.296868023779581
 31
0.0
  0
LINE
  5
1BE00
  8
KI
  6
DASHED2
 62
     7
 10
235.0162198870548
 20
-61.296868023779567
 30
0.0
 11
229.0162198870548
 21
-61.296868023779567
 31
0.0
  0
LINE
  5
1BE01
  8
KI
  6
DASHED2
 62
     7
 10
223.0162198870548
 20
-91.546868023779567
 30
0.0
 11
229.0162198870548
 21
-91.546868023779567
 31
0.0
  0
LINE
  5
1BE02
  8
KI
  6
DASHED2
 62
     7
 10
223.0162198870548
 20
-64.046868023779567
 30
0.0
 11
229.0162198870548
 21
-64.046868023779567
 31
0.0
  0
LINE
  5
1BE03
  8
KI
  6
DASHED2
 62
     7
 10
217.0162198870548
 20
-65.796868023779567
 30
0.0
 11
223.0162198870548
 21
-65.796868023779567
 31
0.0
  0
LINE
  5
1BE04
  8
KI
  6
DASHED2
 62
     7
 10
217.0162198870548
 20
-89.796868023779581
 30
0.0
 11
223.0162198870548
 21
-89.796868023779581
 31
0.0
  0
LINE
  5
1BE05
  8
KI
  6
DASHED2
 62
     7
 10
223.0162198870548
 20
-64.046868023779567
 30
0.0
 11
223.0162198870548
 21
-91.546868023779567
 31
0.0
  0
LINE
  5
1BE06
  8
KI
  6
DASHED2
 62
     7
 10
217.0162198870548
 20
-65.796868023779567
 30
0.0
 11
217.0162198870548
 21
-89.796868023779581
 31
0.0
  0
CIRCLE
  5
1BE07
  8
KI
  6
CONTINUOUS
 62
     7
 10
236.0162198870548
 20
-112.2968680237795
 30
0.0
 40
3.1931342056999981
  0
CIRCLE
  5
1BE08
  8
KI
  6
CONTINUOUS
 62
     7
 10
236.0162198870548
 20
-112.2968680237795
 30
0.0
 40
4.0
  0
CIRCLE
  5
1BE09
  8
KI
  6
CONTINUOUS
 62
     7
 10
236.0162198870548
 20
-112.2968680237795
 30
0.0
 40
6.939104820999999
  0
CIRCLE
  5
1BE0A
  8
KI
  6
CONTINUOUS
 62
     7
 10
236.0162198870548
 20
-112.2968680237795
 30
0.0
 40
8.0
  0
LINE
  5
1BE0B
  8
KI
  6
CONTINUOUS
 62
     7
 10
239.0162198870548
 20
-57.796868023779567
 30
0.0
 11
239.0162198870548
 21
-104.8806695366837
 31
0.0
  0
LINE
  5
1BE0C
  8
KI
  6
CONTINUOUS
 62
     7
 10
236.71621988705471
 20
-57.796868023779567
 30
0.0
 11
236.71621988705471
 21
-104.3275518674206
 31
0.0
  0
LINE
  5
1BE0D
  8
KI
  6
CONTINUOUS
 62
     7
 10
235.1361775958062
 20
-104.3454200068699
 30
0.0
 11
234.02403416078309
 21
-94.296868023779624
 31
0.0
  0
LINE
  5
1BE0E
  8
KI
  6
CONTINUOUS
 62
     7
 10
232.8872911152564
 20
-104.9341372300446
 30
0.0
 11
231.70999023307729
 21
-94.296868023779624
 31
0.0
  0
LINE
  5
1BE0F
  8
KI
  6
CONTINUOUS
 62
     7
 10
239.0162198870548
 20
-57.796868023779567
 30
0.0
 11
236.71621988705471
 21
-57.796868023779567
 31
0.0
  0
LINE
  5
1BE10
  8
KI
  6
DASHED2
 62
     7
 10
219.0161848919943
 20
-32.346859355552652
 30
0.0
 11
217.0161821819388
 21
-33.845592817146112
 31
0.0
  0
LINE
  5
1BE11
  8
KI
  6
DASHED2
 62
     7
 10
219.0161848919943
 20
-30.24687575727787
 30
0.0
 11
217.0161821819388
 21
-28.748142295684389
 31
0.0
  0
LINE
  5
1BE12
  8
KI
  6
DASHED2
 62
     7
 10
242.76012355896711
 20
-30.1363963469203
 30
0.0
 11
240.94349496661241
 21
-32.585473172507612
 31
0.0
  0
LINE
  5
1BE13
  8
KI
  6
DASHED2
 62
     7
 10
243.8702718673274
 20
-30.1363963469203
 30
0.0
 11
242.05364327497199
 21
-32.585473172507612
 31
0.0
  0
LINE
  5
1BE14
  8
KI
  6
DASHED2
 62
     7
 10
244.9804551707478
 20
-30.1363963469203
 30
0.0
 11
243.1638265783929
 21
-32.585473172507612
 31
0.0
  0
LINE
  5
1BE15
  8
KI
  6
DASHED2
 62
     7
 10
246.09060347910781
 20
-30.1363963469203
 30
0.0
 11
244.273974886753
 21
-32.585473172507612
 31
0.0
  0
LINE
  5
1BE16
  8
KI
  6
DASHED2
 62
     7
 10
247.20075178746799
 20
-30.1363963469203
 30
0.0
 11
245.38412319511329
 21
-32.585473172507612
 31
0.0
  0
LINE
  5
1BE17
  8
KI
  6
DASHED2
 62
     7
 10
248.31093509088831
 20
-30.1363963469203
 30
0.0
 11
246.4943064985336
 21
-32.585473172507612
 31
0.0
  0
LINE
  5
1BE18
  8
KI
  6
DASHED2
 62
     7
 10
249.4210833992484
 20
-30.1363963469203
 30
0.0
 11
247.6044548068939
 21
-32.585473172507612
 31
0.0
  0
LINE
  5
1BE19
  8
KI
  6
DASHED2
 62
     7
 10
250.53123170760861
 20
-30.1363963469203
 30
0.0
 11
248.71460311525371
 21
-32.585473172507612
 31
0.0
  0
LINE
  5
1BE1A
  8
KI
  6
DASHED2
 62
     7
 10
251.6414150110291
 20
-30.1363963469203
 30
0.0
 11
249.82478641867399
 21
-32.585473172507612
 31
0.0
  0
LINE
  5
1BE1B
  8
KI
  6
DASHED2
 62
     7
 10
252.75156331938891
 20
-30.1363963469203
 30
0.0
 11
250.9349347270342
 21
-32.585473172507612
 31
0.0
  0
LINE
  5
1BE1C
  8
KI
  6
DASHED2
 62
     7
 10
253.86174662280959
 20
-30.1363963469203
 30
0.0
 11
252.0451180304548
 21
-32.585473172507612
 31
0.0
  0
LINE
  5
1BE1D
  8
KI
  6
DASHED2
 62
     7
 10
239.4296436388268
 20
-30.1363963469203
 30
0.0
 11
237.61301504647199
 21
-32.585473172507612
 31
0.0
  0
LINE
  5
1BE1E
  8
KI
  6
DASHED2
 62
     7
 10
240.5397919471869
 20
-30.1363963469203
 30
0.0
 11
238.7231633548318
 21
-32.585473172507612
 31
0.0
  0
LINE
  5
1BE1F
  8
KI
  6
DASHED2
 62
     7
 10
241.6499402555468
 20
-30.1363963469203
 30
0.0
 11
239.83331166319209
 21
-32.585473172507612
 31
0.0
  0
LINE
  5
1BE20
  8
KI
  6
DASHED2
 62
     7
 10
236.09912872362551
 20
-30.1363963469203
 30
0.0
 11
234.28253512633131
 21
-32.585473172507612
 31
0.0
  0
LINE
  5
1BE21
  8
KI
  6
DASHED2
 62
     7
 10
237.20931202704631
 20
-30.1363963469203
 30
0.0
 11
235.39268343469109
 21
-32.585473172507612
 31
0.0
  0
LINE
  5
1BE22
  8
KI
  6
DASHED2
 62
     7
 10
238.3194603354064
 20
-30.1363963469203
 30
0.0
 11
236.50283174305139
 21
-32.585473172507612
 31
0.0
  0
LINE
  5
1BE23
  8
KI
  6
DASHED2
 62
     7
 10
242.76012355896711
 20
-30.136396350869319
 30
0.0
 11
240.94349496661241
 21
-32.585473176456638
 31
0.0
  0
LINE
  5
1BE24
  8
KI
  6
DASHED2
 62
     7
 10
243.8702718673274
 20
-30.136396350869319
 30
0.0
 11
242.05364327497199
 21
-32.585473176456638
 31
0.0
  0
LINE
  5
1BE25
  8
KI
  6
DASHED2
 62
     7
 10
244.9804551707478
 20
-30.136396350869319
 30
0.0
 11
243.1638265783929
 21
-32.585473176456638
 31
0.0
  0
LINE
  5
1BE26
  8
KI
  6
DASHED2
 62
     7
 10
246.09060347910781
 20
-30.136396350869319
 30
0.0
 11
244.273974886753
 21
-32.585473176456638
 31
0.0
  0
LINE
  5
1BE27
  8
KI
  6
DASHED2
 62
     7
 10
247.20075178746799
 20
-30.136396350869319
 30
0.0
 11
245.38412319511329
 21
-32.585473176456638
 31
0.0
  0
LINE
  5
1BE28
  8
KI
  6
DASHED2
 62
     7
 10
248.31093509088831
 20
-30.136396350869319
 30
0.0
 11
246.4943064985336
 21
-32.585473176456638
 31
0.0
  0
LINE
  5
1BE29
  8
KI
  6
DASHED2
 62
     7
 10
249.4210833992484
 20
-30.136396350869319
 30
0.0
 11
247.6044548068939
 21
-32.585473176456638
 31
0.0
  0
LINE
  5
1BE2A
  8
KI
  6
DASHED2
 62
     7
 10
250.53123170760861
 20
-30.136396350869319
 30
0.0
 11
248.71460311525371
 21
-32.585473176456638
 31
0.0
  0
LINE
  5
1BE2B
  8
KI
  6
DASHED2
 62
     7
 10
251.6414150110291
 20
-30.136396350869319
 30
0.0
 11
249.82478641867399
 21
-32.585473176456638
 31
0.0
  0
LINE
  5
1BE2C
  8
KI
  6
DASHED2
 62
     7
 10
252.75156331938891
 20
-30.136396350869319
 30
0.0
 11
250.9349347270342
 21
-32.585473176456638
 31
0.0
  0
LINE
  5
1BE2D
  8
KI
  6
DASHED2
 62
     7
 10
253.86174662280959
 20
-30.136396350869319
 30
0.0
 11
252.0451180304548
 21
-32.585473176456638
 31
0.0
  0
LINE
  5
1BE2E
  8
KI
  6
DASHED2
 62
     7
 10
254.9718949311698
 20
-30.136396350869319
 30
0.0
 11
253.1552663388147
 21
-32.585473176456638
 31
0.0
  0
LINE
  5
1BE2F
  8
KI
  6
DASHED2
 62
     7
 10
256.08204323952992
 20
-30.136396350869319
 30
0.0
 11
254.26541464717499
 21
-32.585473176456638
 31
0.0
  0
LINE
  5
1BE30
  8
KI
  6
DASHED2
 62
     7
 10
257.19222654295032
 20
-30.136396350869319
 30
0.0
 11
255.37559795059551
 21
-32.585473176456638
 31
0.0
  0
LINE
  5
1BE31
  8
KI
  6
DASHED2
 62
     7
 10
258.30237485131062
 20
-30.136396350869319
 30
0.0
 11
256.48574625895509
 21
-32.585473176456638
 31
0.0
  0
LINE
  5
1BE32
  8
KI
  6
DASHED2
 62
     7
 10
219.0161848919943
 20
-30.24687575727787
 30
0.0
 11
257.130810211545
 21
-30.246875757277881
 31
0.0
  0
LINE
  5
1BE33
  8
KI
  6
DASHED2
 62
     7
 10
257.130810211545
 20
-30.246875757277881
 30
0.0
 11
265.7191230160139
 21
-31.292405686184821
 31
0.0
  0
LINE
  5
1BE34
  8
KI
  6
DASHED2
 62
     7
 10
257.130810211545
 20
-32.346859355552652
 30
0.0
 11
265.7191230160139
 21
-31.301329426645712
 31
0.0
  0
LINE
  5
1BE35
  8
KI
  6
DASHED2
 62
     7
 10
219.0161848919943
 20
-32.346859355552652
 30
0.0
 11
257.130810211545
 21
-32.346859355552652
 31
0.0
  0
LINE
  5
1BE36
  8
KI
  6
DASHED2
 62
     7
 10
239.4296436388268
 20
-30.136396350869319
 30
0.0
 11
237.61301504647199
 21
-32.585473176456638
 31
0.0
  0
LINE
  5
1BE37
  8
KI
  6
DASHED2
 62
     7
 10
240.5397919471869
 20
-30.136396350869319
 30
0.0
 11
238.72316335483231
 21
-32.585473176456638
 31
0.0
  0
LINE
  5
1BE38
  8
KI
  6
DASHED2
 62
     7
 10
241.6499402555468
 20
-30.136396350869319
 30
0.0
 11
239.83331166319209
 21
-32.585473176456638
 31
0.0
  0
LINE
  5
1BE39
  8
KI
  6
DASHED2
 62
     7
 10
236.09912872362551
 20
-30.136396350869319
 30
0.0
 11
234.28253512633131
 21
-32.585473176456638
 31
0.0
  0
LINE
  5
1BE3A
  8
KI
  6
DASHED2
 62
     7
 10
237.20931202704631
 20
-30.136396350869319
 30
0.0
 11
235.39268343469109
 21
-32.585473176456638
 31
0.0
  0
LINE
  5
1BE3B
  8
KI
  6
DASHED2
 62
     7
 10
238.3194603354064
 20
-30.136396350869319
 30
0.0
 11
236.50283174305139
 21
-32.585473176456638
 31
0.0
  0
LINE
  5
1BE3C
  8
KI
  6
CENTER2
 62
     7
 10
212.66122186186021
 20
-31.296867556415261
 30
0.0
 11
271.13142409796239
 21
-31.296867556415268
 31
0.0
  0
LINE
  5
1BE3D
  8
SU
  6
CONTINUOUS
 62
     3
 10
13.016219887054961
 20
-102.79686802772861
 30
0.0
 11
13.016219887054961
 21
-178.2968680277138
 31
0.0
  0
LINE
  5
1BE3E
  8
SU
  6
CONTINUOUS
 62
     3
 10
263.016219887055
 20
-102.79686802772861
 30
0.0
 11
263.016219887055
 21
-178.2968680277138
 31
0.0
  0
LINE
  5
1BE3F
  8
SU
  6
CONTINUOUS
 62
     3
 10
13.016219887054961
 20
-175.2968680277138
 30
0.0
 11
263.016219887055
 21
-175.2968680277138
 31
0.0
  0
LINE
  5
1BE40
  8
SU
  6
CONTINUOUS
 62
     3
 10
239.0162198870548
 20
-102.796868027728
 30
0.0
 11
239.0162198870548
 21
-163.2968680277138
 31
0.0
  0
LINE
  5
1BE41
  8
SU
  6
CONTINUOUS
 62
     3
 10
235.01621987146791
 20
-160.2968680277138
 30
0.0
 11
239.0162198870548
 21
-160.2968680277138
 31
0.0
  0
LINE
  5
1BE42
  8
SU
  6
CONTINUOUS
 62
     3
 10
237.0162198792616
 20
-160.2968680277138
 30
0.0
 11
232.31621987146809
 21
-145.2968680277138
 31
0.0
  0
LINE
  5
1BE43
  8
SU
  6
CONTINUOUS
 62
     3
 10
232.31621987146809
 20
-145.2968680277138
 30
0.0
 11
227.3447913000393
 21
-145.2968680277138
 31
0.0
  0
LINE
  5
1BE44
  8
SU
  6
CONTINUOUS
 62
     3
 10
235.01621987146791
 20
-95.296868027713785
 30
0.0
 11
235.01621987146791
 21
-163.2968680277138
 31
0.0
  0
LINE
  5
1BE45
  8
SU
  6
CONTINUOUS
 62
     3
 10
41.016219902642042
 20
-95.296868027713785
 30
0.0
 11
41.016219902642042
 21
-163.2968680277138
 31
0.0
  0
LINE
  5
1BE46
  8
SU
  6
CONTINUOUS
 62
     3
 10
235.01621987146791
 20
-160.2968680277138
 30
0.0
 11
41.016219902642042
 21
-160.2968680277138
 31
0.0
  0
LINE
  5
1BE47
  8
SU
  6
CONTINUOUS
 62
     3
 10
77.016219902646299
 20
-19.296868789664611
 30
0.0
 11
77.016219902646299
 21
38.203131972269887
 31
0.0
  0
LINE
  5
1BE48
  8
SU
  6
CONTINUOUS
 62
     3
 10
239.01621988705449
 20
12.203131972270141
 30
0.0
 11
239.01621988705449
 21
82.203131972269873
 31
0.0
  0
LINE
  5
1BE49
  8
SU
  6
CONTINUOUS
 62
     3
 10
219.0162198870548
 20
-18.296868789664611
 30
0.0
 11
219.0162198870548
 21
82.203131972269873
 31
0.0
  0
LINE
  5
1BE4A
  8
SU
  6
CONTINUOUS
 62
     3
 10
239.01621988705449
 20
79.203131972269873
 30
0.0
 11
219.0162198870548
 21
79.203131972269873
 31
0.0
  0
LINE
  5
1BE4B
  8
SU
  6
CONTINUOUS
 62
     3
 10
57.016219887055151
 20
-18.296868789664611
 30
0.0
 11
57.016219887055151
 21
82.203131972269873
 31
0.0
  0
LINE
  5
1BE4C
  8
SU
  6
CONTINUOUS
 62
     3
 10
37.016219902646299
 20
79.203131972269873
 30
0.0
 11
57.016219887055151
 21
79.203131972269873
 31
0.0
  0
LINE
  5
1BE4D
  8
SU
  6
CONTINUOUS
 62
     3
 10
38.016219902646277
 20
38.203131972269901
 30
0.0
 11
94.01622235117523
 21
38.203131972269887
 31
0.0
  0
LINE
  5
1BE4E
  8
SU
  6
CONTINUOUS
 62
     3
 10
38.016219887054959
 20
-101.79686802772861
 30
0.0
 11
94.01622235117523
 21
-101.79686802772861
 31
0.0
  0
LINE
  5
1BE4F
  8
SU
  6
CONTINUOUS
 62
     3
 10
91.016222351175287
 20
38.203131972269887
 30
0.0
 11
91.016222351175188
 21
-101.79686802772861
 31
0.0
  0
LINE
  5
1BE50
  8
SU
  6
CONTINUOUS
 62
     3
 10
-114.76332064689331
 20
137.7047657740309
 30
0.0
 11
-108.76332064689331
 21
147.7047657740309
 31
0.0
  0
LINE
  5
1BE51
  8
SU
  6
CONTINUOUS
 62
     3
 10
-102.76332064689331
 20
137.7047657740309
 30
0.0
 11
-108.76332064689331
 21
147.7047657740309
 31
0.0
  0
LINE
  5
1BE52
  8
SU
  6
CONTINUOUS
 62
     3
 10
-114.76332064689331
 20
137.7047657740309
 30
0.0
 11
-102.76332064689331
 21
137.7047657740309
 31
0.0
  0
LINE
  5
1BE53
  8
SU
  6
CONTINUOUS
 62
     3
 10
-225.2633207693741
 20
119.7047332533687
 30
0.0
 11
-225.2633207693741
 21
79.204765774032666
 31
0.0
  0
LINE
  5
1BE54
  8
SU
  6
CONTINUOUS
 62
     3
 10
-236.26332076962589
 20
102.7047332533683
 30
0.0
 11
-236.26332076962589
 21
79.204765774032666
 31
0.0
  0
LINE
  5
1BE55
  8
SU
  6
CONTINUOUS
 62
     3
 10
-225.2633207693741
 20
82.204765774032666
 30
0.0
 11
-236.26332076962589
 21
82.204765774032666
 31
0.0
  0
LINE
  5
1BE56
  8
SU
  6
CONTINUOUS
 62
     3
 10
-185.26331906086119
 20
119.7047332533685
 30
0.0
 11
-185.26331906086119
 21
79.204765774032523
 31
0.0
  0
LINE
  5
1BE57
  8
SU
  6
CONTINUOUS
 62
     3
 10
-225.2633207693741
 20
119.7047332533687
 30
0.0
 11
-225.2633207693741
 21
79.204765774032523
 31
0.0
  0
LINE
  5
1BE58
  8
SU
  6
CONTINUOUS
 62
     3
 10
-185.26331906086119
 20
82.204765774032509
 30
0.0
 11
-225.2633207693741
 21
82.204765774032509
 31
0.0
  0
LINE
  5
1BE59
  8
SU
  6
CONTINUOUS
 62
     3
 10
-176.7633206470968
 20
123.704765774031
 30
0.0
 11
-120.7633206468919
 21
123.704765774031
 31
0.0
  0
LINE
  5
1BE5A
  8
SU
  6
CONTINUOUS
 62
     3
 10
-123.7633206468919
 20
123.704765774031
 30
0.0
 11
-123.7633206468919
 21
147.7047657740309
 31
0.0
  0
LINE
  5
1BE5B
  8
SU
  6
CONTINUOUS
 62
     3
 10
-185.26331906086119
 20
82.204765774032509
 30
0.0
 11
-177.7633206470968
 21
82.204765774032509
 31
0.0
  0
LINE
  5
1BE5C
  8
SU
  6
CONTINUOUS
 62
     3
 10
-177.7633206470968
 20
82.204765774032509
 30
0.0
 11
-165.80713017090639
 21
82.204765774032509
 31
0.0
  0
LINE
  5
1BE5D
  8
SU
  6
CONTINUOUS
 62
     3
 10
-184.26331906086111
 20
120.7047332533685
 30
0.0
 11
-120.7633206468919
 21
120.7047332533685
 31
0.0
  0
LINE
  5
1BE5E
  8
SU
  6
CONTINUOUS
 62
     3
 10
-123.7633206468919
 20
120.7047332533685
 30
0.0
 11
-123.7633206468919
 21
123.704765774031
 31
0.0
  0
LINE
  5
1BE5F
  8
SU
  6
CONTINUOUS
 62
     3
 10
-123.7633206468919
 20
122.2047495136997
 30
0.0
 11
-135.2633206469954
 21
130.77393785928211
 31
0.0
  0
LINE
  5
1BE60
  8
SU
  6
CONTINUOUS
 62
     3
 10
-135.2633206469954
 20
130.77393785928211
 30
0.0
 11
-135.2633206469954
 21
135.5872711926155
 31
0.0
  0
LINE
  5
1BE61
  8
KI
  6
DASHED2
 62
     7
 10
-247.2133277330374
 20
103.7046982583079
 30
0.0
 11
-245.7145942714443
 21
101.7046955482524
 31
0.0
  0
LINE
  5
1BE62
  8
KI
  6
DASHED2
 62
     7
 10
-249.31331133131241
 20
103.7046982583079
 30
0.0
 11
-250.81204479290591
 21
101.7046955482524
 31
0.0
  0
LINE
  5
1BE63
  8
KI
  6
DASHED2
 62
     7
 10
-249.42379074166999
 20
127.4486369252807
 30
0.0
 11
-246.97471391608281
 21
125.6320083329262
 31
0.0
  0
LINE
  5
1BE64
  8
KI
  6
DASHED2
 62
     7
 10
-249.42379074166999
 20
128.5587852336412
 30
0.0
 11
-246.97471391608281
 21
126.7421566412859
 31
0.0
  0
LINE
  5
1BE65
  8
KI
  6
DASHED2
 62
     7
 10
-249.42379074166999
 20
129.6689685370616
 30
0.0
 11
-246.97471391608281
 21
127.8523399447069
 31
0.0
  0
LINE
  5
1BE66
  8
KI
  6
DASHED2
 62
     7
 10
-249.42379074166999
 20
130.77911684542141
 30
0.0
 11
-246.97471391608281
 21
128.96248825306671
 31
0.0
  0
LINE
  5
1BE67
  8
KI
  6
DASHED2
 62
     7
 10
-249.42379074166999
 20
131.88926515378171
 30
0.0
 11
-246.97471391608281
 21
130.072636561427
 31
0.0
  0
LINE
  5
1BE68
  8
KI
  6
DASHED2
 62
     7
 10
-249.42379074166999
 20
132.99944845720211
 30
0.0
 11
-246.97471391608281
 21
131.1828198648474
 31
0.0
  0
LINE
  5
1BE69
  8
KI
  6
DASHED2
 62
     7
 10
-249.42379074166999
 20
134.109596765562
 30
0.0
 11
-246.97471391608281
 21
132.2929681732077
 31
0.0
  0
LINE
  5
1BE6A
  8
KI
  6
DASHED2
 62
     7
 10
-249.42379074166999
 20
135.21974507392241
 30
0.0
 11
-246.97471391608281
 21
133.40311648156751
 31
0.0
  0
LINE
  5
1BE6B
  8
KI
  6
DASHED2
 62
     7
 10
-249.42379074166999
 20
136.32992837734281
 30
0.0
 11
-246.97471391608281
 21
134.51329978498791
 31
0.0
  0
LINE
  5
1BE6C
  8
KI
  6
DASHED2
 62
     7
 10
-249.42379074166999
 20
137.44007668570251
 30
0.0
 11
-246.97471391608281
 21
135.6234480933482
 31
0.0
  0
LINE
  5
1BE6D
  8
KI
  6
DASHED2
 62
     7
 10
-249.42379074166999
 20
138.5502599891235
 30
0.0
 11
-246.97471391608281
 21
136.73363139676829
 31
0.0
  0
LINE
  5
1BE6E
  8
KI
  6
DASHED2
 62
     7
 10
-249.42379074166999
 20
124.1181570051404
 30
0.0
 11
-246.97471391608281
 21
122.3015284127854
 31
0.0
  0
LINE
  5
1BE6F
  8
KI
  6
DASHED2
 62
     7
 10
-249.42379074166999
 20
125.2283053135008
 30
0.0
 11
-246.97471391608281
 21
123.4116767211455
 31
0.0
  0
LINE
  5
1BE70
  8
KI
  6
DASHED2
 62
     7
 10
-249.42379074166999
 20
126.33845362186059
 30
0.0
 11
-246.97471391608281
 21
124.52182502950581
 31
0.0
  0
LINE
  5
1BE71
  8
KI
  6
DASHED2
 62
     7
 10
-249.42379074166999
 20
120.7876420899394
 30
0.0
 11
-246.97471391608281
 21
118.9710484926451
 31
0.0
  0
LINE
  5
1BE72
  8
KI
  6
DASHED2
 62
     7
 10
-249.42379074166999
 20
121.89782539336019
 30
0.0
 11
-246.97471391608281
 21
120.08119680100459
 31
0.0
  0
LINE
  5
1BE73
  8
KI
  6
DASHED2
 62
     7
 10
-249.42379074166999
 20
123.00797370171991
 30
0.0
 11
-246.97471391608281
 21
121.1913451093652
 31
0.0
  0
LINE
  5
1BE74
  8
KI
  6
DASHED2
 62
     7
 10
-249.42379073772111
 20
127.4486369252807
 30
0.0
 11
-246.97471391213361
 21
125.6320083329262
 31
0.0
  0
LINE
  5
1BE75
  8
KI
  6
DASHED2
 62
     7
 10
-249.42379073772111
 20
128.5587852336412
 30
0.0
 11
-246.97471391213361
 21
126.7421566412859
 31
0.0
  0
LINE
  5
1BE76
  8
KI
  6
DASHED2
 62
     7
 10
-249.42379073772111
 20
129.6689685370616
 30
0.0
 11
-246.97471391213361
 21
127.8523399447069
 31
0.0
  0
LINE
  5
1BE77
  8
KI
  6
DASHED2
 62
     7
 10
-249.42379073772111
 20
130.77911684542141
 30
0.0
 11
-246.97471391213361
 21
128.96248825306671
 31
0.0
  0
LINE
  5
1BE78
  8
KI
  6
DASHED2
 62
     7
 10
-249.42379073772111
 20
131.88926515378171
 30
0.0
 11
-246.97471391213361
 21
130.072636561427
 31
0.0
  0
LINE
  5
1BE79
  8
KI
  6
DASHED2
 62
     7
 10
-249.42379073772111
 20
132.99944845720211
 30
0.0
 11
-246.97471391213361
 21
131.1828198648474
 31
0.0
  0
LINE
  5
1BE7A
  8
KI
  6
DASHED2
 62
     7
 10
-249.42379073772111
 20
134.109596765562
 30
0.0
 11
-246.97471391213361
 21
132.2929681732077
 31
0.0
  0
LINE
  5
1BE7B
  8
KI
  6
DASHED2
 62
     7
 10
-249.42379073772111
 20
135.21974507392241
 30
0.0
 11
-246.97471391213361
 21
133.40311648156751
 31
0.0
  0
LINE
  5
1BE7C
  8
KI
  6
DASHED2
 62
     7
 10
-249.42379073772111
 20
136.32992837734281
 30
0.0
 11
-246.97471391213361
 21
134.51329978498791
 31
0.0
  0
LINE
  5
1BE7D
  8
KI
  6
DASHED2
 62
     7
 10
-249.42379073772111
 20
137.44007668570251
 30
0.0
 11
-246.97471391213361
 21
135.6234480933482
 31
0.0
  0
LINE
  5
1BE7E
  8
KI
  6
DASHED2
 62
     7
 10
-249.42379073772111
 20
138.5502599891235
 30
0.0
 11
-246.97471391213361
 21
136.73363139676829
 31
0.0
  0
LINE
  5
1BE7F
  8
KI
  6
DASHED2
 62
     7
 10
-249.42379073772111
 20
139.6604082974838
 30
0.0
 11
-246.97471391213361
 21
137.8437797051285
 31
0.0
  0
LINE
  5
1BE80
  8
KI
  6
DASHED2
 62
     7
 10
-249.42379073772111
 20
140.77055660584361
 30
0.0
 11
-246.97471391213361
 21
138.95392801348879
 31
0.0
  0
LINE
  5
1BE81
  8
KI
  6
DASHED2
 62
     7
 10
-249.42379073772111
 20
141.88073990926381
 30
0.0
 11
-246.97471391213361
 21
140.06411131690911
 31
0.0
  0
LINE
  5
1BE82
  8
KI
  6
DASHED2
 62
     7
 10
-249.42379073772111
 20
142.9908882176243
 30
0.0
 11
-246.97471391213361
 21
141.1742596252688
 31
0.0
  0
LINE
  5
1BE83
  8
KI
  6
DASHED2
 62
     7
 10
-249.31331133131241
 20
103.7046982583079
 30
0.0
 11
-249.31331133131241
 21
141.81932357785871
 31
0.0
  0
LINE
  5
1BE84
  8
KI
  6
DASHED2
 62
     7
 10
-249.31331133131241
 20
141.81932357785871
 30
0.0
 11
-248.2677814024054
 21
150.4076363823275
 31
0.0
  0
LINE
  5
1BE85
  8
KI
  6
DASHED2
 62
     7
 10
-247.2133277330374
 20
141.81932357785871
 30
0.0
 11
-248.25885766194469
 21
150.4076363823275
 31
0.0
  0
LINE
  5
1BE86
  8
KI
  6
DASHED2
 62
     7
 10
-247.2133277330374
 20
103.7046982583079
 30
0.0
 11
-247.2133277330374
 21
141.81932357785871
 31
0.0
  0
LINE
  5
1BE87
  8
KI
  6
DASHED2
 62
     7
 10
-249.42379073772111
 20
124.1181570051404
 30
0.0
 11
-246.97471391213361
 21
122.3015284127854
 31
0.0
  0
LINE
  5
1BE88
  8
KI
  6
DASHED2
 62
     7
 10
-249.42379073772111
 20
125.2283053135008
 30
0.0
 11
-246.97471391213361
 21
123.4116767211457
 31
0.0
  0
LINE
  5
1BE89
  8
KI
  6
DASHED2
 62
     7
 10
-249.42379073772111
 20
126.33845362186059
 30
0.0
 11
-246.97471391213361
 21
124.52182502950581
 31
0.0
  0
LINE
  5
1BE8A
  8
KI
  6
DASHED2
 62
     7
 10
-249.42379073772111
 20
120.7876420899394
 30
0.0
 11
-246.97471391213361
 21
118.9710484926451
 31
0.0
  0
LINE
  5
1BE8B
  8
KI
  6
DASHED2
 62
     7
 10
-249.42379073772111
 20
121.89782539336019
 30
0.0
 11
-246.97471391213361
 21
120.08119680100459
 31
0.0
  0
LINE
  5
1BE8C
  8
KI
  6
DASHED2
 62
     7
 10
-249.42379073772111
 20
123.00797370171991
 30
0.0
 11
-246.97471391213361
 21
121.1913451093652
 31
0.0
  0
LINE
  5
1BE8D
  8
KI
  6
CENTER2
 62
     7
 10
-248.2633195321751
 20
97.349735228173984
 30
0.0
 11
-248.2633195321751
 21
155.81993746427599
 31
0.0
  0
LINE
  5
1BE8E
  8
SU
  6
CONTINUOUS
 62
     3
 10
-260.26331829522712
 20
102.7047332533683
 30
0.0
 11
-260.26331829522712
 21
79.204765774032523
 31
0.0
  0
LINE
  5
1BE8F
  8
SU
  6
CONTINUOUS
 62
     3
 10
-317.76332064699523
 20
122.70476577403051
 30
0.0
 11
-317.76332064699523
 21
79.204765774032523
 31
0.0
  0
LINE
  5
1BE90
  8
SU
  6
CONTINUOUS
 62
     3
 10
-260.26331829522712
 20
82.204765774032509
 30
0.0
 11
-317.76332064699523
 21
82.204765774032509
 31
0.0
  0
LINE
  5
1BE91
  8
SU
  6
CONTINUOUS
 62
     3
 10
-318.76332064699523
 20
123.70476577403061
 30
0.0
 11
-361.76332064699562
 21
123.70476577403061
 31
0.0
  0
LINE
  5
1BE92
  8
SU
  6
CONTINUOUS
 62
     3
 10
-261.26331829522729
 20
103.7047332533687
 30
0.0
 11
-361.76332064699562
 21
103.7047332533687
 31
0.0
  0
LINE
  5
1BE93
  8
SU
  6
CONTINUOUS
 62
     3
 10
-358.76332064699562
 20
123.70476577403061
 30
0.0
 11
-358.76332064699562
 21
103.7047332533687
 31
0.0
  0
LINE
  5
1BE94
  8
KI
  6
CONTINUOUS
 62
     7
 10
-254.2633182949763
 20
128.2047332533684
 30
0.0
 11
-242.26332076937371
 21
128.2047332533684
 31
0.0
  0
LINE
  5
1BE95
  8
KI
  6
CONTINUOUS
 62
     7
 10
-242.26332076937371
 20
128.2047332533684
 30
0.0
 11
-242.26332076937371
 21
123.7047332533684
 31
0.0
  0
LINE
  5
1BE96
  8
KI
  6
CONTINUOUS
 62
     7
 10
-242.2633207693741
 20
123.7047332533684
 30
0.0
 11
-236.2633207693743
 21
123.7047332533684
 31
0.0
  0
LINE
  5
1BE97
  8
KI
  6
CONTINUOUS
 62
     7
 10
-254.2633182949763
 20
128.2047332533684
 30
0.0
 11
-254.2633182949763
 21
123.7047332533684
 31
0.0
  0
LINE
  5
1BE98
  8
KI
  6
CONTINUOUS
 62
     7
 10
-260.26331829497622
 20
123.7047332533684
 30
0.0
 11
-254.2633182949763
 21
123.7047332533684
 31
0.0
  0
LINE
  5
1BE99
  8
KI
  6
CONTINUOUS
 62
     7
 10
-260.26331829497622
 20
123.7047332533684
 30
0.0
 11
-260.26331829497622
 21
103.7047332533683
 31
0.0
  0
LINE
  5
1BE9A
  8
KI
  6
CONTINUOUS
 62
     7
 10
-260.26331829497622
 20
103.7047332533683
 30
0.0
 11
-236.2633207693743
 21
103.7047332533683
 31
0.0
  0
LINE
  5
1BE9B
  8
KI
  6
CONTINUOUS
 62
     7
 10
-236.2633207693743
 20
123.7047332533684
 30
0.0
 11
-236.2633207693743
 21
103.7047332533683
 31
0.0
  0
LINE
  5
1BE9C
  8
KI
  6
CONTINUOUS
 62
     7
 10
-235.76331476937369
 20
103.7046982583079
 30
0.0
 11
-233.5372220381449
 21
103.7046982583075
 31
0.0
  0
ARC
  5
1BE9D
  8
KI
  6
CONTINUOUS
 62
     7
 10
-226.255291719718
 20
115.2655741484579
 30
0.0
 40
9.2190722294335075
 50
125.6258681755171
 51
177.1953126595514
  0
LINE
  5
1BE9E
  8
KI
  6
CONTINUOUS
 62
     7
 10
-236.2633207693749
 20
105.87170298370999
 30
0.0
 11
-236.0963160439708
 21
105.7046982583061
 31
0.0
  0
LINE
  5
1BE9F
  8
KI
  6
CONTINUOUS
 62
     7
 10
-236.06332076937389
 20
106.5697285958155
 30
0.0
 11
-235.46331476937399
 21
105.96972259581619
 31
0.0
  0
LINE
  5
1BEA0
  8
KI
  6
CONTINUOUS
 62
     7
 10
-236.2633207693743
 20
106.7697285958167
 30
0.0
 11
-236.06332076937389
 21
106.5697285958159
 31
0.0
  0
LINE
  5
1BEA1
  8
KI
  6
CONTINUOUS
 62
     7
 10
-236.06332076937389
 20
107.46775420792299
 30
0.0
 11
-235.46331476937399
 21
106.8677482079229
 31
0.0
  0
LINE
  5
1BEA2
  8
KI
  6
CONTINUOUS
 62
     7
 10
-236.2633207693749
 20
107.66775420792339
 30
0.0
 11
-236.06332076937389
 21
107.46775420792299
 31
0.0
  0
LINE
  5
1BEA3
  8
KI
  6
CONTINUOUS
 62
     7
 10
-236.06332076937389
 20
108.3657798200299
 30
0.0
 11
-235.46331476937399
 21
107.76577382002959
 31
0.0
  0
LINE
  5
1BEA4
  8
KI
  6
CONTINUOUS
 62
     7
 10
-236.2633207693749
 20
108.5657798200301
 30
0.0
 11
-236.06332076937389
 21
108.3657798200299
 31
0.0
  0
LINE
  5
1BEA5
  8
KI
  6
CONTINUOUS
 62
     7
 10
-236.06332076937389
 20
109.26380543213691
 30
0.0
 11
-235.46331476937439
 21
108.6637994321365
 31
0.0
  0
LINE
  5
1BEA6
  8
KI
  6
CONTINUOUS
 62
     7
 10
-236.2633207693749
 20
109.46380543213731
 30
0.0
 11
-236.06332076937389
 21
109.26380543213691
 31
0.0
  0
LINE
  5
1BEA7
  8
KI
  6
CONTINUOUS
 62
     7
 10
-236.06332076937309
 20
110.1618310442437
 30
0.0
 11
-235.4633147693736
 21
109.561825044244
 31
0.0
  0
LINE
  5
1BEA8
  8
KI
  6
CONTINUOUS
 62
     7
 10
-236.26332076937391
 20
110.3618310442445
 30
0.0
 11
-236.06332076937341
 21
110.1618310442437
 31
0.0
  0
LINE
  5
1BEA9
  8
KI
  6
CONTINUOUS
 62
     7
 10
-236.06332076937309
 20
111.05985665635041
 30
0.0
 11
-235.7081623713303
 21
110.70469825830691
 31
0.0
  0
LINE
  5
1BEAA
  8
KI
  6
CONTINUOUS
 62
     7
 10
-235.7081623713303
 20
110.70469825830691
 30
0.0
 11
-235.48395023565479
 21
110.4804861226321
 31
0.0
  0
LINE
  5
1BEAB
  8
KI
  6
CONTINUOUS
 62
     7
 10
-236.26332076937351
 20
111.25985665635071
 30
0.0
 11
-236.06332076937341
 21
111.05985665635041
 31
0.0
  0
LINE
  5
1BEAC
  8
KI
  6
CONTINUOUS
 62
     7
 10
-236.06332076937341
 20
111.9578822684575
 30
0.0
 11
-235.46332076937409
 21
111.3578822684587
 31
0.0
  0
LINE
  5
1BEAD
  8
KI
  6
CONTINUOUS
 62
     7
 10
-236.26332076937351
 20
112.1578822684575
 30
0.0
 11
-236.06332076937341
 21
111.9578822684575
 31
0.0
  0
LINE
  5
1BEAE
  8
KI
  6
CONTINUOUS
 62
     7
 10
-236.06332076937341
 20
112.8559078805648
 30
0.0
 11
-235.46332076937369
 21
112.25590788056439
 31
0.0
  0
LINE
  5
1BEAF
  8
KI
  6
CONTINUOUS
 62
     7
 10
-236.26332076937391
 20
113.0559078805644
 30
0.0
 11
-236.06332076937341
 21
112.8559078805648
 31
0.0
  0
LINE
  5
1BEB0
  8
KI
  6
CONTINUOUS
 62
     7
 10
-236.01408553500951
 20
113.704698258307
 30
0.0
 11
-235.46332076937369
 21
113.1539334926709
 31
0.0
  0
LINE
  5
1BEB1
  8
KI
  6
CONTINUOUS
 62
     7
 10
-236.26332076937391
 20
113.704698258307
 30
0.0
 11
-235.46332076937369
 21
113.704698258307
 31
0.0
  0
LINE
  5
1BEB2
  8
KI
  6
CONTINUOUS
 62
     7
 10
-236.2633207693743
 20
105.7046982583079
 30
0.0
 11
-235.4633147693736
 21
105.704698258307
 31
0.0
  0
LINE
  5
1BEB3
  8
KI
  6
CONTINUOUS
 62
     7
 10
-235.4633207693733
 20
114.7166770105769
 30
0.0
 11
-235.46332076937369
 21
110.9547082583077
 31
0.0
  0
LINE
  5
1BEB4
  8
KI
  6
CONTINUOUS
 62
     7
 10
-235.66332076937391
 20
110.70470825830731
 30
0.0
 11
-235.46332076937369
 21
110.4546982583075
 31
0.0
  0
LINE
  5
1BEB5
  8
KI
  6
CONTINUOUS
 62
     7
 10
-235.6633147693743
 20
110.70470825830731
 30
0.0
 11
-235.46332076937369
 21
110.9547082583077
 31
0.0
  0
LINE
  5
1BEB6
  8
KI
  6
CONTINUOUS
 62
     7
 10
-235.4633147693736
 20
110.45470825830721
 30
0.0
 11
-235.4633147693736
 21
104.7046982583079
 31
0.0
  0
ARC
  5
1BEB7
  8
KI
  6
CONTINUOUS
 62
     7
 10
-235.76332076937371
 20
115.4166770105772
 30
0.0
 40
0.3
 50
89.999999999913726
 51
179.99999999965141
  0
LINE
  5
1BEB8
  8
KI
  6
CONTINUOUS
 62
     7
 10
-235.46332076937369
 20
115.7166770105769
 30
0.0
 11
-235.76332076937371
 21
115.7166770105774
 31
0.0
  0
ARC
  5
1BEB9
  8
KI
  6
CONTINUOUS
 62
     7
 10
-235.76332076937661
 20
115.01667701057811
 30
0.0
 40
0.3
 50
179.99999999965141
 51
269.99999999991348
  0
LINE
  5
1BEBA
  8
KI
  6
CONTINUOUS
 62
     7
 10
-236.06332076937389
 20
115.4166770105772
 30
0.0
 11
-236.06332076937639
 21
115.01667701057811
 31
0.0
  0
ARC
  5
1BEBB
  8
KI
  6
CONTINUOUS
 62
     7
 10
-235.76332076937661
 20
104.4046982583078
 30
0.0
 40
0.3
 50
89.999999999913726
 51
179.99999999965141
  0
ARC
  5
1BEBC
  8
KI
  6
CONTINUOUS
 62
     7
 10
-235.76332076937831
 20
104.0046982583082
 30
0.0
 40
0.3
 50
179.99999999965141
 51
269.99999999991348
  0
LINE
  5
1BEBD
  8
KI
  6
CONTINUOUS
 62
     7
 10
-236.06332076937591
 20
104.4046982583078
 30
0.0
 11
-236.06332076937869
 21
104.0046982583082
 31
0.0
  0
LINE
  5
1BEBE
  8
KI
  6
CONTINUOUS
 62
     7
 10
-235.4633147693736
 20
104.7046982583079
 30
0.0
 11
-235.76332076937661
 21
104.7046982583079
 31
0.0
  0
LINE
  5
1BEBF
  8
KI
  6
CONTINUOUS
 62
     7
 10
-235.76332076937661
 20
114.7166770105774
 30
0.0
 11
-235.4633207693733
 21
114.7166770105769
 31
0.0
  0
LINE
  5
1BEC0
  8
KI
  6
CONTINUOUS
 62
     7
 10
-236.26332076937391
 20
113.704698258307
 30
0.0
 11
-236.2633207693743
 21
105.7046982583079
 31
0.0
  0
ARC
  5
1BEC1
  8
KI
  6
CONTINUOUS
 62
     7
 10
-228.26992191997451
 20
105.1455402013935
 30
0.0
 40
0.5
 50
149.29692340093499
 51
243.9809326377075
  0
ARC
  5
1BEC2
  8
KI
  6
CONTINUOUS
 62
     7
 10
-231.68115764372479
 20
98.157373856756465
 30
0.0
 40
7.2763100519022599
 50
28.113232766358639
 51
63.980932637708079
  0
ARC
  5
1BEC3
  8
KI
  6
CONTINUOUS
 62
     7
 10
-249.78410423450211
 20
117.9212894282574
 30
0.0
 40
24.521586859558742
 50
329.29692340093601
 51
3.711186353431466
  0
ARC
  5
1BEC4
  8
KI
  6
CONTINUOUS
 62
     7
 10
-231.68115764372479
 20
98.157373856756465
 30
0.0
 40
5.776310051902259
 50
28.113232766358639
 51
73.813171799604191
  0
LINE
  5
1BEC5
  8
KI
  6
CONTINUOUS
 62
     7
 10
-233.5372220381449
 20
103.70469825830639
 30
0.0
 11
-230.07089375241671
 21
103.7046982583085
 31
0.0
  0
ARC
  5
1BEC6
  8
KI
  6
CONTINUOUS
 62
     7
 10
-249.78410423450211
 20
117.9212894282574
 30
0.0
 40
23.321944298558741
 50
328.41089939395619
 51
3.711186353431466
  0
LINE
  5
1BEC7
  8
KI
  6
CONTINUOUS
 62
     7
 10
-232.96335133805729
 20
105.704698258307
 30
0.0
 11
-229.91785179345561
 21
105.704698258307
 31
0.0
  0
LINE
  5
1BEC8
  8
KI
  6
CONTINUOUS
 62
     7
 10
-232.64766233651841
 20
119.2614166646279
 30
0.0
 11
-232.64766257762051
 21
119.26141646820101
 31
0.0
  0
LINE
  5
1BEC9
  8
KI
  6
CONTINUOUS
 62
     7
 10
-233.46335133805721
 20
116.2165213243667
 30
0.0
 11
-233.46335133805721
 21
106.204698258307
 31
0.0
  0
ARC
  5
1BECA
  8
KI
  6
CONTINUOUS
 62
     7
 10
-232.96335133805729
 20
106.204698258307
 30
0.0
 40
0.5
 50
180.0
 51
270.00000000000159
  0
ARC
  5
1BECB
  8
KI
  6
CONTINUOUS
 62
     7
 10
-230.34585889899071
 20
123.20837535289191
 30
0.0
 40
0.3
 50
12.850904373123271
 51
196.2830629427705
  0
ARC
  5
1BECC
  8
KI
  6
CONTINUOUS
 62
     7
 10
-231.4613102501489
 20
121.8475446143989
 30
0.0
 40
0.5
 50
294.55739357396021
 51
310.6725880273616
  0
ARC
  5
1BECD
  8
KI
  6
CONTINUOUS
 62
     7
 10
-227.6793158931774
 20
113.5706813528756
 30
0.0
 40
10.0
 50
107.18458009630901
 51
109.803175794162
  0
ARC
  5
1BECE
  8
KI
  6
CONTINUOUS
 62
     7
 10
-231.34791888880591
 20
122.87344180665841
 30
0.0
 40
0.3
 50
20.662644719016761
 51
202.3867008755924
  0
ARC
  5
1BECF
  8
KI
  6
CONTINUOUS
 62
     7
 10
-229.31058271858001
 20
119.344672047736
 30
0.0
 40
4.0
 50
2.3473418358611311
 51
25.701808746255011
  0
ARC
  5
1BED0
  8
KI
  6
CONTINUOUS
 62
     7
 10
-227.6793088553996
 20
113.570681352866
 30
0.0
 40
8.7999999999999972
 50
105.7760377473512
 51
105.8019134698674
  0
ARC
  5
1BED1
  8
KI
  6
CONTINUOUS
 62
     7
 10
-225.84648110344239
 20
121.3446720477351
 30
0.0
 40
0.3
 50
297.8509043731392
 51
122.14909562682701
  0
ARC
  5
1BED2
  8
KI
  6
CONTINUOUS
 62
     7
 10
-229.31058271858001
 20
119.344672047736
 30
0.0
 40
4.0
 50
34.29819125370711
 51
40.701808746296827
  0
ARC
  5
1BED3
  8
KI
  6
CONTINUOUS
 62
     7
 10
-226.4821555938349
 20
122.17309917248321
 30
0.0
 40
0.3
 50
312.8509043731467
 51
137.1490956268762
  0
ARC
  5
1BED4
  8
KI
  6
CONTINUOUS
 62
     7
 10
-229.3105827185783
 20
123.344672047736
 30
0.0
 40
0.3
 50
357.85090437314102
 51
182.14909562678051
  0
ARC
  5
1BED5
  8
KI
  6
CONTINUOUS
 62
     7
 10
-228.2753065381676
 20
123.20837535289139
 30
0.0
 40
0.3
 50
342.85090437306962
 51
167.14909562682331
  0
ARC
  5
1BED6
  8
KI
  6
CONTINUOUS
 62
     7
 10
-229.31058271858001
 20
119.344672047736
 30
0.0
 40
4.0
 50
64.298191253737713
 51
70.701808746227059
  0
ARC
  5
1BED7
  8
KI
  6
CONTINUOUS
 62
     7
 10
-227.310582718581
 20
122.8087736628742
 30
0.0
 40
0.3
 50
327.85090437311919
 51
152.14909562688661
  0
ARC
  5
1BED8
  8
KI
  6
CONTINUOUS
 62
     7
 10
-229.31058271858001
 20
119.344672047736
 30
0.0
 40
4.0
 50
49.298191253756329
 51
55.70180874627755
  0
ARC
  5
1BED9
  8
KI
  6
CONTINUOUS
 62
     7
 10
-229.31058271858001
 20
119.344672047736
 30
0.0
 40
4.0
 50
94.298191253699784
 51
100.7018087462819
  0
ARC
  5
1BEDA
  8
KI
  6
CONTINUOUS
 62
     7
 10
-229.31058271858001
 20
119.34467204775881
 30
0.0
 40
4.0
 50
79.298191253680031
 51
85.701808746241468
  0
ARC
  5
1BEDB
  8
KI
  6
CONTINUOUS
 62
     7
 10
-229.31058271858001
 20
119.344672047736
 30
0.0
 40
2.799999999999998
 50
2.3473418358611311
 51
130.67258802735509
  0
ARC
  5
1BEDC
  8
KI
  6
CONTINUOUS
 62
     7
 10
-226.2144282563923
 20
116.18165136214751
 30
0.0
 40
7.2490069497939373
 50
134.03842973471851
 51
179.72438854235031
  0
ARC
  5
1BEDD
  8
KI
  6
CONTINUOUS
 62
     7
 10
-225.97438353896229
 20
101.32541885910101
 30
0.0
 40
0.7573354118943643
 50
216.09422551477209
 51
20.132240017949432
  0
ARC
  5
1BEDE
  8
KI
  6
CONTINUOUS
 62
     7
 10
-242.76281339595999
 20
102.6542865184429
 30
0.0
 40
2.5000001067820641
 50
281.5250854492183
 51
1.155319213868458
  0
LINE
  5
1BEDF
  8
KI
  6
CONTINUOUS
 62
     7
 10
-240.26332618553539
 20
102.7047144008107
 30
0.0
 11
-240.26332618553539
 21
103.7046982583079
 31
0.0
  0
LINE
  5
1BEE0
  8
KI
  6
DASHED2
 62
     7
 10
-242.76332082433919
 20
101.7046955482524
 30
0.0
 11
-241.51331475617241
 21
102.7047144008107
 31
0.0
  0
LINE
  5
1BEE1
  8
KI
  6
DASHED2
 62
     7
 10
-242.7633208282883
 20
103.7047332533683
 30
0.0
 11
-241.5133147601214
 21
102.7047144008107
 31
0.0
  0
LINE
  5
1BEE2
  8
KI
  6
DASHED2
 62
     7
 10
-253.76331823211279
 20
101.7046955482524
 30
0.0
 11
-242.76332082433919
 21
101.7046955482524
 31
0.0
  0
LINE
  5
1BEE3
  8
KI
  6
DASHED2
 62
     7
 10
-255.01332430027981
 20
102.7047144008107
 30
0.0
 11
-241.51331475617241
 21
102.7047144008107
 31
0.0
  0
LINE
  5
1BEE4
  8
KI
  6
DASHED2
 62
     7
 10
-255.01332430027981
 20
102.7047144008107
 30
0.0
 11
-253.76331823211279
 21
103.7046982583079
 31
0.0
  0
LINE
  5
1BEE5
  8
KI
  6
DASHED2
 62
     7
 10
-255.01332430027981
 20
102.7047144008107
 30
0.0
 11
-253.76331823211279
 21
101.7046955482524
 31
0.0
  0
LINE
  5
1BEE6
  8
KI
  6
CONTINUOUS
 62
     7
 10
-242.26331139806061
 20
100.2047022644765
 30
0.0
 11
-254.2633276583916
 21
100.2047022644765
 31
0.0
  0
ARC
  5
1BEE7
  8
KI
  6
CONTINUOUS
 62
     7
 10
-253.76382566049159
 20
102.6542865184429
 30
0.0
 40
2.5000001067820641
 50
178.84469604492341
 51
258.47492980957111
  0
LINE
  5
1BEE8
  8
KI
  6
CONTINUOUS
 62
     7
 10
-256.26331287091631
 20
102.7047144008107
 30
0.0
 11
-256.26331287091631
 21
103.7046982583079
 31
0.0
  0
LINE
  5
1BEE9
  8
SU
  6
CONTINUOUS
 62
     3
 10
-236.26332076962589
 20
102.7047332533683
 30
0.0
 11
-236.26332076962589
 21
79.204765774032765
 31
0.0
  0
LINE
  5
1BEEA
  8
SU
  6
CONTINUOUS
 62
     3
 10
-260.26331829522712
 20
102.7047332533687
 30
0.0
 11
-260.26331829522712
 21
79.204765774032765
 31
0.0
  0
LINE
  5
1BEEB
  8
SU
  6
CONTINUOUS
 62
     3
 10
-236.26332076962589
 20
82.204765774032779
 30
0.0
 11
-260.26331829522712
 21
82.204765774032779
 31
0.0
  0
LINE
  5
1BEEC
  8
SU
  6
CONTINUOUS
 62
     3
 10
-177.7633206470968
 20
122.7047657740309
 30
0.0
 11
-177.7633206470968
 21
64.204765774031969
 31
0.0
  0
LINE
  5
1BEED
  8
SU
  6
CONTINUOUS
 62
     3
 10
-317.76332064699551
 20
122.7047657740309
 30
0.0
 11
-317.76332064699551
 21
64.204765774031969
 31
0.0
  0
LINE
  5
1BEEE
  8
SU
  6
CONTINUOUS
 62
     3
 10
-177.7633206470968
 20
67.204765774031955
 30
0.0
 11
-317.76332064699551
 21
67.204765774031955
 31
0.0
  0
LINE
  5
1BEEF
  8
SU
  6
CONTINUOUS
 62
     3
 10
-114.76332064689331
 20
-72.791390896381259
 30
0.0
 11
-108.76332064689331
 21
-82.791390896381259
 31
0.0
  0
LINE
  5
1BEF0
  8
SU
  6
CONTINUOUS
 62
     3
 10
-102.76332064689331
 20
-72.791390896381259
 30
0.0
 11
-108.76332064689331
 21
-82.791390896381259
 31
0.0
  0
LINE
  5
1BEF1
  8
SU
  6
CONTINUOUS
 62
     3
 10
-114.76332064689331
 20
-72.791390896381259
 30
0.0
 11
-102.76332064689331
 21
-72.791390896381259
 31
0.0
  0
LINE
  5
1BEF2
  8
SU
  6
CONTINUOUS
 62
     3
 10
-178.26332064699571
 20
-67.791388068497611
 30
0.0
 11
-120.763320646888
 21
-67.791388068497625
 31
0.0
  0
LINE
  5
1BEF3
  8
SU
  6
CONTINUOUS
 62
     3
 10
-123.76332064688791
 20
-67.791388068497625
 30
0.0
 11
-123.76332064688791
 21
-82.791390896381259
 31
0.0
  0
LINE
  5
1BEF4
  8
SU
  6
CONTINUOUS
 62
     3
 10
-177.76332064709649
 20
-83.791390896373088
 30
0.0
 11
-177.76332064709649
 21
-105.7913908963889
 31
0.0
  0
LINE
  5
1BEF5
  8
SU
  6
CONTINUOUS
 62
     3
 10
-177.76332064709649
 20
-102.7913908963889
 30
0.0
 11
-163.2004635132659
 21
-102.7913908963889
 31
0.0
  0
LINE
  5
1BEF6
  8
SU
  6
CONTINUOUS
 62
     3
 10
-179.2633207696262
 20
-102.7913908963889
 30
0.0
 11
-177.76332064709649
 21
-102.7913908963889
 31
0.0
  0
LINE
  5
1BEF7
  8
SU
  6
CONTINUOUS
 62
     3
 10
-123.7633206468919
 20
-62.791388068497632
 30
0.0
 11
-123.7633206468919
 21
-67.791388068497625
 31
0.0
  0
LINE
  5
1BEF8
  8
SU
  6
CONTINUOUS
 62
     3
 10
-111.2633206469956
 20
-212.6188126415278
 30
0.0
 11
-105.2633206469955
 21
-222.6188126415278
 31
0.0
  0
LINE
  5
1BEF9
  8
SU
  6
CONTINUOUS
 62
     3
 10
-99.263320646995595
 20
-212.6188126415278
 30
0.0
 11
-105.2633206469955
 21
-222.6188126415278
 31
0.0
  0
LINE
  5
1BEFA
  8
SU
  6
CONTINUOUS
 62
     3
 10
-111.2633206469956
 20
-212.6188126415278
 30
0.0
 11
-99.263320646995595
 21
-212.6188126415278
 31
0.0
  0
LINE
  5
1BEFB
  8
SU
  6
CONTINUOUS
 62
     3
 10
-215.01332150520159
 20
-218.11881264152811
 30
0.0
 11
-216.93290681826969
 21
-219.59176225797299
 31
0.0
  0
LINE
  5
1BEFC
  8
SU
  6
CONTINUOUS
 62
     3
 10
-215.01332150520159
 20
-218.11881264152811
 30
0.0
 11
-216.48667535179581
 21
-220.03892475758241
 31
0.0
  0
ARC
  5
1BEFD
  8
KI
  6
CONTINUOUS
 62
     7
 10
-193.4600674440432
 20
-221.67064870517169
 30
0.0
 40
0.9481639363564127
 50
176.8660808498669
 51
3.133919150132968
  0
LINE
  5
1BEFE
  8
KI
  6
CONTINUOUS
 62
     7
 10
-213.01332150520159
 20
-216.618812641528
 30
0.0
 11
-213.01332150520159
 21
-221.618812641528
 31
0.0
  0
LINE
  5
1BEFF
  8
KI
  6
CONTINUOUS
 62
     7
 10
-194.40681338288471
 20
-216.618812641528
 30
0.0
 11
-194.40681338288471
 21
-221.618812641528
 31
0.0
  0
LINE
  5
1BF00
  8
KI
  6
CONTINUOUS
 62
     7
 10
-192.51332150520159
 20
-214.618812641528
 30
0.0
 11
-192.51332150520159
 21
-221.618812641528
 31
0.0
  0
LINE
  5
1BF01
  8
KI
  6
CONTINUOUS
 62
     7
 10
-215.01332150520159
 20
-214.618812641528
 30
0.0
 11
-215.01332150520159
 21
-221.618812641528
 31
0.0
  0
ARC
  5
1BF02
  8
KI
  6
CONTINUOUS
 62
     7
 10
-214.01332150520159
 20
-221.618812641528
 30
0.0
 40
1.0
 50
180.0
 51
0.0
  0
LINE
  5
1BF03
  8
KI
  6
CONTINUOUS
 62
     7
 10
-215.01332150520159
 20
-214.618812641528
 30
0.0
 11
-192.51332150520159
 21
-214.618812641528
 31
0.0
  0
LINE
  5
1BF04
  8
KI
  6
CONTINUOUS
 62
     7
 10
-194.40681338288471
 20
-216.618812641528
 30
0.0
 11
-213.01332150520159
 21
-216.618812641528
 31
0.0
  0
LINE
  5
1BF05
  8
SU
  6
CONTINUOUS
 62
     3
 10
-182.7633206509451
 20
-214.618812641528
 30
0.0
 11
-117.2633206469942
 21
-214.618812641528
 31
0.0
  0
LINE
  5
1BF06
  8
SU
  6
CONTINUOUS
 62
     3
 10
-120.2633206469942
 20
-214.618812641528
 30
0.0
 11
-120.2633206469942
 21
-222.618812641528
 31
0.0
  0
LINE
  5
1BF07
  8
SU
  6
CONTINUOUS
 62
     3
 10
-149.76332007479081
 20
-234.61881264152811
 30
0.0
 11
-102.2633206469955
 21
-234.61881264152811
 31
0.0
  0
LINE
  5
1BF08
  8
SU
  6
CONTINUOUS
 62
     3
 10
-105.2633206469955
 20
-222.618812641528
 30
0.0
 11
-105.2633206469955
 21
-234.61881264152811
 31
0.0
  0
LINE
  5
1BF09
  8
SU
  6
CONTINUOUS
 62
     3
 10
-149.76332007479081
 20
-222.618812641528
 30
0.0
 11
-102.2633206469955
 21
-222.618812641528
 31
0.0
  0
LINE
  5
1BF0A
  8
SU
  6
CONTINUOUS
 62
     3
 10
-105.2633206469955
 20
-123.97075028512241
 30
0.0
 11
-105.2633206469955
 21
-222.618812641528
 31
0.0
  0
LINE
  5
1BF0B
  8
SU
  6
CONTINUOUS
 62
     3
 10
-182.7633206509451
 20
-214.618812641528
 30
0.0
 11
-117.2633206469942
 21
-214.618812641528
 31
0.0
  0
LINE
  5
1BF0C
  8
SU
  6
CONTINUOUS
 62
     3
 10
-120.2633206469942
 20
-123.97075028512241
 30
0.0
 11
-120.2633206469942
 21
-214.618812641528
 31
0.0
  0
LINE
  5
1BF0D
  8
SU
  6
CONTINUOUS
 62
     3
 10
-266.21057754033711
 20
-49.349193092195492
 30
0.0
 11
-267.51061925506809
 21
-47.308536362931207
 31
0.0
  0
LINE
  5
1BF0E
  8
SU
  6
CONTINUOUS
 62
     3
 10
-266.21057754033711
 20
-49.349193092195492
 30
0.0
 11
-267.99497180126201
 21
-47.714097004171997
 31
0.0
  0
LINE
  5
1BF0F
  8
SU
  6
CONTINUOUS
 62
     3
 10
-289.26331640997199
 20
-83.791390896389956
 30
0.0
 11
-289.26331640997199
 21
-105.7913908963917
 31
0.0
  0
LINE
  5
1BF10
  8
SU
  6
CONTINUOUS
 62
     3
 10
-317.76332064699659
 20
-83.791390896373287
 30
0.0
 11
-317.76332064699659
 21
-105.7913908963917
 31
0.0
  0
LINE
  5
1BF11
  8
SU
  6
CONTINUOUS
 62
     3
 10
-291.66331640997191
 20
-102.7913908963917
 30
0.0
 11
-317.76332064699659
 21
-102.7913908963917
 31
0.0
  0
LINE
  5
1BF12
  8
SU
  6
CONTINUOUS
 62
     3
 10
-290.26331640997182
 20
-67.791388068498122
 30
0.0
 11
-361.76332064699562
 21
-67.791388068498108
 31
0.0
  0
LINE
  5
1BF13
  8
SU
  6
CONTINUOUS
 62
     3
 10
-265.2633224820878
 20
-47.791388068498101
 30
0.0
 11
-361.76332064699562
 21
-47.791388068498087
 31
0.0
  0
LINE
  5
1BF14
  8
SU
  6
CONTINUOUS
 62
     3
 10
-358.76332064699562
 20
-67.791388068498108
 30
0.0
 11
-358.76332064699562
 21
-47.791388068498087
 31
0.0
  0
LINE
  5
1BF15
  8
SU
  6
CONTINUOUS
 62
     3
 10
-358.76332064699562
 20
-82.791390896383817
 30
0.0
 11
-361.76332064699562
 21
-82.791390896383817
 31
0.0
  0
LINE
  5
1BF16
  8
SU
  6
CONTINUOUS
 62
     3
 10
-290.26331640997182
 20
-67.791388068498122
 30
0.0
 11
-361.76332064699562
 21
-67.791388068498108
 31
0.0
  0
LINE
  5
1BF17
  8
SU
  6
CONTINUOUS
 62
     3
 10
-358.76332064699562
 20
-82.791390896383817
 30
0.0
 11
-358.76332064699562
 21
-67.791388068498108
 31
0.0
  0
TEXT
  5
1BF18
  8
SU
  6
CONTINUOUS
 62
     3
 10
-298.43351859272542
 20
-245.54660713075
 30
0.0
 40
4.0
  1
ボトムタイトナー（三方枠用）
 41
0.8299999999999999
  0
TEXT
  5
1BF19
  8
SU
  6
CONTINUOUS
 62
     3
 10
-283.52513764034433
 20
-252.21327379741669
 30
0.0
 40
4.0
  1
〔オプション〕
 41
0.8299999999999999
  0
LINE
  5
1BF1A
  8
SU
  6
CONTINUOUS
 62
     3
 10
-289.26331640997199
 20
-83.791390896381813
 30
0.0
 11
-289.26331640997199
 21
-105.7913908963891
 31
0.0
  0
LINE
  5
1BF1B
  8
SU
  6
CONTINUOUS
 62
     3
 10
-179.2633207696262
 20
-83.79139089638943
 30
0.0
 11
-179.2633207696262
 21
-105.7913908963891
 31
0.0
  0
LINE
  5
1BF1C
  8
SU
  6
CONTINUOUS
 62
     3
 10
-289.26331640997199
 20
-102.7913908963891
 30
0.0
 11
-179.2633207696262
 21
-102.7913908963891
 31
0.0
  0
LINE
  5
1BF1D
  8
KI
  6
CONTINUOUS
 62
     7
 10
-264.26332248208769
 20
-47.791388068498101
 30
0.0
 11
-236.2633207696262
 21
-47.791388068498101
 31
0.0
  0
LINE
  5
1BF1E
  8
KI
  6
CONTINUOUS
 62
     7
 10
-289.26331640997199
 20
-67.791388068498122
 30
0.0
 11
-264.26332248208769
 21
-47.791388068498101
 31
0.0
  0
LINE
  5
1BF1F
  8
KI
  6
CONTINUOUS
 62
     7
 10
-289.26331640997199
 20
-67.791388068498122
 30
0.0
 11
-289.26331640997199
 21
-82.791390896381813
 31
0.0
  0
LINE
  5
1BF20
  8
KI
  6
CONTINUOUS
 62
     7
 10
-236.2633207696262
 20
-67.791388068498122
 30
0.0
 11
-179.2633207696262
 21
-67.791388068498122
 31
0.0
  0
LINE
  5
1BF21
  8
KI
  6
CONTINUOUS
 62
     7
 10
-236.2633207696262
 20
-67.791388068498122
 30
0.0
 11
-236.2633207696262
 21
-47.791388068498101
 31
0.0
  0
LINE
  5
1BF22
  8
KI
  6
CONTINUOUS
 62
     7
 10
-179.2633207696262
 20
-67.791388068498122
 30
0.0
 11
-179.2633207696262
 21
-82.791390896381813
 31
0.0
  0
LINE
  5
1BF23
  8
KI
  6
CONTINUOUS
 62
     7
 10
-289.26331640997199
 20
-82.791390896381813
 30
0.0
 11
-179.2633207696262
 21
-82.791390896381813
 31
0.0
  0
LINE
  5
1BF24
  8
KI
  6
CONTINUOUS
 62
     7
 10
-235.76331476937401
 20
-47.791353073437563
 30
0.0
 11
-233.5372220381453
 21
-47.791353073437101
 31
0.0
  0
ARC
  5
1BF25
  8
KI
  6
CONTINUOUS
 62
     7
 10
-226.2552917197182
 20
-59.352228963587443
 30
0.0
 40
9.2190722294335075
 50
182.80468734044729
 51
234.37413182448421
  0
LINE
  5
1BF26
  8
KI
  6
CONTINUOUS
 62
     7
 10
-236.06332076937429
 20
-52.452434635159428
 30
0.0
 11
-235.46331476937431
 21
-51.852428635159292
 31
0.0
  0
LINE
  5
1BF27
  8
KI
  6
CONTINUOUS
 62
     7
 10
-235.4633147693738
 20
-54.541363073436841
 30
0.0
 11
-235.4633147693738
 21
-48.79135307343757
 31
0.0
  0
LINE
  5
1BF28
  8
KI
  6
CONTINUOUS
 62
     7
 10
-236.26332076937399
 20
-57.791353073436653
 30
0.0
 11
-236.2633207693745
 21
-49.791353073437563
 31
0.0
  0
LINE
  5
1BF29
  8
KI
  6
CONTINUOUS
 62
     7
 10
-236.26332076937501
 20
-52.652434635159679
 30
0.0
 11
-236.06332076937429
 21
-52.452434635159428
 31
0.0
  0
LINE
  5
1BF2A
  8
KI
  6
CONTINUOUS
 62
     7
 10
-236.06332076937429
 20
-53.350460247266142
 30
0.0
 11
-235.46331476937479
 21
-52.750454247266021
 31
0.0
  0
LINE
  5
1BF2B
  8
KI
  6
CONTINUOUS
 62
     7
 10
-236.26332076937501
 20
-53.550460247266862
 30
0.0
 11
-236.06332076937429
 21
-53.350460247266142
 31
0.0
  0
LINE
  5
1BF2C
  8
KI
  6
CONTINUOUS
 62
     7
 10
-236.06332076937341
 20
-54.248485859373332
 30
0.0
 11
-235.4633147693738
 21
-53.648479859373197
 31
0.0
  0
LINE
  5
1BF2D
  8
KI
  6
CONTINUOUS
 62
     7
 10
-236.26332076937399
 20
-54.448485859373598
 30
0.0
 11
-236.06332076937389
 21
-54.248485859373332
 31
0.0
  0
LINE
  5
1BF2E
  8
KI
  6
CONTINUOUS
 62
     7
 10
-236.06332076937341
 20
-55.146511471479577
 30
0.0
 11
-235.70816237133039
 21
-54.791353073436653
 31
0.0
  0
LINE
  5
1BF2F
  8
KI
  6
CONTINUOUS
 62
     7
 10
-235.70816237133039
 20
-54.791353073436653
 30
0.0
 11
-235.48395023565519
 21
-54.567140937761351
 31
0.0
  0
LINE
  5
1BF30
  8
KI
  6
CONTINUOUS
 62
     7
 10
-236.26332076937371
 20
-55.346511471480312
 30
0.0
 11
-236.06332076937389
 21
-55.146511471480039
 31
0.0
  0
LINE
  5
1BF31
  8
KI
  6
CONTINUOUS
 62
     7
 10
-236.06332076937389
 20
-56.044537083587223
 30
0.0
 11
-235.46332076937421
 21
-55.444537083587761
 31
0.0
  0
LINE
  5
1BF32
  8
KI
  6
CONTINUOUS
 62
     7
 10
-236.26332076937371
 20
-56.244537083587041
 30
0.0
 11
-236.06332076937389
 21
-56.044537083587223
 31
0.0
  0
LINE
  5
1BF33
  8
KI
  6
CONTINUOUS
 62
     7
 10
-236.06332076937389
 20
-56.94256269569393
 30
0.0
 11
-235.46332076937409
 21
-56.342562695694021
 31
0.0
  0
LINE
  5
1BF34
  8
KI
  6
CONTINUOUS
 62
     7
 10
-236.26332076937399
 20
-57.14256269569421
 30
0.0
 11
-236.06332076937389
 21
-56.94256269569393
 31
0.0
  0
LINE
  5
1BF35
  8
KI
  6
CONTINUOUS
 62
     7
 10
-236.01408553500991
 20
-57.791353073436198
 30
0.0
 11
-235.46332076937409
 21
-57.240588307800742
 31
0.0
  0
LINE
  5
1BF36
  8
KI
  6
CONTINUOUS
 62
     7
 10
-236.26332076937399
 20
-57.791353073436653
 30
0.0
 11
-235.46332076937409
 21
-57.791353073436653
 31
0.0
  0
LINE
  5
1BF37
  8
KI
  6
CONTINUOUS
 62
     7
 10
-235.4633207693735
 20
-58.80333182570655
 30
0.0
 11
-235.46332076937409
 21
-55.04136307343731
 31
0.0
  0
LINE
  5
1BF38
  8
KI
  6
CONTINUOUS
 62
     7
 10
-235.66332076937431
 20
-54.791363073436862
 30
0.0
 11
-235.46332076937409
 21
-54.541353073437108
 31
0.0
  0
LINE
  5
1BF39
  8
KI
  6
CONTINUOUS
 62
     7
 10
-235.6633147693743
 20
-54.791363073436862
 30
0.0
 11
-235.46332076937409
 21
-55.04136307343731
 31
0.0
  0
ARC
  5
1BF3A
  8
KI
  6
CONTINUOUS
 62
     7
 10
-235.76332076937399
 20
-59.503331825706809
 30
0.0
 40
0.3
 50
180.00000000034751
 51
270.0000000000847
  0
LINE
  5
1BF3B
  8
KI
  6
CONTINUOUS
 62
     7
 10
-235.46332076937409
 20
-59.80333182570655
 30
0.0
 11
-235.76332076937399
 21
-59.803331825706991
 31
0.0
  0
ARC
  5
1BF3C
  8
KI
  6
CONTINUOUS
 62
     7
 10
-235.7633207693768
 20
-59.103331825707187
 30
0.0
 40
0.3
 50
90.000000000084668
 51
180.00000000034751
  0
LINE
  5
1BF3D
  8
KI
  6
CONTINUOUS
 62
     7
 10
-236.06332076937429
 20
-59.503331825706809
 30
0.0
 11
-236.06332076937639
 21
-59.103331825707187
 31
0.0
  0
LINE
  5
1BF3E
  8
KI
  6
CONTINUOUS
 62
     7
 10
-235.7633207693768
 20
-58.803331825707012
 30
0.0
 11
-235.4633207693735
 21
-58.80333182570655
 31
0.0
  0
LINE
  5
1BF3F
  8
KI
  6
CONTINUOUS
 62
     7
 10
-236.26332076937501
 20
-49.958357798839529
 30
0.0
 11
-236.096316043971
 21
-49.791353073435737
 31
0.0
  0
LINE
  5
1BF40
  8
KI
  6
CONTINUOUS
 62
     7
 10
-236.06332076937429
 20
-50.656383410945061
 30
0.0
 11
-235.46331476937431
 21
-50.05637741094538
 31
0.0
  0
LINE
  5
1BF41
  8
KI
  6
CONTINUOUS
 62
     7
 10
-236.2633207693745
 20
-50.856383410945767
 30
0.0
 11
-236.06332076937429
 21
-50.656383410945523
 31
0.0
  0
LINE
  5
1BF42
  8
KI
  6
CONTINUOUS
 62
     7
 10
-236.06332076937429
 20
-51.554409023052699
 30
0.0
 11
-235.46331476937431
 21
-50.954403023052578
 31
0.0
  0
LINE
  5
1BF43
  8
KI
  6
CONTINUOUS
 62
     7
 10
-236.26332076937501
 20
-51.754409023052972
 30
0.0
 11
-236.06332076937429
 21
-51.554409023052699
 31
0.0
  0
LINE
  5
1BF44
  8
KI
  6
CONTINUOUS
 62
     7
 10
-236.2633207693745
 20
-49.791353073437563
 30
0.0
 11
-235.4633147693738
 21
-49.791353073436213
 31
0.0
  0
ARC
  5
1BF45
  8
KI
  6
CONTINUOUS
 62
     7
 10
-235.7633207693768
 20
-48.491353073437388
 30
0.0
 40
0.3
 50
180.00000000034751
 51
270.0000000000847
  0
ARC
  5
1BF46
  8
KI
  6
CONTINUOUS
 62
     7
 10
-235.76332076937879
 20
-48.09135307343773
 30
0.0
 40
0.3
 50
90.000000000084668
 51
180.00000000034751
  0
LINE
  5
1BF47
  8
KI
  6
CONTINUOUS
 62
     7
 10
-236.06332076937611
 20
-48.491353073437388
 30
0.0
 11
-236.063320769379
 21
-48.09135307343773
 31
0.0
  0
LINE
  5
1BF48
  8
KI
  6
CONTINUOUS
 62
     7
 10
-235.4633147693738
 20
-48.79135307343757
 30
0.0
 11
-235.7633207693768
 21
-48.79135307343757
 31
0.0
  0
ARC
  5
1BF49
  8
KI
  6
CONTINUOUS
 62
     7
 10
-249.78410423450251
 20
-62.007944243386959
 30
0.0
 40
24.521586859558742
 50
356.28881364656843
 51
30.70307659906474
  0
ARC
  5
1BF4A
  8
KI
  6
CONTINUOUS
 62
     7
 10
-249.78410423450251
 20
-62.007944243386959
 30
0.0
 40
23.321944298558741
 50
356.28881364656843
 51
31.589100606046561
  0
LINE
  5
1BF4B
  8
KI
  6
CONTINUOUS
 62
     7
 10
-233.46335133805761
 20
-60.303176139496259
 30
0.0
 11
-233.46335133805761
 21
-50.291353073436653
 31
0.0
  0
LINE
  5
1BF4C
  8
KI
  6
CONTINUOUS
 62
     7
 10
-232.64766233651841
 20
-63.34807147975777
 30
0.0
 11
-232.64766257762079
 21
-63.3480712833301
 31
0.0
  0
ARC
  5
1BF4D
  8
KI
  6
CONTINUOUS
 62
     7
 10
-230.345858898991
 20
-67.29503016802154
 30
0.0
 40
0.3
 50
163.71693705722581
 51
347.14909562687671
  0
ARC
  5
1BF4E
  8
KI
  6
CONTINUOUS
 62
     7
 10
-231.4613102501493
 20
-65.934199429528576
 30
0.0
 40
0.5
 50
49.327411972635872
 51
65.442606426039717
  0
ARC
  5
1BF4F
  8
KI
  6
CONTINUOUS
 62
     7
 10
-227.67931589317769
 20
-57.657336168005138
 30
0.0
 40
10.0
 50
250.19682420583459
 51
252.8154199036874
  0
ARC
  5
1BF50
  8
KI
  6
CONTINUOUS
 62
     7
 10
-231.3479188888063
 20
-66.960096621788011
 30
0.0
 40
0.3
 50
157.61329912440891
 51
339.33735528098799
  0
ARC
  5
1BF51
  8
KI
  6
CONTINUOUS
 62
     7
 10
-229.31058271858041
 20
-63.431326862865603
 30
0.0
 40
4.0
 50
334.29819125374712
 51
357.65265816413881
  0
ARC
  5
1BF52
  8
KI
  6
CONTINUOUS
 62
     7
 10
-227.6793088553998
 20
-57.657336167995588
 30
0.0
 40
8.7999999999999972
 50
254.1980865301289
 51
254.2239622526468
  0
ARC
  5
1BF53
  8
KI
  6
CONTINUOUS
 62
     7
 10
-225.8464811034427
 20
-65.43132686286468
 30
0.0
 40
0.3
 50
237.85090437317649
 51
62.149095626857182
  0
ARC
  5
1BF54
  8
KI
  6
CONTINUOUS
 62
     7
 10
-229.31058271858041
 20
-63.431326862865603
 30
0.0
 40
4.0
 50
319.29819125370602
 51
325.70180874629273
  0
ARC
  5
1BF55
  8
KI
  6
CONTINUOUS
 62
     7
 10
-226.4821555938353
 20
-66.259753987612726
 30
0.0
 40
0.3
 50
222.8509043731234
 51
47.149095626849288
  0
ARC
  5
1BF56
  8
KI
  6
CONTINUOUS
 62
     7
 10
-229.31058271857839
 20
-67.431326862865603
 30
0.0
 40
0.3
 50
177.85090437321941
 51
2.1490956268587862
  0
ARC
  5
1BF57
  8
KI
  6
CONTINUOUS
 62
     7
 10
-228.27530653816791
 20
-67.295030168021071
 30
0.0
 40
0.3
 50
192.85090437317689
 51
17.149095626924652
  0
ARC
  5
1BF58
  8
KI
  6
CONTINUOUS
 62
     7
 10
-229.31058271858041
 20
-63.431326862865603
 30
0.0
 40
4.0
 50
289.29819125377082
 51
295.70180874626232
  0
ARC
  5
1BF59
  8
KI
  6
CONTINUOUS
 62
     7
 10
-227.3105827185812
 20
-66.895428478003737
 30
0.0
 40
0.3
 50
207.8509043731074
 51
32.149095626878427
  0
ARC
  5
1BF5A
  8
KI
  6
CONTINUOUS
 62
     7
 10
-229.31058271858041
 20
-63.431326862865603
 30
0.0
 40
4.0
 50
304.29819125372239
 51
310.70180874624589
  0
ARC
  5
1BF5B
  8
KI
  6
CONTINUOUS
 62
     7
 10
-229.31058271858041
 20
-63.431326862865603
 30
0.0
 40
4.0
 50
259.29819125371961
 51
265.7018087463
  0
ARC
  5
1BF5C
  8
KI
  6
CONTINUOUS
 62
     7
 10
-229.31058271858041
 20
-63.431326862887893
 30
0.0
 40
4.0
 50
274.29819125375832
 51
280.7018087463199
  0
ARC
  5
1BF5D
  8
KI
  6
CONTINUOUS
 62
     7
 10
-229.31058271858041
 20
-63.431326862865603
 30
0.0
 40
2.799999999999998
 50
229.327411972644
 51
357.65265816413881
  0
ARC
  5
1BF5E
  8
KI
  6
CONTINUOUS
 62
     7
 10
-226.2144282563923
 20
-60.268306177277182
 30
0.0
 40
7.2490069497939373
 50
180.2756114576494
 51
225.96157026527959
  0
ARC
  5
1BF5F
  8
KI
  6
CONTINUOUS
 62
     7
 10
-228.26992191997479
 20
-49.232195016523178
 30
0.0
 40
0.5
 50
116.0190673622885
 51
210.70307659906439
  0
ARC
  5
1BF60
  8
KI
  6
CONTINUOUS
 62
     7
 10
-231.68115764372519
 20
-42.244028671885957
 30
0.0
 40
7.2763100519022599
 50
296.01906736228852
 51
331.8867672336433
  0
ARC
  5
1BF61
  8
KI
  6
CONTINUOUS
 62
     7
 10
-231.68115764372519
 20
-42.244028671885957
 30
0.0
 40
5.776310051902259
 50
286.18682820039362
 51
331.8867672336433
  0
LINE
  5
1BF62
  8
KI
  6
CONTINUOUS
 62
     7
 10
-233.5372220381453
 20
-47.791353073436198
 30
0.0
 11
-230.07089375241691
 21
-47.791353073438017
 31
0.0
  0
LINE
  5
1BF63
  8
KI
  6
CONTINUOUS
 62
     7
 10
-232.96335133805761
 20
-49.791353073436653
 30
0.0
 11
-229.91785179345601
 21
-49.791353073436653
 31
0.0
  0
ARC
  5
1BF64
  8
KI
  6
CONTINUOUS
 62
     7
 10
-232.96335133805761
 20
-50.291353073436653
 30
0.0
 40
0.5
 50
90.0
 51
180.0
  0
ARC
  5
1BF65
  8
KI
  6
CONTINUOUS
 62
     7
 10
-225.9743835389626
 20
-45.412073674230101
 30
0.0
 40
0.7573354118943643
 50
339.86775998205133
 51
143.90577448523041
  0
TEXT
  5
1BF66
  8
SU
  6
CONTINUOUS
 62
     3
 10
-316.4856656772173
 20
-33.211455207172868
 30
0.0
 40
4.0
  1
下枠沓摺（四方枠用）
 41
0.8299999999999999
  0
LINE
  5
1BF67
  8
SU
  6
CONTINUOUS
 62
     3
 10
-175.26332064699571
 20
147.7047657740309
 30
0.0
 11
-105.76332064689311
 21
147.7047657740309
 31
0.0
  0
LINE
  5
1BF68
  8
SU
  6
CONTINUOUS
 62
     3
 10
-135.263320647098
 20
-82.791390896381259
 30
0.0
 11
-105.76332064689331
 21
-82.791390896381259
 31
0.0
  0
LINE
  5
1BF69
  8
SU
  6
CONTINUOUS
 62
     3
 10
-108.76332064689321
 20
147.7047657740309
 30
0.0
 11
-108.76332064689331
 21
-82.791390896381259
 31
0.0
  0
LINE
  5
1BF6A
  8
SU
  6
CONTINUOUS
 62
     3
 10
-184.26331906086111
 20
-62.791388068497611
 30
0.0
 11
-120.7633206468919
 21
-62.791388068497632
 31
0.0
  0
LINE
  5
1BF6B
  8
SU
  6
CONTINUOUS
 62
     3
 10
-123.7633206468919
 20
120.7047332533685
 30
0.0
 11
-123.7633206468919
 21
-62.791388068497632
 31
0.0
  0
LINE
  5
1BF6C
  8
OS
  6
CONTINUOUS
 62
     2
 10
-224.66305708525829
 20
188.7047657740309
 30
0.0
 11
-300.26237936615172
 21
152.7047657740309
 31
0.0
  0
LINE
  5
1BF6D
  8
OS
  6
CONTINUOUS
 62
     2
 10
-195.2633206426888
 20
152.7047657740309
 30
0.0
 11
-300.26332064268883
 21
152.7047657740309
 31
0.0
  0
LINE
  5
1BF6E
  8
OS
  6
CONTINUOUS
 62
     2
 10
-195.26331301329481
 20
147.70481016245441
 30
0.0
 11
-300.26332064268883
 21
152.7048105967238
 31
0.0
  0
LINE
  5
1BF6F
  8
OS
  6
CONTINUOUS
 62
     2
 10
-170.76332064268871
 20
147.7047657740309
 30
0.0
 11
-324.76332064268883
 21
147.7047657740309
 31
0.0
  0
LINE
  5
1BF70
  8
OS
  6
CONTINUOUS
 62
     2
 10
-300.26332064268883
 20
188.7047657740309
 30
0.0
 11
-300.26332064268883
 21
147.7047657740309
 31
0.0
  0
LINE
  5
1BF71
  8
OS
  6
CONTINUOUS
 62
     2
 10
-312.26332064268883
 20
188.7047657740309
 30
0.0
 11
-312.26332064268883
 21
147.7047657740309
 31
0.0
  0
LINE
  5
1BF72
  8
OS
  6
CONTINUOUS
 62
     2
 10
-314.26332064268883
 20
188.7047657740309
 30
0.0
 11
-314.26332064268883
 21
147.7047657740309
 31
0.0
  0
LINE
  5
1BF73
  8
OS
  6
CONTINUOUS
 62
     2
 10
-322.76332064268883
 20
188.7047657740309
 30
0.0
 11
-322.76332064268883
 21
147.7047657740309
 31
0.0
  0
LINE
  5
1BF74
  8
OS
  6
CONTINUOUS
 62
     2
 10
-324.76332064268883
 20
188.7047657740309
 30
0.0
 11
-324.76332064268883
 21
147.7047657740309
 31
0.0
  0
LINE
  5
1BF75
  8
OS
  6
CONTINUOUS
 62
     2
 10
-195.2633206426888
 20
188.7047657740309
 30
0.0
 11
-195.2633206426888
 21
147.7047657740309
 31
0.0
  0
LINE
  5
1BF76
  8
OS
  6
CONTINUOUS
 62
     2
 10
-183.2633206426888
 20
188.7047657740309
 30
0.0
 11
-183.2633206426888
 21
147.7047657740309
 31
0.0
  0
LINE
  5
1BF77
  8
OS
  6
CONTINUOUS
 62
     2
 10
-170.76332064268871
 20
188.7047657740309
 30
0.0
 11
-170.76332064268871
 21
147.7047657740309
 31
0.0
  0
LINE
  5
1BF78
  8
OS
  6
CONTINUOUS
 62
     2
 10
-181.2633206426888
 20
188.7047657740309
 30
0.0
 11
-181.2633206426888
 21
147.7047657740309
 31
0.0
  0
LINE
  5
1BF79
  8
OS
  6
CONTINUOUS
 62
     2
 10
-172.7633206426888
 20
188.7047657740309
 30
0.0
 11
-172.7633206426888
 21
147.7047657740309
 31
0.0
  0
LINE
  5
1BF7A
  8
SU
  6
CONTINUOUS
 62
     3
 10
239.016189203425
 20
39.20313197226988
 30
0.0
 11
239.016189203425
 21
82.203131972269844
 31
0.0
  0
LINE
  5
1BF7B
  8
SU
  6
CONTINUOUS
 62
     3
 10
248.0162199026484
 20
79.203131972269844
 30
0.0
 11
239.016189203425
 21
79.203131972269844
 31
0.0
  0
LINE
  5
1BF7C
  8
SU
  6
CONTINUOUS
 62
     3
 10
248.01621990264081
 20
60.203131967269186
 30
0.0
 11
248.01621990264081
 21
82.20313197226973
 31
0.0
  0
LINE
  5
1BF7D
  8
SU
  6
CONTINUOUS
 62
     3
 10
272.01621990264073
 20
60.203131972270171
 30
0.0
 11
272.01621990264073
 21
82.20313197226973
 31
0.0
  0
LINE
  5
1BF7E
  8
SU
  6
CONTINUOUS
 62
     3
 10
248.01621990264081
 20
79.20313197226973
 30
0.0
 11
272.01621990264073
 21
79.20313197226973
 31
0.0
  0
LINE
  5
1BF7F
  8
SU
  6
CONTINUOUS
 62
     3
 10
-57.983782564547433
 20
32.703131972270043
 30
0.0
 11
-57.983782564547433
 21
45.203131972270043
 31
0.0
  0
LINE
  5
1BF80
  8
SU
  6
CONTINUOUS
 62
     3
 10
-57.983782564547433
 20
45.203131972270043
 30
0.0
 11
-57.983782564547433
 21
71.589293957736814
 31
0.0
  0
LINE
  5
1BF81
  8
SU
  6
CONTINUOUS
 62
     3
 10
-38.983782564539467
 20
45.203131972270043
 30
0.0
 11
-75.983782564547425
 21
45.20313197227005
 31
0.0
  0
LINE
  5
1BF82
  8
SU
  6
CONTINUOUS
 62
     3
 10
3.0162506088464509
 20
59.203131972269929
 30
0.0
 11
-75.983782564547425
 21
59.203131972269951
 31
0.0
  0
LINE
  5
1BF83
  8
SU
  6
CONTINUOUS
 62
     3
 10
-72.983782564547425
 20
45.20313197227005
 30
0.0
 11
-72.983782564547425
 21
59.203131972269951
 31
0.0
  0
LINE
  5
1BF84
  8
SU
  6
CONTINUOUS
 62
     3
 10
-38.983782564539467
 20
32.703131972270043
 30
0.0
 11
-60.983782564547433
 21
32.70313197227005
 31
0.0
  0
LINE
  5
1BF85
  8
SU
  6
CONTINUOUS
 62
     3
 10
-57.983782564547433
 20
20.70313197226999
 30
0.0
 11
-57.983782564547433
 21
32.703131972270043
 31
0.0
  0
LINE
  5
1BF86
  8
SU
  6
CONTINUOUS
 62
     3
 10
-38.983782564539467
 20
-96.296868027729943
 30
0.0
 11
-60.983782564547433
 21
-96.296868027729872
 31
0.0
  0
LINE
  5
1BF87
  8
SU
  6
CONTINUOUS
 62
     3
 10
-57.983782564547433
 20
-84.296868027729886
 30
0.0
 11
-57.983782564547433
 21
-96.296868027729872
 31
0.0
  0
LINE
  5
1BF88
  8
SU
  6
CONTINUOUS
 62
     3
 10
-38.983782564539467
 20
-108.7968680277298
 30
0.0
 11
-75.983782564547425
 21
-108.7968680277298
 31
0.0
  0
LINE
  5
1BF89
  8
SU
  6
CONTINUOUS
 62
     3
 10
3.0162505717227002
 20
-122.7968680277299
 30
0.0
 11
-75.983782564547425
 21
-122.7968680277299
 31
0.0
  0
LINE
  5
1BF8A
  8
SU
  6
CONTINUOUS
 62
     3
 10
-72.983782564547425
 20
-108.7968680277298
 30
0.0
 11
-72.983782564547425
 21
-122.7968680277299
 31
0.0
  0
LINE
  5
1BF8B
  8
SU
  6
CONTINUOUS
 62
     3
 10
-57.802683501001589
 20
-96.296868027729872
 30
0.0
 11
-57.802683501001603
 21
-108.7968680277298
 31
0.0
  0
LINE
  5
1BF8C
  8
SU
  6
CONTINUOUS
 62
     3
 10
-57.802683501001603
 20
-108.7968680277298
 30
0.0
 11
-57.802683501001603
 21
-134.5983244858007
 31
0.0
  0
LINE
  5
1BF8D
  8
SU
  6
CONTINUOUS
 62
     3
 10
-38.983782564539467
 20
-84.296868027729886
 30
0.0
 11
-60.983782564547433
 21
-84.296868027729886
 31
0.0
  0
LINE
  5
1BF8E
  8
SU
  6
CONTINUOUS
 62
     3
 10
-38.983782564539467
 20
20.703131972269968
 30
0.0
 11
-60.983782564547433
 21
20.70313197226999
 31
0.0
  0
LINE
  5
1BF8F
  8
SU
  6
CONTINUOUS
 62
     3
 10
-57.983782564547447
 20
-84.296868027729886
 30
0.0
 11
-57.983782564547433
 21
20.70313197226999
 31
0.0
  0
LINE
  5
1BF90
  8
SU
  6
CONTINUOUS
 62
     3
 10
-72.983782564547383
 20
45.20313197227005
 30
0.0
 11
-72.983782564547425
 21
-108.79686802773
 31
0.0
  0
LINE
  5
1BF91
  8
SU
  6
CONTINUOUS
 62
     3
 10
-312.26332064699562
 20
189.7047657740309
 30
0.0
 11
-312.26332064699562
 21
211.704765774039
 31
0.0
  0
LINE
  5
1BF92
  8
SU
  6
CONTINUOUS
 62
     3
 10
-300.26332064699568
 20
208.704765774039
 30
0.0
 11
-312.26332064699562
 21
208.704765774039
 31
0.0
  0
LINE
  5
1BF93
  8
SU
  6
CONTINUOUS
 62
     3
 10
-312.26332064699562
 20
208.704765774039
 30
0.0
 11
-324.76332064699562
 21
208.704765774039
 31
0.0
  0
LINE
  5
1BF94
  8
SU
  6
CONTINUOUS
 62
     3
 10
-324.76332064699562
 20
208.704765774039
 30
0.0
 11
-351.65777306110192
 21
208.704765774039
 31
0.0
  0
LINE
  5
1BF95
  8
SU
  6
CONTINUOUS
 62
     3
 10
-324.76332064699562
 20
189.7047657740309
 30
0.0
 11
-324.76332064699562
 21
226.70476577403889
 31
0.0
  0
LINE
  5
1BF96
  8
SU
  6
CONTINUOUS
 62
     3
 10
-338.76332065314381
 20
157.7047657657244
 30
0.0
 11
-338.76332065314381
 21
226.70476577403889
 31
0.0
  0
LINE
  5
1BF97
  8
SU
  6
CONTINUOUS
 62
     3
 10
-324.76332064699562
 20
223.704765774039
 30
0.0
 11
-338.76332065314381
 21
223.704765774039
 31
0.0
  0
LINE
  5
1BF98
  8
SU
  6
CONTINUOUS
 62
     3
 10
-183.26332064699571
 20
189.7047657740309
 30
0.0
 11
-183.26332064699571
 21
211.704765774039
 31
0.0
  0
LINE
  5
1BF99
  8
SU
  6
CONTINUOUS
 62
     3
 10
-195.26332064699571
 20
208.704765774039
 30
0.0
 11
-183.26332064699571
 21
208.704765774039
 31
0.0
  0
LINE
  5
1BF9A
  8
OS
  6
CONTINUOUS
 62
     2
 10
314.01622236983712
 20
-84.296868027730014
 30
0.0
 11
263.01618920342469
 21
-84.296868027730014
 31
0.0
  0
LINE
  5
1BF9B
  8
OS
  6
CONTINUOUS
 62
     2
 10
314.01622236983712
 20
-98.296868027730014
 30
0.0
 11
263.01618920342469
 21
-98.296868027730014
 31
0.0
  0
LINE
  5
1BF9C
  8
OS
  6
CONTINUOUS
 62
     2
 10
314.01622236983712
 20
-106.79686802773
 30
0.0
 11
263.01618920342469
 21
-106.79686802773
 31
0.0
  0
LINE
  5
1BF9D
  8
OS
  6
CONTINUOUS
 62
     2
 10
314.01622236983712
 20
-108.79686802773
 30
0.0
 11
263.01618920342469
 21
-108.79686802773
 31
0.0
  0
LINE
  5
1BF9E
  8
OS
  6
CONTINUOUS
 62
     2
 10
314.01622236983712
 20
-96.296868027730014
 30
0.0
 11
263.01618920342469
 21
-96.296868027730014
 31
0.0
  0
LINE
  5
1BF9F
  8
OS
  6
CONTINUOUS
 62
     2
 10
314.01622236983712
 20
-38.296663849846652
 30
0.0
 11
268.01606713310468
 21
-84.296818436664978
 31
0.0
  0
LINE
  5
1BFA0
  8
OS
  6
CONTINUOUS
 62
     2
 10
268.01605187431483
 20
20.703193007425991
 30
0.0
 11
314.01622236983712
 21
-25.296968389304261
 31
0.0
  0
LINE
  5
1BFA1
  8
OS
  6
CONTINUOUS
 62
     2
 10
314.01622236983712
 20
32.703131972269979
 30
0.0
 11
263.01618920342469
 21
32.703131972269979
 31
0.0
  0
LINE
  5
1BFA2
  8
OS
  6
CONTINUOUS
 62
     2
 10
314.01622236983712
 20
20.703131972269968
 30
0.0
 11
263.01618920342469
 21
20.703131972269968
 31
0.0
  0
LINE
  5
1BFA3
  8
OS
  6
CONTINUOUS
 62
     2
 10
314.01622236983712
 20
34.703131972269979
 30
0.0
 11
263.01618920342469
 21
34.703131972269979
 31
0.0
  0
LINE
  5
1BFA4
  8
OS
  6
CONTINUOUS
 62
     2
 10
314.01622236983712
 20
43.203131972269972
 30
0.0
 11
263.01618920342469
 21
43.203131972269972
 31
0.0
  0
LINE
  5
1BFA5
  8
OS
  6
CONTINUOUS
 62
     2
 10
314.01622236983712
 20
45.203131972269958
 30
0.0
 11
263.01618920342469
 21
45.203131972269958
 31
0.0
  0
LINE
  5
1BFA6
  8
OS
  6
CONTINUOUS
 62
     2
 10
268.0161892034248
 20
20.703131972269968
 30
0.0
 11
268.0161892034248
 21
-84.296868027730014
 31
0.0
  0
LINE
  5
1BFA7
  8
OS
  6
CONTINUOUS
 62
     2
 10
263.01621972099463
 20
20.703135786967021
 30
0.0
 11
268.0162197209948
 21
-84.29687184242691
 31
0.0
  0
LINE
  5
1BFA8
  8
OS
  6
CONTINUOUS
 62
     2
 10
263.01618920342469
 20
45.203131972269958
 30
0.0
 11
263.01618920342469
 21
-108.79686802773
 31
0.0
  0
LINE
  5
1BFA9
  8
OS
  6
CONTINUOUS
 62
     2
 10
-37.983782564539403
 20
-84.296868027730014
 30
0.0
 11
13.016250601873001
 21
-84.296868027730014
 31
0.0
  0
LINE
  5
1BFAA
  8
OS
  6
CONTINUOUS
 62
     2
 10
-37.983782564539403
 20
-98.296868027730014
 30
0.0
 11
13.016250601873001
 21
-98.296868027730014
 31
0.0
  0
LINE
  5
1BFAB
  8
OS
  6
CONTINUOUS
 62
     2
 10
-37.983782564539403
 20
-106.79686802773
 30
0.0
 11
13.016250601873001
 21
-106.79686802773
 31
0.0
  0
LINE
  5
1BFAC
  8
OS
  6
CONTINUOUS
 62
     2
 10
-37.983782564539403
 20
-108.79686802773
 30
0.0
 11
13.016250601873001
 21
-108.79686802773
 31
0.0
  0
LINE
  5
1BFAD
  8
OS
  6
CONTINUOUS
 62
     2
 10
-37.983782564539403
 20
-96.296868027730014
 30
0.0
 11
13.016250601873001
 21
-96.296868027730014
 31
0.0
  0
LINE
  5
1BFAE
  8
OS
  6
CONTINUOUS
 62
     2
 10
-37.983782564539361
 20
-38.296663849846652
 30
0.0
 11
8.0163726721930271
 21
-84.296818436664978
 31
0.0
  0
LINE
  5
1BFAF
  8
OS
  6
CONTINUOUS
 62
     2
 10
8.0163879309830008
 20
20.703193007425991
 30
0.0
 11
-37.983782564539361
 21
-25.296968389304261
 31
0.0
  0
LINE
  5
1BFB0
  8
OS
  6
CONTINUOUS
 62
     2
 10
-37.983782564539403
 20
32.703131972269979
 30
0.0
 11
13.016250601873001
 21
32.703131972269979
 31
0.0
  0
LINE
  5
1BFB1
  8
OS
  6
CONTINUOUS
 62
     2
 10
-37.983782564539403
 20
20.703131972269968
 30
0.0
 11
13.016250601873001
 21
20.703131972269968
 31
0.0
  0
LINE
  5
1BFB2
  8
OS
  6
CONTINUOUS
 62
     2
 10
-37.983782564539403
 20
34.703131972269979
 30
0.0
 11
13.016250601873001
 21
34.703131972269979
 31
0.0
  0
LINE
  5
1BFB3
  8
OS
  6
CONTINUOUS
 62
     2
 10
-37.983782564539403
 20
43.203131972269972
 30
0.0
 11
13.016250601873001
 21
43.203131972269972
 31
0.0
  0
LINE
  5
1BFB4
  8
OS
  6
CONTINUOUS
 62
     2
 10
-37.983782564539403
 20
45.203131972269958
 30
0.0
 11
13.016250601873001
 21
45.203131972269958
 31
0.0
  0
LINE
  5
1BFB5
  8
OS
  6
CONTINUOUS
 62
     2
 10
8.0162506018730255
 20
20.703131972269968
 30
0.0
 11
8.0162506018730255
 21
-84.296868027730014
 31
0.0
  0
LINE
  5
1BFB6
  8
OS
  6
CONTINUOUS
 62
     2
 10
13.016220084302971
 20
20.703135786967021
 30
0.0
 11
8.0162200843029723
 21
-84.29687184242691
 31
0.0
  0
LINE
  5
1BFB7
  8
OS
  6
CONTINUOUS
 62
     2
 10
13.016250601873001
 20
45.203131972269958
 30
0.0
 11
13.016250601873001
 21
-108.79686802773
 31
0.0
  0
LINE
  5
1BFB8
  8
KI
  6
CONTINUOUS
 62
     7
 10
239.0162199026409
 20
-101.7968680277299
 30
0.0
 11
239.0162199026409
 21
-39.296868027729978
 31
0.0
  0
LINE
  5
1BFB9
  8
KI
  6
CONTINUOUS
 62
     7
 10
263.0162199026409
 20
38.203131972271379
 30
0.0
 11
263.0162199026409
 21
-101.79686802773
 31
0.0
  0
LINE
  5
1BFBA
  8
KI
  6
CONTINUOUS
 62
     7
 10
255.5162199026409
 20
27.20313197226989
 30
0.0
 11
255.5162199026409
 21
36.703131972271358
 31
0.0
  0
LINE
  5
1BFBB
  8
KI
  6
CONTINUOUS
 62
     7
 10
248.0162199026409
 20
38.203131972271379
 30
0.0
 11
248.0162199026409
 21
27.20313197226989
 31
0.0
  0
LINE
  5
1BFBC
  8
KI
  6
CONTINUOUS
 62
     7
 10
239.0162199026409
 20
-23.296868027730088
 30
0.0
 11
239.0162199026409
 21
38.203131972269901
 31
0.0
  0
LINE
  5
1BFBD
  8
KI
  6
CONTINUOUS
 62
     7
 10
239.0162199026409
 20
38.203131972269901
 30
0.0
 11
248.0162199026409
 21
38.203131972271379
 31
0.0
  0
LINE
  5
1BFBE
  8
KI
  6
CONTINUOUS
 62
     7
 10
257.01621990264078
 20
38.203131972271038
 30
0.0
 11
255.5162199026409
 21
36.703131972271358
 31
0.0
1001
GENIUS_GENFIL_13
1070
     0
1040
1.5
1040
1.5
1040
20.0
1040
0.0
1002
{
1002
}
1001
GENIUS_GENOBJ-N-CHA_13
1002
{
1000
OWNER
1000
GEN
1002
}
1001
GENIUS_GENODEF_13
1002
{
1000
HIER
1070
     0
1002
}
1002
{
1000
MANEDIT
1070
     0
1002
}
1002
{
1000
NOSEL
1070
     0
1002
}
1002
{
1000
BEHIND
1070
     0
1002
}
1002
{
1000
OTHER
1070
     0
1002
}
1002
{
1000
REACTOR
1002
}
  0
LINE
  5
1BFBF
  8
KI
  6
CONTINUOUS
 62
     7
 10
257.01621990264078
 20
38.203131972271038
 30
0.0
 11
263.0162199026409
 21
38.203131972269901
 31
0.0
  0
LINE
  5
1BFC0
  8
KI
  6
CONTINUOUS
 62
     7
 10
248.0162199026409
 20
27.20313197226989
 30
0.0
 11
255.5162199026409
 21
27.20313197226989
 31
0.0
  0
LINE
  5
1BFC1
  8
KI
  6
CONTINUOUS
 62
     7
 10
244.0162199026409
 20
-39.296868027729978
 30
0.0
 11
244.0162199026409
 21
-23.296868027730088
 31
0.0
  0
LINE
  5
1BFC2
  8
KI
  6
CONTINUOUS
 62
     7
 10
244.0162199026409
 20
-23.296868027730088
 30
0.0
 11
239.0162199026409
 21
-23.296868027730088
 31
0.0
  0
LINE
  5
1BFC3
  8
KI
  6
CONTINUOUS
 62
     7
 10
239.0162199026409
 20
-39.296868027729978
 30
0.0
 11
244.0162199026409
 21
-39.296868027729978
 31
0.0
  0
LINE
  5
1BFC4
  8
KI
  6
CONTINUOUS
 62
     7
 10
255.5162199026409
 20
-90.796868027729985
 30
0.0
 11
248.0162199026409
 21
-90.796868027729985
 31
0.0
  0
LINE
  5
1BFC5
  8
KI
  6
CONTINUOUS
 62
     7
 10
248.0162199026409
 20
-90.796868027729985
 30
0.0
 11
248.0162199026409
 21
-101.7968680277299
 31
0.0
  0
LINE
  5
1BFC6
  8
KI
  6
CONTINUOUS
 62
     7
 10
248.0162199026409
 20
-101.7968680277299
 30
0.0
 11
239.0162199026409
 21
-101.7968680277299
 31
0.0
  0
LINE
  5
1BFC7
  8
KI
  6
CONTINUOUS
 62
     7
 10
255.5162199026409
 20
-100.2968680277299
 30
0.0
 11
255.5162199026409
 21
-90.796868027729985
 31
0.0
  0
LINE
  5
1BFC8
  8
KI
  6
CONTINUOUS
 62
     7
 10
257.01621990264078
 20
-101.7968680277299
 30
0.0
 11
255.5162199026409
 21
-100.2968680277299
 31
0.0
1001
GENIUS_GENFIL_13
1070
     0
1040
1.5
1040
1.5
1040
20.0
1040
0.0
1002
{
1002
}
1001
GENIUS_GENOBJ-N-CHA_13
1002
{
1000
OWNER
1000
GEN
1002
}
1001
GENIUS_GENODEF_13
1002
{
1000
HIER
1070
     0
1002
}
1002
{
1000
MANEDIT
1070
     0
1002
}
1002
{
1000
NOSEL
1070
     0
1002
}
1002
{
1000
BEHIND
1070
     0
1002
}
1002
{
1000
OTHER
1070
     0
1002
}
1002
{
1000
REACTOR
1002
}
  0
LINE
  5
1BFC9
  8
KI
  6
CONTINUOUS
 62
     7
 10
263.0162199026409
 20
-101.79686802773
 30
0.0
 11
257.01621990264078
 21
-101.7968680277299
 31
0.0
  0
LINE
  5
1BFCA
  8
OS
  6
CONTINUOUS
 62
     2
 10
263.0162199026409
 20
-99.936299785564543
 30
0.0
 11
261.15565166047543
 21
-101.79686802773
 31
0.0
  0
LINE
  5
1BFCB
  8
OS
  6
CONTINUOUS
 62
     2
 10
263.0162199026409
 20
-90.03680484895294
 30
0.0
 11
255.5162199026409
 21
-97.536804848952926
 31
0.0
  0
LINE
  5
1BFCC
  8
OS
  6
CONTINUOUS
 62
     2
 10
263.0162199026409
 20
-80.137309912341237
 30
0.0
 11
252.35666178725199
 21
-90.796868027729957
 31
0.0
  0
LINE
  5
1BFCD
  8
OS
  6
CONTINUOUS
 62
     2
 10
248.0162199026409
 20
-95.137309912341152
 30
0.0
 11
241.35666178725211
 21
-101.7968680277299
 31
0.0
  0
LINE
  5
1BFCE
  8
OS
  6
CONTINUOUS
 62
     2
 10
263.01621990264073
 20
-70.237814975729634
 30
0.0
 11
239.01621990264081
 21
-94.237814975729606
 31
0.0
  0
LINE
  5
1BFCF
  8
OS
  6
CONTINUOUS
 62
     2
 10
263.01621990264073
 20
-60.338320039117967
 30
0.0
 11
239.0162199026409
 21
-84.338320039117903
 31
0.0
  0
LINE
  5
1BFD0
  8
OS
  6
CONTINUOUS
 62
     2
 10
263.0162199026409
 20
-50.438825102506229
 30
0.0
 11
239.0162199026409
 21
-74.438825102506271
 31
0.0
  0
LINE
  5
1BFD1
  8
OS
  6
CONTINUOUS
 62
     2
 10
263.01621990264073
 20
-40.539330165894619
 30
0.0
 11
239.0162199026409
 21
-64.539330165894569
 31
0.0
  0
LINE
  5
1BFD2
  8
OS
  6
CONTINUOUS
 62
     2
 10
263.01621990264073
 20
-30.639835229283001
 30
0.0
 11
239.0162199026409
 21
-54.639835229282831
 31
0.0
  0
LINE
  5
1BFD3
  8
OS
  6
CONTINUOUS
 62
     2
 10
263.01621990264073
 20
-20.740340292671309
 30
0.0
 11
239.0162199026409
 21
-44.74034029267127
 31
0.0
  0
LINE
  5
1BFD4
  8
OS
  6
CONTINUOUS
 62
     2
 10
263.0162199026409
 20
-10.84084535605964
 30
0.0
 11
244.0162199026409
 21
-29.840845356059639
 31
0.0
  0
LINE
  5
1BFD5
  8
OS
  6
CONTINUOUS
 62
     2
 10
263.0162199026409
 20
-0.9413504194479855
 30
0.0
 11
240.6607022943588
 21
-23.296868027730088
 31
0.0
  0
LINE
  5
1BFD6
  8
OS
  6
CONTINUOUS
 62
     2
 10
263.01621990264073
 20
8.9581445171636744
 30
0.0
 11
239.0162199026409
 21
-15.04185548283623
 31
0.0
  0
LINE
  5
1BFD7
  8
OS
  6
CONTINUOUS
 62
     2
 10
263.0162199026409
 20
18.857639453775359
 30
0.0
 11
239.0162199026409
 21
-5.1423605462245803
 31
0.0
  0
LINE
  5
1BFD8
  8
OS
  6
CONTINUOUS
 62
     2
 10
263.0162199026409
 20
28.75713439038698
 30
0.0
 11
239.0162199026409
 21
4.7571343903870513
 31
0.0
  0
LINE
  5
1BFD9
  8
OS
  6
CONTINUOUS
 62
     2
 10
262.5627225479119
 20
38.203131972270043
 30
0.0
 11
255.51621990264081
 21
31.156629326998679
 31
0.0
  0
LINE
  5
1BFDA
  8
OS
  6
CONTINUOUS
 62
     2
 10
251.56272254791199
 20
27.20313197226988
 30
0.0
 11
239.0162199026409
 21
14.65662932699871
 31
0.0
  0
LINE
  5
1BFDB
  8
OS
  6
CONTINUOUS
 62
     2
 10
248.0162199026409
 20
33.556124263610343
 30
0.0
 11
239.0162199026409
 21
24.556124263610371
 31
0.0
  0
LINE
  5
1BFDC
  8
OS
  6
CONTINUOUS
 62
     2
 10
242.76373267468941
 20
38.203131972270562
 30
0.0
 11
239.0162199026409
 21
34.455619200222017
 31
0.0
  0
LINE
  5
1BFDD
  8
KI
  6
CONTINUOUS
 62
     7
 10
37.016250601872947
 20
-101.7968680277299
 30
0.0
 11
37.01625060187299
 21
-39.296868027729978
 31
0.0
  0
LINE
  5
1BFDE
  8
KI
  6
CONTINUOUS
 62
     7
 10
13.01625060187304
 20
38.203131972271379
 30
0.0
 11
13.016250601873001
 21
-101.79686802773
 31
0.0
  0
LINE
  5
1BFDF
  8
KI
  6
CONTINUOUS
 62
     7
 10
20.516250601873001
 20
27.20313197226989
 30
0.0
 11
20.516250601873001
 21
36.703131972271358
 31
0.0
  0
LINE
  5
1BFE0
  8
KI
  6
CONTINUOUS
 62
     7
 10
28.016250601873011
 20
38.203131972271379
 30
0.0
 11
28.016250601873011
 21
27.20313197226989
 31
0.0
  0
LINE
  5
1BFE1
  8
KI
  6
CONTINUOUS
 62
     7
 10
37.016250601872962
 20
-23.296868027730088
 30
0.0
 11
37.016250601873018
 21
38.203131972269901
 31
0.0
  0
LINE
  5
1BFE2
  8
KI
  6
CONTINUOUS
 62
     7
 10
37.016250601873018
 20
38.203131972269901
 30
0.0
 11
28.016250601873011
 21
38.203131972271379
 31
0.0
  0
LINE
  5
1BFE3
  8
KI
  6
CONTINUOUS
 62
     7
 10
19.01625060187304
 20
38.203131972271038
 30
0.0
 11
20.516250601873001
 21
36.703131972271358
 31
0.0
1001
GENIUS_GENFIL_13
1070
     0
1040
1.5
1040
1.5
1040
20.0
1040
0.0
1002
{
1002
}
1001
GENIUS_GENOBJ-N-CHA_13
1002
{
1000
OWNER
1000
GEN
1002
}
1001
GENIUS_GENODEF_13
1002
{
1000
HIER
1070
     0
1002
}
1002
{
1000
MANEDIT
1070
     0
1002
}
1002
{
1000
NOSEL
1070
     0
1002
}
1002
{
1000
BEHIND
1070
     0
1002
}
1002
{
1000
OTHER
1070
     0
1002
}
1002
{
1000
REACTOR
1002
}
  0
LINE
  5
1BFE4
  8
KI
  6
CONTINUOUS
 62
     7
 10
19.01625060187304
 20
38.203131972271038
 30
0.0
 11
13.01625060187304
 21
38.203131972269901
 31
0.0
  0
LINE
  5
1BFE5
  8
KI
  6
CONTINUOUS
 62
     7
 10
28.016250601873011
 20
27.20313197226989
 30
0.0
 11
20.516250601873001
 21
27.20313197226989
 31
0.0
  0
LINE
  5
1BFE6
  8
KI
  6
CONTINUOUS
 62
     7
 10
32.01625060187299
 20
-39.296868027729978
 30
0.0
 11
32.016250601872962
 21
-23.296868027730088
 31
0.0
  0
LINE
  5
1BFE7
  8
KI
  6
CONTINUOUS
 62
     7
 10
32.016250601872962
 20
-23.296868027730088
 30
0.0
 11
37.016250601872962
 21
-23.296868027730088
 31
0.0
  0
LINE
  5
1BFE8
  8
KI
  6
CONTINUOUS
 62
     7
 10
37.01625060187299
 20
-39.296868027729978
 30
0.0
 11
32.01625060187299
 21
-39.296868027729978
 31
0.0
  0
LINE
  5
1BFE9
  8
KI
  6
CONTINUOUS
 62
     7
 10
20.516250601872962
 20
-90.796868027729985
 30
0.0
 11
28.016250601872962
 21
-90.796868027729985
 31
0.0
  0
LINE
  5
1BFEA
  8
KI
  6
CONTINUOUS
 62
     7
 10
28.016250601872962
 20
-90.796868027729985
 30
0.0
 11
28.016250601872951
 21
-101.7968680277299
 31
0.0
  0
LINE
  5
1BFEB
  8
KI
  6
CONTINUOUS
 62
     7
 10
28.016250601872951
 20
-101.7968680277299
 30
0.0
 11
37.016250601872947
 21
-101.7968680277299
 31
0.0
  0
LINE
  5
1BFEC
  8
KI
  6
CONTINUOUS
 62
     7
 10
20.516250601872951
 20
-100.2968680277299
 30
0.0
 11
20.516250601872962
 21
-90.796868027729985
 31
0.0
  0
LINE
  5
1BFED
  8
KI
  6
CONTINUOUS
 62
     7
 10
19.016250601873001
 20
-101.7968680277299
 30
0.0
 11
20.516250601872951
 21
-100.2968680277299
 31
0.0
1001
GENIUS_GENFIL_13
1070
     0
1040
1.5
1040
1.5
1040
20.0
1040
0.0
1002
{
1002
}
1001
GENIUS_GENOBJ-N-CHA_13
1002
{
1000
OWNER
1000
GEN
1002
}
1001
GENIUS_GENODEF_13
1002
{
1000
HIER
1070
     0
1002
}
1002
{
1000
MANEDIT
1070
     0
1002
}
1002
{
1000
NOSEL
1070
     0
1002
}
1002
{
1000
BEHIND
1070
     0
1002
}
1002
{
1000
OTHER
1070
     0
1002
}
1002
{
1000
REACTOR
1002
}
  0
LINE
  5
1BFEE
  8
KI
  6
CONTINUOUS
 62
     7
 10
13.016250601873001
 20
-101.79686802773
 30
0.0
 11
19.016250601873001
 21
-101.7968680277299
 31
0.0
  0
LINE
  5
1BFEF
  8
OS
  6
CONTINUOUS
 62
     2
 10
13.016250601873001
 20
-99.936299785564543
 30
0.0
 11
14.87681884403848
 21
-101.79686802773
 31
0.0
  0
LINE
  5
1BFF0
  8
OS
  6
CONTINUOUS
 62
     2
 10
13.016250601873001
 20
-90.03680484895294
 30
0.0
 11
20.516250601872951
 21
-97.536804848952926
 31
0.0
  0
LINE
  5
1BFF1
  8
OS
  6
CONTINUOUS
 62
     2
 10
13.01625060187296
 20
-80.137309912341237
 30
0.0
 11
23.675808717261688
 21
-90.796868027729957
 31
0.0
  0
LINE
  5
1BFF2
  8
OS
  6
CONTINUOUS
 62
     2
 10
28.016250601872919
 20
-95.137309912341152
 30
0.0
 11
34.675808717261681
 21
-101.7968680277299
 31
0.0
  0
LINE
  5
1BFF3
  8
OS
  6
CONTINUOUS
 62
     2
 10
13.01625060187307
 20
-70.237814975729634
 30
0.0
 11
37.016250601873033
 21
-94.237814975729606
 31
0.0
  0
LINE
  5
1BFF4
  8
OS
  6
CONTINUOUS
 62
     2
 10
13.016250601873081
 20
-60.338320039117967
 30
0.0
 11
37.01625060187299
 21
-84.338320039117903
 31
0.0
  0
LINE
  5
1BFF5
  8
OS
  6
CONTINUOUS
 62
     2
 10
13.01625060187296
 20
-50.438825102506229
 30
0.0
 11
37.016250601873018
 21
-74.438825102506271
 31
0.0
  0
LINE
  5
1BFF6
  8
OS
  6
CONTINUOUS
 62
     2
 10
13.016250601873081
 20
-40.539330165894619
 30
0.0
 11
37.016250601873018
 21
-64.539330165894569
 31
0.0
  0
LINE
  5
1BFF7
  8
OS
  6
CONTINUOUS
 62
     2
 10
13.016250601873081
 20
-30.639835229282991
 30
0.0
 11
37.016250601872962
 21
-54.639835229282831
 31
0.0
  0
LINE
  5
1BFF8
  8
OS
  6
CONTINUOUS
 62
     2
 10
13.016250601873081
 20
-20.740340292671309
 30
0.0
 11
37.016250601872962
 21
-44.74034029267127
 31
0.0
  0
LINE
  5
1BFF9
  8
OS
  6
CONTINUOUS
 62
     2
 10
13.016250601873031
 20
-10.840845356059599
 30
0.0
 11
32.01625060187299
 21
-29.840845356059639
 31
0.0
  0
LINE
  5
1BFFA
  8
OS
  6
CONTINUOUS
 62
     2
 10
13.016250601872979
 20
-0.9413504194479783
 30
0.0
 11
35.371768210155103
 21
-23.296868027730088
 31
0.0
  0
LINE
  5
1BFFB
  8
OS
  6
CONTINUOUS
 62
     2
 10
13.016250601873081
 20
8.9581445171636815
 30
0.0
 11
37.016250601872997
 21
-15.04185548283623
 31
0.0
  0
LINE
  5
1BFFC
  8
OS
  6
CONTINUOUS
 62
     2
 10
13.01625060187304
 20
18.857639453775359
 30
0.0
 11
37.016250601872962
 21
-5.1423605462245803
 31
0.0
  0
LINE
  5
1BFFD
  8
OS
  6
CONTINUOUS
 62
     2
 10
13.016250601872979
 20
28.75713439038698
 30
0.0
 11
37.016250601872962
 21
4.7571343903870513
 31
0.0
  0
LINE
  5
1BFFE
  8
OS
  6
CONTINUOUS
 62
     2
 10
13.46974795660168
 20
38.203131972270043
 30
0.0
 11
20.516250601873072
 21
31.156629326998679
 31
0.0
  0
LINE
  5
1BFFF
  8
OS
  6
CONTINUOUS
 62
     2
 10
24.46974795660185
 20
27.20313197226988
 30
0.0
 11
37.016250601873033
 21
14.65662932699871
 31
0.0
  0
LINE
  5
1C000
  8
OS
  6
CONTINUOUS
 62
     2
 10
28.016250601873029
 20
33.556124263610343
 30
0.0
 11
37.016250601873033
 21
24.556124263610371
 31
0.0
  0
LINE
  5
1C001
  8
OS
  6
CONTINUOUS
 62
     2
 10
33.268737829824509
 20
38.203131972270562
 30
0.0
 11
37.01625060187304
 21
34.455619200222017
 31
0.0
  0
LINE
  5
1C002
  8
KI
  6
CONTINUOUS
 62
     7
 10
-177.7633206469956
 20
123.704765774031
 30
0.0
 11
-240.2633195321751
 21
123.704765774031
 31
0.0
  0
LINE
  5
1C003
  8
KI
  6
CONTINUOUS
 62
     7
 10
-317.76332064699682
 20
147.7047657740309
 30
0.0
 11
-177.7633206469956
 21
147.7047657740309
 31
0.0
  0
LINE
  5
1C004
  8
KI
  6
CONTINUOUS
 62
     7
 10
-306.76332064699551
 20
140.2047657740309
 30
0.0
 11
-316.26332064699682
 21
140.2047657740309
 31
0.0
  0
LINE
  5
1C005
  8
KI
  6
CONTINUOUS
 62
     7
 10
-317.76332064699682
 20
132.7047657740307
 30
0.0
 11
-306.76332064699551
 21
132.7047657740307
 31
0.0
  0
LINE
  5
1C006
  8
KI
  6
CONTINUOUS
 62
     7
 10
-256.2633195321751
 20
123.704765774031
 30
0.0
 11
-317.76332064699551
 21
123.704765774031
 31
0.0
  0
LINE
  5
1C007
  8
KI
  6
CONTINUOUS
 62
     7
 10
-317.76332064699551
 20
123.704765774031
 30
0.0
 11
-317.76332064699682
 21
132.7047657740307
 31
0.0
  0
LINE
  5
1C008
  8
KI
  6
CONTINUOUS
 62
     7
 10
-317.76332064699659
 20
141.7047657740309
 30
0.0
 11
-316.26332064699682
 21
140.2047657740309
 31
0.0
1001
GENIUS_GENFIL_13
1070
     0
1040
1.5
1040
1.5
1040
20.0
1040
0.0
1002
{
1002
}
1001
GENIUS_GENOBJ-N-CHA_13
1002
{
1000
OWNER
1000
GEN
1002
}
1001
GENIUS_GENODEF_13
1002
{
1000
HIER
1070
     0
1002
}
1002
{
1000
MANEDIT
1070
     0
1002
}
1002
{
1000
NOSEL
1070
     0
1002
}
1002
{
1000
BEHIND
1070
     0
1002
}
1002
{
1000
OTHER
1070
     0
1002
}
1002
{
1000
REACTOR
1002
}
  0
LINE
  5
1C009
  8
KI
  6
CONTINUOUS
 62
     7
 10
-317.76332064699659
 20
141.7047657740309
 30
0.0
 11
-317.76332064699551
 21
147.7047657740309
 31
0.0
  0
LINE
  5
1C00A
  8
KI
  6
CONTINUOUS
 62
     7
 10
-306.76332064699551
 20
132.7047657740307
 30
0.0
 11
-306.76332064699551
 21
140.2047657740309
 31
0.0
  0
LINE
  5
1C00B
  8
KI
  6
CONTINUOUS
 62
     7
 10
-240.2633195321751
 20
128.7047657740309
 30
0.0
 11
-256.2633195321751
 21
128.7047657740309
 31
0.0
  0
LINE
  5
1C00C
  8
KI
  6
CONTINUOUS
 62
     7
 10
-256.2633195321751
 20
128.7047657740309
 30
0.0
 11
-256.2633195321751
 21
123.704765774031
 31
0.0
  0
LINE
  5
1C00D
  8
KI
  6
CONTINUOUS
 62
     7
 10
-240.2633195321751
 20
123.704765774031
 30
0.0
 11
-240.2633195321751
 21
128.7047657740309
 31
0.0
  0
LINE
  5
1C00E
  8
KI
  6
CONTINUOUS
 62
     7
 10
-188.76332064699551
 20
140.2047657740309
 30
0.0
 11
-188.76332064699551
 21
132.7047657740307
 31
0.0
  0
LINE
  5
1C00F
  8
KI
  6
CONTINUOUS
 62
     7
 10
-188.76332064699551
 20
132.7047657740307
 30
0.0
 11
-177.7633206469956
 21
132.7047657740307
 31
0.0
  0
LINE
  5
1C010
  8
KI
  6
CONTINUOUS
 62
     7
 10
-177.7633206469956
 20
132.7047657740307
 30
0.0
 11
-177.7633206469956
 21
123.704765774031
 31
0.0
  0
LINE
  5
1C011
  8
KI
  6
CONTINUOUS
 62
     7
 10
-179.26332064699551
 20
140.2047657740309
 30
0.0
 11
-188.76332064699551
 21
140.2047657740309
 31
0.0
  0
LINE
  5
1C012
  8
KI
  6
CONTINUOUS
 62
     7
 10
-177.7633206469956
 20
141.7047657740309
 30
0.0
 11
-179.26332064699551
 21
140.2047657740309
 31
0.0
1001
GENIUS_GENFIL_13
1070
     0
1040
1.5
1040
1.5
1040
20.0
1040
0.0
1002
{
1002
}
1001
GENIUS_GENOBJ-N-CHA_13
1002
{
1000
OWNER
1000
GEN
1002
}
1001
GENIUS_GENODEF_13
1002
{
1000
HIER
1070
     0
1002
}
1002
{
1000
MANEDIT
1070
     0
1002
}
1002
{
1000
NOSEL
1070
     0
1002
}
1002
{
1000
BEHIND
1070
     0
1002
}
1002
{
1000
OTHER
1070
     0
1002
}
1002
{
1000
REACTOR
1002
}
  0
LINE
  5
1C013
  8
KI
  6
CONTINUOUS
 62
     7
 10
-177.7633206469956
 20
147.7047657740309
 30
0.0
 11
-177.7633206469956
 21
141.7047657740309
 31
0.0
  0
LINE
  5
1C014
  8
OS
  6
CONTINUOUS
 62
     2
 10
-317.3357762348798
 20
141.2772213619142
 30
0.0
 11
-310.90823182276279
 21
147.7047657740309
 31
0.0
  0
LINE
  5
1C015
  8
OS
  6
CONTINUOUS
 62
     2
 10
-317.76332064699659
 20
130.9501820131857
 30
0.0
 11
-316.00873688615138
 21
132.70476577403059
 31
0.0
  0
LINE
  5
1C016
  8
OS
  6
CONTINUOUS
 62
     2
 10
-308.50873688615133
 20
140.2047657740309
 30
0.0
 11
-301.00873688615133
 21
147.7047657740309
 31
0.0
  0
LINE
  5
1C017
  8
OS
  6
CONTINUOUS
 62
     2
 10
-315.10924194953958
 20
123.704765774031
 30
0.0
 11
-291.10924194953958
 21
147.7047657740309
 31
0.0
  0
LINE
  5
1C018
  8
OS
  6
CONTINUOUS
 62
     2
 10
-305.20974701292801
 20
123.7047657740309
 30
0.0
 11
-281.20974701292801
 21
147.7047657740309
 31
0.0
  0
LINE
  5
1C019
  8
OS
  6
CONTINUOUS
 62
     2
 10
-295.31025207631632
 20
123.7047657740309
 30
0.0
 11
-271.31025207631632
 21
147.7047657740309
 31
0.0
  0
LINE
  5
1C01A
  8
OS
  6
CONTINUOUS
 62
     2
 10
-285.41075713970451
 20
123.704765774031
 30
0.0
 11
-261.4107571397044
 21
147.7047657740309
 31
0.0
  0
LINE
  5
1C01B
  8
OS
  6
CONTINUOUS
 62
     2
 10
-275.51126220309283
 20
123.704765774031
 30
0.0
 11
-251.51126220309271
 21
147.7047657740309
 31
0.0
  0
LINE
  5
1C01C
  8
OS
  6
CONTINUOUS
 62
     2
 10
-265.61176726648131
 20
123.704765774031
 30
0.0
 11
-241.61176726648131
 21
147.7047657740309
 31
0.0
  0
LINE
  5
1C01D
  8
OS
  6
CONTINUOUS
 62
     2
 10
-250.71227232986951
 20
128.7047657740309
 30
0.0
 11
-231.71227232986951
 21
147.7047657740309
 31
0.0
  0
LINE
  5
1C01E
  8
OS
  6
CONTINUOUS
 62
     2
 10
-240.81277739325799
 20
128.7047657740309
 30
0.0
 11
-221.81277739325799
 21
147.7047657740309
 31
0.0
  0
LINE
  5
1C01F
  8
OS
  6
CONTINUOUS
 62
     2
 10
-235.9133149773084
 20
123.7047332533684
 30
0.0
 11
-211.9132824566463
 21
147.7047657740309
 31
0.0
  0
LINE
  5
1C020
  8
OS
  6
CONTINUOUS
 62
     2
 10
-226.0138200406968
 20
123.7047332533684
 30
0.0
 11
-202.01378752003461
 21
147.7047657740309
 31
0.0
  0
LINE
  5
1C021
  8
OS
  6
CONTINUOUS
 62
     2
 10
-216.11429258342301
 20
123.7047657740309
 30
0.0
 11
-192.11429258342301
 21
147.7047657740309
 31
0.0
  0
LINE
  5
1C022
  8
OS
  6
CONTINUOUS
 62
     2
 10
-206.21479764681101
 20
123.704765774031
 30
0.0
 11
-182.21479764681089
 21
147.7047657740309
 31
0.0
  0
LINE
  5
1C023
  8
OS
  6
CONTINUOUS
 62
     2
 10
-196.3153027101994
 20
123.704765774031
 30
0.0
 11
-187.3153027101994
 21
132.7047657740307
 31
0.0
  0
LINE
  5
1C024
  8
OS
  6
CONTINUOUS
 62
     2
 10
-179.8153027101994
 20
140.2047657740309
 30
0.0
 11
-177.76332064699551
 21
142.256747837235
 31
0.0
  0
LINE
  5
1C025
  8
OS
  6
CONTINUOUS
 62
     2
 10
-186.41580777358769
 20
123.7047657740309
 30
0.0
 11
-177.7633206469956
 21
132.35725290062331
 31
0.0
  0
LINE
  5
1C026
  8
SU
  6
CONTINUOUS
 62
     3
 10
-155.76332064105191
 20
156.7047657657244
 30
0.0
 11
-105.76332064689331
 21
156.7047657657244
 31
0.0
  0
LINE
  5
1C027
  8
SU
  6
CONTINUOUS
 62
     3
 10
-108.76332064689331
 20
147.7047657740309
 30
0.0
 11
-108.76332064689331
 21
156.7047657657244
 31
0.0
  0
LINE
  5
1C028
  8
SU
  6
CONTINUOUS
 62
     3
 10
-183.26332064699571
 20
208.704765774039
 30
0.0
 11
-170.76332064699571
 21
208.704765774039
 31
0.0
  0
LINE
  5
1C029
  8
SU
  6
CONTINUOUS
 62
     3
 10
-170.76332064699571
 20
208.704765774039
 30
0.0
 11
-144.1621490116116
 21
208.704765774039
 31
0.0
  0
LINE
  5
1C02A
  8
SU
  6
CONTINUOUS
 62
     3
 10
-170.76332064699571
 20
189.7047657740309
 30
0.0
 11
-170.76332064699571
 21
226.70476577403889
 31
0.0
  0
LINE
  5
1C02B
  8
SU
  6
CONTINUOUS
 62
     3
 10
-156.76332064105191
 20
157.70476576675011
 30
0.0
 11
-156.76332064105191
 21
226.70476577403889
 31
0.0
  0
LINE
  5
1C02C
  8
SU
  6
CONTINUOUS
 62
     3
 10
-170.76332064699571
 20
223.704765774039
 30
0.0
 11
-156.76332064105191
 21
223.704765774039
 31
0.0
  0
LINE
  5
1C02D
  8
SU
  6
CONTINUOUS
 62
     3
 10
37.016250601873018
 20
39.203131972269901
 30
0.0
 11
37.016250601873018
 21
82.203131972269873
 31
0.0
  0
LINE
  5
1C02E
  8
SU
  6
CONTINUOUS
 62
     3
 10
28.01621990264951
 20
79.203131972269873
 30
0.0
 11
37.016250601873018
 21
79.203131972269873
 31
0.0
  0
LINE
  5
1C02F
  8
SU
  6
CONTINUOUS
 62
     3
 10
28.016219902646348
 20
60.203131967269186
 30
0.0
 11
28.016219902646348
 21
82.203131972269759
 31
0.0
  0
LINE
  5
1C030
  8
SU
  6
CONTINUOUS
 62
     3
 10
4.0162199026463554
 20
60.203131972269929
 30
0.0
 11
4.0162199026463572
 21
82.203131972269759
 31
0.0
  0
LINE
  5
1C031
  8
SU
  6
CONTINUOUS
 62
     3
 10
28.016219902646348
 20
79.203131972269759
 30
0.0
 11
4.0162199026463563
 21
79.203131972269759
 31
0.0
  0
LINE
  5
1C032
  8
SU
  6
CONTINUOUS
 62
     3
 10
-300.26332064699568
 20
189.7047657740309
 30
0.0
 11
-300.26332064699568
 21
211.704765774039
 31
0.0
  0
LINE
  5
1C033
  8
SU
  6
CONTINUOUS
 62
     3
 10
-195.26332064699571
 20
189.7047657740309
 30
0.0
 11
-195.26332064699571
 21
211.704765774039
 31
0.0
  0
LINE
  5
1C034
  8
SU
  6
CONTINUOUS
 62
     3
 10
-300.26332064699568
 20
208.704765774039
 30
0.0
 11
-195.26332064699571
 21
208.704765774039
 31
0.0
  0
LINE
  5
1C035
  8
SU
  6
CONTINUOUS
 62
     3
 10
-170.76332064699571
 20
223.704765774039
 30
0.0
 11
-324.76332064699562
 21
223.704765774039
 31
0.0
  0
LINE
  5
1C036
  8
SU
  6
CONTINUOUS
 62
     3
 10
-339.76332065314381
 20
156.7047657657244
 30
0.0
 11
-361.76332064699562
 21
156.7047657657244
 31
0.0
  0
LINE
  5
1C037
  8
SU
  6
CONTINUOUS
 62
     3
 10
-358.76332064699562
 20
156.7047657657244
 30
0.0
 11
-358.76332064699562
 21
132.704766727703
 31
0.0
  0
LINE
  5
1C038
  8
SU
  6
CONTINUOUS
 62
     3
 10
-334.76332063907682
 20
132.704766727703
 30
0.0
 11
-361.76332064699562
 21
132.704766727703
 31
0.0
  0
LINE
  5
1C039
  8
SU
  6
CONTINUOUS
 62
     3
 10
-318.76332064699551
 20
123.704766727703
 30
0.0
 11
-361.76332064699562
 21
123.704766727703
 31
0.0
  0
LINE
  5
1C03A
  8
SU
  6
CONTINUOUS
 62
     3
 10
-358.76332064699562
 20
132.704766727703
 30
0.0
 11
-358.76332064699562
 21
123.704766727703
 31
0.0
  0
TEXT
  5
1C03B
  8
SU
  6
CONTINUOUS
 62
     3
 10
-360.06332064699558
 20
126.70286196579831
 30
0.0
 40
4.0
  1
9
 50
90.0
 41
0.8299999999999999
  0
TEXT
  5
1C03C
  8
SU
  6
CONTINUOUS
 62
     3
 10
-360.06332064699581
 20
141.46381386576141
 30
0.0
 40
4.0
  1
24
 50
90.0
 41
0.8299999999999999
  0
TEXT
  5
1C03D
  8
SU
  6
CONTINUOUS
 62
     3
 10
-252.82236826604341
 20
225.0047657740389
 30
0.0
 40
4.0
  1
154
 41
0.8299999999999999
  0
TEXT
  5
1C03E
  8
SU
  6
CONTINUOUS
 62
     3
 10
-252.74332064699561
 20
210.0047657740389
 30
0.0
 40
4.0
  1
105
 41
0.8299999999999999
  0
TEXT
  5
1C03F
  8
SU
  6
CONTINUOUS
 62
     3
 10
12.77526752169396
 20
80.503131972269756
 30
0.0
 40
4.0
  1
24
 41
0.8299999999999999
  0
TEXT
  5
1C040
  8
SU
  6
CONTINUOUS
 62
     3
 10
31.014330490356478
 20
80.503131972269884
 30
0.0
 40
4.0
  1
9
 41
0.8299999999999999
  0
TEXT
  5
1C041
  8
SU
  6
CONTINUOUS
 62
     3
 10
-167.24141588211899
 20
225.0047657740389
 30
0.0
 40
4.0
  1
14
 41
0.8299999999999999
  0
TEXT
  5
1C042
  8
SU
  6
CONTINUOUS
 62
     3
 10
-156.05452996399291
 20
210.0047657740389
 30
0.0
 40
4.0
  1
12.5
 41
0.8299999999999999
  0
TEXT
  5
1C043
  8
SU
  6
CONTINUOUS
 62
     3
 10
-110.0633206468932
 20
150.70286100797301
 30
0.0
 40
4.0
  1
9
 50
90.0
 41
0.8299999999999999
  0
TEXT
  5
1C044
  8
SU
  6
CONTINUOUS
 62
     3
 10
-192.6623682660433
 20
210.0047657740389
 30
0.0
 40
4.0
  1
12
 41
0.8299999999999999
  0
TEXT
  5
1C045
  8
SU
  6
CONTINUOUS
 62
     3
 10
-335.24141588816502
 20
225.0047657740389
 30
0.0
 40
4.0
  1
14
 41
0.8299999999999999
  0
TEXT
  5
1C046
  8
SU
  6
CONTINUOUS
 62
     3
 10
-351.30634448967311
 20
210.0047657740389
 30
0.0
 40
4.0
  1
12.5
 41
0.8299999999999999
  0
TEXT
  5
1C047
  8
SU
  6
CONTINUOUS
 62
     3
 10
-309.6623682660433
 20
210.0047657740389
 30
0.0
 40
4.0
  1
12
 41
0.8299999999999999
  0
TEXT
  5
1C048
  8
SU
  6
CONTINUOUS
 62
     3
 10
-74.28378256454738
 20
-36.855915646777603
 30
0.0
 40
4.0
  1
154
 50
90.0
 41
0.8299999999999999
  0
TEXT
  5
1C049
  8
SU
  6
CONTINUOUS
 62
     3
 10
-59.283782564547437
 20
-36.776868027729932
 30
0.0
 40
4.0
  1
105
 50
90.0
 41
0.8299999999999999
  0
TEXT
  5
1C04A
  8
SU
  6
CONTINUOUS
 62
     3
 10
-59.102683501001579
 20
-134.24689591437181
 30
0.0
 40
4.0
  1
12.5
 50
90.0
 41
0.8299999999999999
  0
TEXT
  5
1C04B
  8
SU
  6
CONTINUOUS
 62
     3
 10
-74.28378256454738
 20
-119.27496326582499
 30
0.0
 40
4.0
  1
14
 50
90.0
 41
0.8299999999999999
  0
TEXT
  5
1C04C
  8
SU
  6
CONTINUOUS
 62
     3
 10
-59.283782564547423
 20
-93.695915646777536
 30
0.0
 40
4.0
  1
12
 50
90.0
 41
0.8299999999999999
  0
TEXT
  5
1C04D
  8
SU
  6
CONTINUOUS
 62
     3
 10
-59.283782564547437
 20
23.304084353222368
 30
0.0
 40
4.0
  1
12
 50
90.0
 41
0.8299999999999999
  0
TEXT
  5
1C04E
  8
SU
  6
CONTINUOUS
 62
     3
 10
-74.283782564547423
 20
48.725036734174758
 30
0.0
 40
4.0
  1
14
 50
90.0
 41
0.8299999999999999
  0
TEXT
  5
1C04F
  8
SU
  6
CONTINUOUS
 62
     3
 10
-59.283782564547423
 20
59.69691300535586
 30
0.0
 40
4.0
  1
12.5
 50
90.0
 41
0.8299999999999999
  0
TEXT
  5
1C050
  8
SU
  6
CONTINUOUS
 62
     3
 10
256.77526752168842
 20
80.503131972269756
 30
0.0
 40
4.0
  1
24
 41
0.8299999999999999
  0
TEXT
  5
1C051
  8
SU
  6
CONTINUOUS
 62
     3
 10
242.014299791132
 20
80.503131972269841
 30
0.0
 40
4.0
  1
9
 41
0.8299999999999999
  0
TEXT
  5
1C052
  8
SU
  6
CONTINUOUS
 62
     3
 10
-125.063320646892
 20
7.9774344971973639
 30
0.0
 40
4.0
  1
ドアH（DH）＝H－47
 50
90.0
 41
0.8299999999999999
  0
TEXT
  5
1C053
  8
SU
  6
CONTINUOUS
 62
     3
 10
-110.0633206468932
 20
30.717639819777229
 30
0.0
 40
4.0
  1
H
 50
90.0
 41
0.8299999999999999
  0
TEXT
  5
1C054
  8
SU
  6
CONTINUOUS
 62
     3
 10
-239.24331858979889
 20
-101.49139089638911
 30
0.0
 40
4.0
  1
110
 41
0.8299999999999999
  0
TEXT
  5
1C055
  8
SU
  6
CONTINUOUS
 62
     3
 10
-360.06332064699558
 20
-78.690437101488641
 30
0.0
 40
4.0
  1
15
 50
90.0
 41
0.8299999999999999
  0
TEXT
  5
1C056
  8
SU
  6
CONTINUOUS
 62
     3
 10
-360.06332064699558
 20
-60.953292830402923
 30
0.0
 40
4.0
  1
20
 50
90.0
 41
0.8299999999999999
  0
TEXT
  5
1C057
  8
SU
  6
CONTINUOUS
 62
     3
 10
-310.24665186181761
 20
-101.49139089639171
 30
0.0
 40
4.0
  1
28.5
 41
0.8299999999999999
  0
LINE
  5
1C058
  8
SU
  6
CONTINUOUS
 62
     3
 10
-289.26331640997199
 20
-102.7913908963917
 30
0.0
 11
-291.66331640997191
 21
-102.7913908963917
 31
0.0
  0
TEXT
  5
1C059
  8
SU
  6
CONTINUOUS
 62
     3
 10
-121.5633206469941
 20
-181.3890671776112
 30
0.0
 40
4.0
  1
ドアH（DH）
 50
90.0
 41
0.8299999999999999
  0
TEXT
  5
1C05A
  8
SU
  6
CONTINUOUS
 62
     3
 10
-106.56332064699551
 20
-175.03382908237299
 30
0.0
 40
4.0
  1
H
 50
90.0
 41
0.8299999999999999
  0
TEXT
  5
1C05B
  8
SU
  6
CONTINUOUS
 62
     3
 10
-106.56332064699551
 20
-232.01786026057539
 30
0.0
 40
4.0
  1
12
 50
90.0
 41
0.8299999999999999
  0
TEXT
  5
1C05C
  8
SU
  6
CONTINUOUS
 62
     3
 10
-121.5633206469942
 20
-220.19976502248031
 30
0.0
 40
4.0
  1
8
 50
90.0
 41
0.8299999999999999
  0
LINE
  5
1C05D
  8
SU
  6
CONTINUOUS
 62
     3
 10
-111.1839574137359
 20
-212.75108469696039
 30
0.0
 11
-99.342683880255123
 21
-212.75108469696039
 31
0.0
  0
LINE
  5
1C05E
  8
SU
  6
CONTINUOUS
 62
     3
 10
-111.06395741373601
 20
-212.95108469696041
 30
0.0
 11
-99.46268388025517
 21
-212.95108469696041
 31
0.0
  0
LINE
  5
1C05F
  8
SU
  6
CONTINUOUS
 62
     3
 10
-110.9439574137359
 20
-213.1510846969604
 30
0.0
 11
-99.582683880255161
 21
-213.1510846969604
 31
0.0
  0
LINE
  5
1C060
  8
SU
  6
CONTINUOUS
 62
     3
 10
-110.823957413736
 20
-213.35108469696041
 30
0.0
 11
-99.702683880255123
 21
-213.35108469696041
 31
0.0
  0
LINE
  5
1C061
  8
SU
  6
CONTINUOUS
 62
     3
 10
-110.70395741373591
 20
-213.55108469696049
 30
0.0
 11
-99.822683880255155
 21
-213.55108469696049
 31
0.0
  0
LINE
  5
1C062
  8
SU
  6
CONTINUOUS
 62
     3
 10
-110.583957413736
 20
-213.75108469696039
 30
0.0
 11
-99.942683880255146
 21
-213.75108469696039
 31
0.0
  0
LINE
  5
1C063
  8
SU
  6
CONTINUOUS
 62
     3
 10
-110.463957413736
 20
-213.95108469696049
 30
0.0
 11
-100.0626838802548
 21
-213.95108469696049
 31
0.0
  0
LINE
  5
1C064
  8
SU
  6
CONTINUOUS
 62
     3
 10
-110.34395741373601
 20
-214.1510846969604
 30
0.0
 11
-100.1826838802549
 21
-214.1510846969604
 31
0.0
  0
LINE
  5
1C065
  8
SU
  6
CONTINUOUS
 62
     3
 10
-110.223957413736
 20
-214.3510846969605
 30
0.0
 11
-100.3026838802548
 21
-214.3510846969605
 31
0.0
  0
LINE
  5
1C066
  8
SU
  6
CONTINUOUS
 62
     3
 10
-110.1039574137359
 20
-214.5510846969604
 30
0.0
 11
-100.42268388025479
 21
-214.5510846969604
 31
0.0
  0
LINE
  5
1C067
  8
SU
  6
CONTINUOUS
 62
     3
 10
-109.98395741373569
 20
-214.75108469696039
 30
0.0
 11
-100.542683880255
 21
-214.75108469696039
 31
0.0
  0
LINE
  5
1C068
  8
SU
  6
CONTINUOUS
 62
     3
 10
-109.863957413736
 20
-214.95108469696041
 30
0.0
 11
-100.6626838802548
 21
-214.95108469696041
 31
0.0
  0
LINE
  5
1C069
  8
SU
  6
CONTINUOUS
 62
     3
 10
-109.7439574137359
 20
-215.1510846969604
 30
0.0
 11
-100.78268388025511
 21
-215.1510846969604
 31
0.0
  0
LINE
  5
1C06A
  8
SU
  6
CONTINUOUS
 62
     3
 10
-109.62395741373599
 20
-215.35108469696041
 30
0.0
 11
-100.902683880255
 21
-215.35108469696041
 31
0.0
  0
LINE
  5
1C06B
  8
SU
  6
CONTINUOUS
 62
     3
 10
-109.5039574137359
 20
-215.5510846969604
 30
0.0
 11
-101.0226838802549
 21
-215.5510846969604
 31
0.0
  0
LINE
  5
1C06C
  8
SU
  6
CONTINUOUS
 62
     3
 10
-109.383957413736
 20
-215.75108469696039
 30
0.0
 11
-101.14268388025511
 21
-215.75108469696039
 31
0.0
  0
LINE
  5
1C06D
  8
SU
  6
CONTINUOUS
 62
     3
 10
-109.26395741373599
 20
-215.95108469696049
 30
0.0
 11
-101.2626838802549
 21
-215.95108469696049
 31
0.0
  0
LINE
  5
1C06E
  8
SU
  6
CONTINUOUS
 62
     3
 10
-109.143957413736
 20
-216.1510846969604
 30
0.0
 11
-101.3826838802549
 21
-216.1510846969604
 31
0.0
  0
LINE
  5
1C06F
  8
SU
  6
CONTINUOUS
 62
     3
 10
-109.023957413736
 20
-216.3510846969605
 30
0.0
 11
-101.50268388025511
 21
-216.3510846969605
 31
0.0
  0
LINE
  5
1C070
  8
SU
  6
CONTINUOUS
 62
     3
 10
-108.9039574137359
 20
-216.5510846969604
 30
0.0
 11
-101.6226838802551
 21
-216.5510846969604
 31
0.0
  0
LINE
  5
1C071
  8
SU
  6
CONTINUOUS
 62
     3
 10
-108.783957413736
 20
-216.75108469696039
 30
0.0
 11
-101.7426838802549
 21
-216.75108469696039
 31
0.0
  0
LINE
  5
1C072
  8
SU
  6
CONTINUOUS
 62
     3
 10
-108.663957413736
 20
-216.95108469696041
 30
0.0
 11
-101.8626838802551
 21
-216.95108469696041
 31
0.0
  0
LINE
  5
1C073
  8
SU
  6
CONTINUOUS
 62
     3
 10
-108.5439574137359
 20
-217.1510846969604
 30
0.0
 11
-101.9826838802548
 21
-217.1510846969604
 31
0.0
  0
LINE
  5
1C074
  8
SU
  6
CONTINUOUS
 62
     3
 10
-108.42395741373601
 20
-217.35108469696041
 30
0.0
 11
-102.102683880255
 21
-217.35108469696041
 31
0.0
  0
LINE
  5
1C075
  8
SU
  6
CONTINUOUS
 62
     3
 10
-108.3039574137359
 20
-217.5510846969604
 30
0.0
 11
-102.22268388025491
 21
-217.5510846969604
 31
0.0
  0
LINE
  5
1C076
  8
SU
  6
CONTINUOUS
 62
     3
 10
-108.183957413736
 20
-217.75108469696039
 30
0.0
 11
-102.342683880255
 21
-217.75108469696039
 31
0.0
  0
LINE
  5
1C077
  8
SU
  6
CONTINUOUS
 62
     3
 10
-108.06395741373601
 20
-217.95108469696049
 30
0.0
 11
-102.462683880255
 21
-217.95108469696049
 31
0.0
  0
LINE
  5
1C078
  8
SU
  6
CONTINUOUS
 62
     3
 10
-107.943957413736
 20
-218.1510846969604
 30
0.0
 11
-102.5826838802549
 21
-218.1510846969604
 31
0.0
  0
LINE
  5
1C079
  8
SU
  6
CONTINUOUS
 62
     3
 10
-107.823957413736
 20
-218.3510846969605
 30
0.0
 11
-102.7026838802548
 21
-218.3510846969605
 31
0.0
  0
LINE
  5
1C07A
  8
SU
  6
CONTINUOUS
 62
     3
 10
-107.70395741373601
 20
-218.5510846969604
 30
0.0
 11
-102.8226838802549
 21
-218.5510846969604
 31
0.0
  0
LINE
  5
1C07B
  8
SU
  6
CONTINUOUS
 62
     3
 10
-107.583957413736
 20
-218.75108469696039
 30
0.0
 11
-102.9426838802549
 21
-218.75108469696039
 31
0.0
  0
LINE
  5
1C07C
  8
SU
  6
CONTINUOUS
 62
     3
 10
-107.4639574137359
 20
-218.95108469696041
 30
0.0
 11
-103.0626838802548
 21
-218.95108469696041
 31
0.0
  0
LINE
  5
1C07D
  8
SU
  6
CONTINUOUS
 62
     3
 10
-107.34395741373601
 20
-219.1510846969604
 30
0.0
 11
-103.1826838802549
 21
-219.1510846969604
 31
0.0
  0
LINE
  5
1C07E
  8
SU
  6
CONTINUOUS
 62
     3
 10
-107.223957413736
 20
-219.35108469696041
 30
0.0
 11
-103.3026838802548
 21
-219.35108469696041
 31
0.0
  0
LINE
  5
1C07F
  8
SU
  6
CONTINUOUS
 62
     3
 10
-107.1039574137359
 20
-219.5510846969602
 30
0.0
 11
-103.42268388025479
 21
-219.5510846969602
 31
0.0
  0
LINE
  5
1C080
  8
SU
  6
CONTINUOUS
 62
     3
 10
-106.98395741373569
 20
-219.75108469696039
 30
0.0
 11
-103.542683880255
 21
-219.75108469696039
 31
0.0
  0
LINE
  5
1C081
  8
SU
  6
CONTINUOUS
 62
     3
 10
-106.8639574137359
 20
-219.95108469696049
 30
0.0
 11
-103.6626838802549
 21
-219.95108469696049
 31
0.0
  0
LINE
  5
1C082
  8
SU
  6
CONTINUOUS
 62
     3
 10
-106.7439574137359
 20
-220.1510846969604
 30
0.0
 11
-103.78268388025511
 21
-220.1510846969604
 31
0.0
  0
LINE
  5
1C083
  8
SU
  6
CONTINUOUS
 62
     3
 10
-106.62395741373599
 20
-220.3510846969605
 30
0.0
 11
-103.902683880255
 21
-220.3510846969605
 31
0.0
  0
LINE
  5
1C084
  8
SU
  6
CONTINUOUS
 62
     3
 10
-106.5039574137359
 20
-220.5510846969604
 30
0.0
 11
-104.0226838802549
 21
-220.5510846969604
 31
0.0
  0
LINE
  5
1C085
  8
SU
  6
CONTINUOUS
 62
     3
 10
-106.383957413736
 20
-220.75108469696039
 30
0.0
 11
-104.14268388025511
 21
-220.75108469696039
 31
0.0
  0
LINE
  5
1C086
  8
SU
  6
CONTINUOUS
 62
     3
 10
-106.2639574137357
 20
-220.95108469696041
 30
0.0
 11
-104.2626838802549
 21
-220.95108469696041
 31
0.0
  0
LINE
  5
1C087
  8
SU
  6
CONTINUOUS
 62
     3
 10
-106.143957413736
 20
-221.1510846969604
 30
0.0
 11
-104.3826838802549
 21
-221.1510846969604
 31
0.0
  0
LINE
  5
1C088
  8
SU
  6
CONTINUOUS
 62
     3
 10
-106.023957413736
 20
-221.35108469696041
 30
0.0
 11
-104.50268388025511
 21
-221.35108469696041
 31
0.0
  0
LINE
  5
1C089
  8
SU
  6
CONTINUOUS
 62
     3
 10
-105.9039574137359
 20
-221.5510846969602
 30
0.0
 11
-104.6226838802551
 21
-221.5510846969602
 31
0.0
  0
LINE
  5
1C08A
  8
SU
  6
CONTINUOUS
 62
     3
 10
-105.783957413736
 20
-221.75108469696039
 30
0.0
 11
-104.7426838802548
 21
-221.75108469696039
 31
0.0
  0
LINE
  5
1C08B
  8
SU
  6
CONTINUOUS
 62
     3
 10
-105.6639574137359
 20
-221.95108469696041
 30
0.0
 11
-104.8626838802551
 21
-221.95108469696041
 31
0.0
  0
LINE
  5
1C08C
  8
SU
  6
CONTINUOUS
 62
     3
 10
-105.5439574137359
 20
-222.1510846969604
 30
0.0
 11
-104.982683880255
 21
-222.1510846969604
 31
0.0
  0
LINE
  5
1C08D
  8
SU
  6
CONTINUOUS
 62
     3
 10
-105.42395741373601
 20
-222.3510846969605
 30
0.0
 11
-105.102683880255
 21
-222.3510846969605
 31
0.0
  0
LINE
  5
1C08E
  8
SU
  6
CONTINUOUS
 62
     3
 10
-105.3039574137359
 20
-222.5510846969604
 30
0.0
 11
-105.22268388025491
 21
-222.5510846969604
 31
0.0
  0
TEXT
  5
1C08F
  8
SU
  6
CONTINUOUS
 62
     3
 10
-125.063320646892
 20
-66.872340449450022
 30
0.0
 40
4.0
  1
5
 50
90.0
 41
0.8299999999999999
  0
TEXT
  5
1C090
  8
SU
  6
CONTINUOUS
 62
     3
 10
-171.9309397037419
 20
-101.49139089638891
 30
0.0
 40
4.0
  1
1.5
 41
0.8299999999999999
  0
LINE
  5
1C091
  8
SU
  6
CONTINUOUS
 62
     3
 10
-179.2633207696262
 20
-102.7913908963889
 30
0.0
 11
-181.66332076962621
 21
-102.7913908963889
 31
0.0
  0
TEXT
  5
1C092
  8
SU
  6
CONTINUOUS
 62
     3
 10
-125.063320646888
 20
-78.690437101482061
 30
0.0
 40
4.0
  1
15
 50
90.0
 41
0.8299999999999999
  0
LINE
  5
1C093
  8
SU
  6
CONTINUOUS
 62
     3
 10
-114.68395741363371
 20
-72.923662951813952
 30
0.0
 11
-102.8426838801529
 21
-72.923662951813952
 31
0.0
  0
LINE
  5
1C094
  8
SU
  6
CONTINUOUS
 62
     3
 10
-114.5639574136337
 20
-73.123662951813941
 30
0.0
 11
-102.9626838801527
 21
-73.123662951813941
 31
0.0
  0
LINE
  5
1C095
  8
SU
  6
CONTINUOUS
 62
     3
 10
-114.4439574136338
 20
-73.32366295181393
 30
0.0
 11
-103.0826838801529
 21
-73.32366295181393
 31
0.0
  0
LINE
  5
1C096
  8
SU
  6
CONTINUOUS
 62
     3
 10
-114.32395741363371
 20
-73.523662951813932
 30
0.0
 11
-103.2026838801528
 21
-73.523662951813932
 31
0.0
  0
LINE
  5
1C097
  8
SU
  6
CONTINUOUS
 62
     3
 10
-114.2039574136335
 20
-73.723662951813935
 30
0.0
 11
-103.3226838801527
 21
-73.723662951813935
 31
0.0
  0
LINE
  5
1C098
  8
SU
  6
CONTINUOUS
 62
     3
 10
-114.0839574136337
 20
-73.923662951813952
 30
0.0
 11
-103.4426838801528
 21
-73.923662951813952
 31
0.0
  0
LINE
  5
1C099
  8
SU
  6
CONTINUOUS
 62
     3
 10
-113.96395741363339
 20
-74.123662951813941
 30
0.0
 11
-103.5626838801527
 21
-74.123662951813941
 31
0.0
  0
LINE
  5
1C09A
  8
SU
  6
CONTINUOUS
 62
     3
 10
-113.8439574136337
 20
-74.32366295181393
 30
0.0
 11
-103.68268388015279
 21
-74.32366295181393
 31
0.0
  0
LINE
  5
1C09B
  8
SU
  6
CONTINUOUS
 62
     3
 10
-113.7239574136337
 20
-74.523662951813932
 30
0.0
 11
-103.8026838801529
 21
-74.523662951813932
 31
0.0
  0
LINE
  5
1C09C
  8
SU
  6
CONTINUOUS
 62
     3
 10
-113.60395741363359
 20
-74.723662951813935
 30
0.0
 11
-103.9226838801529
 21
-74.723662951813935
 31
0.0
  0
LINE
  5
1C09D
  8
SU
  6
CONTINUOUS
 62
     3
 10
-113.4839574136337
 20
-74.923662951813952
 30
0.0
 11
-104.04268388015259
 21
-74.923662951813952
 31
0.0
  0
LINE
  5
1C09E
  8
SU
  6
CONTINUOUS
 62
     3
 10
-113.3639574136337
 20
-75.123662951813941
 30
0.0
 11
-104.1626838801529
 21
-75.123662951813941
 31
0.0
  0
LINE
  5
1C09F
  8
SU
  6
CONTINUOUS
 62
     3
 10
-113.24395741363359
 20
-75.32366295181393
 30
0.0
 11
-104.2826838801529
 21
-75.32366295181393
 31
0.0
  0
LINE
  5
1C0A0
  8
SU
  6
CONTINUOUS
 62
     3
 10
-113.1239574136337
 20
-75.523662951813932
 30
0.0
 11
-104.40268388015291
 21
-75.523662951813932
 31
0.0
  0
LINE
  5
1C0A1
  8
SU
  6
CONTINUOUS
 62
     3
 10
-113.0039574136337
 20
-75.723662951813935
 30
0.0
 11
-104.5226838801529
 21
-75.723662951813935
 31
0.0
  0
LINE
  5
1C0A2
  8
SU
  6
CONTINUOUS
 62
     3
 10
-112.88395741363369
 20
-75.923662951813952
 30
0.0
 11
-104.6426838801529
 21
-75.923662951813952
 31
0.0
  0
LINE
  5
1C0A3
  8
SU
  6
CONTINUOUS
 62
     3
 10
-112.76395741363351
 20
-76.123662951813941
 30
0.0
 11
-104.76268388015291
 21
-76.123662951813941
 31
0.0
  0
LINE
  5
1C0A4
  8
SU
  6
CONTINUOUS
 62
     3
 10
-112.6439574136337
 20
-76.32366295181393
 30
0.0
 11
-104.8826838801529
 21
-76.32366295181393
 31
0.0
  0
LINE
  5
1C0A5
  8
SU
  6
CONTINUOUS
 62
     3
 10
-112.5239574136337
 20
-76.523662951813932
 30
0.0
 11
-105.0026838801528
 21
-76.523662951813932
 31
0.0
  0
LINE
  5
1C0A6
  8
SU
  6
CONTINUOUS
 62
     3
 10
-112.40395741363371
 20
-76.723662951813935
 30
0.0
 11
-105.12268388015281
 21
-76.723662951813935
 31
0.0
  0
LINE
  5
1C0A7
  8
SU
  6
CONTINUOUS
 62
     3
 10
-112.2839574136337
 20
-76.923662951813952
 30
0.0
 11
-105.2426838801525
 21
-76.923662951813952
 31
0.0
  0
LINE
  5
1C0A8
  8
SU
  6
CONTINUOUS
 62
     3
 10
-112.1639574136337
 20
-77.123662951813941
 30
0.0
 11
-105.3626838801529
 21
-77.123662951813941
 31
0.0
  0
LINE
  5
1C0A9
  8
SU
  6
CONTINUOUS
 62
     3
 10
-112.04395741363371
 20
-77.323662951813901
 30
0.0
 11
-105.4826838801529
 21
-77.323662951813901
 31
0.0
  0
LINE
  5
1C0AA
  8
SU
  6
CONTINUOUS
 62
     3
 10
-111.9239574136337
 20
-77.523662951813932
 30
0.0
 11
-105.6026838801529
 21
-77.523662951813932
 31
0.0
  0
LINE
  5
1C0AB
  8
SU
  6
CONTINUOUS
 62
     3
 10
-111.8039574136337
 20
-77.723662951813935
 30
0.0
 11
-105.7226838801529
 21
-77.723662951813935
 31
0.0
  0
LINE
  5
1C0AC
  8
SU
  6
CONTINUOUS
 62
     3
 10
-111.68395741363371
 20
-77.923662951813952
 30
0.0
 11
-105.8426838801529
 21
-77.923662951813952
 31
0.0
  0
LINE
  5
1C0AD
  8
SU
  6
CONTINUOUS
 62
     3
 10
-111.5639574136337
 20
-78.123662951813941
 30
0.0
 11
-105.9626838801527
 21
-78.123662951813941
 31
0.0
  0
LINE
  5
1C0AE
  8
SU
  6
CONTINUOUS
 62
     3
 10
-111.4439574136337
 20
-78.32366295181393
 30
0.0
 11
-106.0826838801529
 21
-78.32366295181393
 31
0.0
  0
LINE
  5
1C0AF
  8
SU
  6
CONTINUOUS
 62
     3
 10
-111.32395741363371
 20
-78.523662951813932
 30
0.0
 11
-106.2026838801528
 21
-78.523662951813932
 31
0.0
  0
LINE
  5
1C0B0
  8
SU
  6
CONTINUOUS
 62
     3
 10
-111.2039574136337
 20
-78.723662951813935
 30
0.0
 11
-106.32268388015279
 21
-78.723662951813935
 31
0.0
  0
LINE
  5
1C0B1
  8
SU
  6
CONTINUOUS
 62
     3
 10
-111.0839574136337
 20
-78.923662951813952
 30
0.0
 11
-106.4426838801528
 21
-78.923662951813952
 31
0.0
  0
LINE
  5
1C0B2
  8
SU
  6
CONTINUOUS
 62
     3
 10
-110.96395741363359
 20
-79.123662951813941
 30
0.0
 11
-106.5626838801527
 21
-79.123662951813941
 31
0.0
  0
LINE
  5
1C0B3
  8
SU
  6
CONTINUOUS
 62
     3
 10
-110.8439574136337
 20
-79.32366295181393
 30
0.0
 11
-106.68268388015279
 21
-79.32366295181393
 31
0.0
  0
LINE
  5
1C0B4
  8
SU
  6
CONTINUOUS
 62
     3
 10
-110.7239574136337
 20
-79.523662951813932
 30
0.0
 11
-106.8026838801529
 21
-79.523662951813932
 31
0.0
  0
LINE
  5
1C0B5
  8
SU
  6
CONTINUOUS
 62
     3
 10
-110.60395741363359
 20
-79.723662951813935
 30
0.0
 11
-106.9226838801529
 21
-79.723662951813935
 31
0.0
  0
LINE
  5
1C0B6
  8
SU
  6
CONTINUOUS
 62
     3
 10
-110.4839574136337
 20
-79.923662951813952
 30
0.0
 11
-107.04268388015259
 21
-79.923662951813952
 31
0.0
  0
LINE
  5
1C0B7
  8
SU
  6
CONTINUOUS
 62
     3
 10
-110.3639574136337
 20
-80.123662951813941
 30
0.0
 11
-107.1626838801529
 21
-80.123662951813941
 31
0.0
  0
LINE
  5
1C0B8
  8
SU
  6
CONTINUOUS
 62
     3
 10
-110.2439574136335
 20
-80.32366295181393
 30
0.0
 11
-107.2826838801529
 21
-80.32366295181393
 31
0.0
  0
LINE
  5
1C0B9
  8
SU
  6
CONTINUOUS
 62
     3
 10
-110.12395741363351
 20
-80.523662951813932
 30
0.0
 11
-107.40268388015291
 21
-80.523662951813932
 31
0.0
  0
LINE
  5
1C0BA
  8
SU
  6
CONTINUOUS
 62
     3
 10
-110.0039574136337
 20
-80.723662951813935
 30
0.0
 11
-107.5226838801529
 21
-80.723662951813935
 31
0.0
  0
LINE
  5
1C0BB
  8
SU
  6
CONTINUOUS
 62
     3
 10
-109.88395741363369
 20
-80.923662951813952
 30
0.0
 11
-107.6426838801529
 21
-80.923662951813952
 31
0.0
  0
LINE
  5
1C0BC
  8
SU
  6
CONTINUOUS
 62
     3
 10
-109.7639574136337
 20
-81.123662951813913
 30
0.0
 11
-107.76268388015291
 21
-81.123662951813913
 31
0.0
  0
LINE
  5
1C0BD
  8
SU
  6
CONTINUOUS
 62
     3
 10
-109.6439574136337
 20
-81.32366295181393
 30
0.0
 11
-107.8826838801529
 21
-81.32366295181393
 31
0.0
  0
LINE
  5
1C0BE
  8
SU
  6
CONTINUOUS
 62
     3
 10
-109.5239574136337
 20
-81.523662951813918
 30
0.0
 11
-108.0026838801529
 21
-81.523662951813918
 31
0.0
  0
LINE
  5
1C0BF
  8
SU
  6
CONTINUOUS
 62
     3
 10
-109.40395741363371
 20
-81.723662951813935
 30
0.0
 11
-108.12268388015281
 21
-81.723662951813935
 31
0.0
  0
LINE
  5
1C0C0
  8
SU
  6
CONTINUOUS
 62
     3
 10
-109.2839574136337
 20
-81.923662951813952
 30
0.0
 11
-108.2426838801529
 21
-81.923662951813952
 31
0.0
  0
LINE
  5
1C0C1
  8
SU
  6
CONTINUOUS
 62
     3
 10
-109.1639574136337
 20
-82.123662951813955
 30
0.0
 11
-108.3626838801529
 21
-82.123662951813955
 31
0.0
  0
LINE
  5
1C0C2
  8
SU
  6
CONTINUOUS
 62
     3
 10
-109.04395741363371
 20
-82.323662951813915
 30
0.0
 11
-108.48268388015271
 21
-82.323662951813915
 31
0.0
  0
LINE
  5
1C0C3
  8
SU
  6
CONTINUOUS
 62
     3
 10
-108.9239574136337
 20
-82.523662951813947
 30
0.0
 11
-108.6026838801529
 21
-82.523662951813947
 31
0.0
  0
LINE
  5
1C0C4
  8
SU
  6
CONTINUOUS
 62
     3
 10
-108.8039574136337
 20
-82.723662951813935
 30
0.0
 11
-108.7226838801529
 21
-82.723662951813935
 31
0.0
  0
TEXT
  5
1C0C5
  8
SU
  6
CONTINUOUS
 62
     3
 10
-252.743320647046
 20
68.504765774031966
 30
0.0
 40
4.0
  1
140
 41
0.8299999999999999
  0
TEXT
  5
1C0C6
  8
SU
  6
CONTINUOUS
 62
     3
 10
-251.5042719133788
 20
83.504765774032734
 30
0.0
 40
4.0
  1
24
 41
0.8299999999999999
  0
TEXT
  5
1C0C7
  8
SU
  6
CONTINUOUS
 62
     3
 10
-360.06332064699558
 20
107.7919876089377
 30
0.0
 40
4.0
  1
（20）
 50
90.0
 41
0.8299999999999999
  0
TEXT
  5
1C0C8
  8
SU
  6
CONTINUOUS
 62
     3
 10
-294.54665280444459
 20
83.504765774032521
 30
0.0
 40
4.0
  1
57.5
 41
0.8299999999999999
  0
TEXT
  5
1C0C9
  8
SU
  6
CONTINUOUS
 62
     3
 10
-136.56332064699549
 20
131.59965214499641
 30
0.0
 40
4.0
  1
3
 50
90.0
 41
0.8299999999999999
  0
TEXT
  5
1C0CA
  8
SU
  6
CONTINUOUS
 62
     3
 10
-174.53760636138239
 20
83.504765774032492
 30
0.0
 40
4.0
  1
7.5
 41
0.8299999999999999
  0
TEXT
  5
1C0CB
  8
SU
  6
CONTINUOUS
 62
     3
 10
-125.063320646892
 20
132.46381339307851
 30
0.0
 40
4.0
  1
24
 50
90.0
 41
0.8299999999999999
  0
TEXT
  5
1C0CC
  8
SU
  6
CONTINUOUS
 62
     3
 10
-208.4252246770225
 20
83.504765774032492
 30
0.0
 40
4.0
  1
40
 41
0.8299999999999999
  0
TEXT
  5
1C0CD
  8
SU
  6
CONTINUOUS
 62
     3
 10
-233.68808267426181
 20
83.504765774032663
 30
0.0
 40
4.0
  1
11
 41
0.8299999999999999
  0
LINE
  5
1C0CE
  8
SU
  6
CONTINUOUS
 62
     3
 10
-108.8039574136337
 20
147.63703782946371
 30
0.0
 11
-108.7226838801529
 21
147.63703782946371
 31
0.0
  0
LINE
  5
1C0CF
  8
SU
  6
CONTINUOUS
 62
     3
 10
-108.9239574136334
 20
147.43703782946361
 30
0.0
 11
-108.6026838801529
 21
147.43703782946361
 31
0.0
  0
LINE
  5
1C0D0
  8
SU
  6
CONTINUOUS
 62
     3
 10
-109.04395741363371
 20
147.2370378294637
 30
0.0
 11
-108.4826838801529
 21
147.2370378294637
 31
0.0
  0
LINE
  5
1C0D1
  8
SU
  6
CONTINUOUS
 62
     3
 10
-109.1639574136337
 20
147.03703782946371
 30
0.0
 11
-108.3626838801529
 21
147.03703782946371
 31
0.0
  0
LINE
  5
1C0D2
  8
SU
  6
CONTINUOUS
 62
     3
 10
-109.2839574136337
 20
146.83703782946341
 30
0.0
 11
-108.2426838801529
 21
146.83703782946341
 31
0.0
  0
LINE
  5
1C0D3
  8
SU
  6
CONTINUOUS
 62
     3
 10
-109.40395741363371
 20
146.63703782946371
 30
0.0
 11
-108.12268388015291
 21
146.63703782946371
 31
0.0
  0
LINE
  5
1C0D4
  8
SU
  6
CONTINUOUS
 62
     3
 10
-109.5239574136337
 20
146.43703782946361
 30
0.0
 11
-108.0026838801529
 21
146.43703782946361
 31
0.0
  0
LINE
  5
1C0D5
  8
SU
  6
CONTINUOUS
 62
     3
 10
-109.6439574136337
 20
146.2370378294637
 30
0.0
 11
-107.8826838801529
 21
146.2370378294637
 31
0.0
  0
LINE
  5
1C0D6
  8
SU
  6
CONTINUOUS
 62
     3
 10
-109.7639574136337
 20
146.03703782946371
 30
0.0
 11
-107.76268388015291
 21
146.03703782946371
 31
0.0
  0
LINE
  5
1C0D7
  8
SU
  6
CONTINUOUS
 62
     3
 10
-109.88395741363369
 20
145.83703782946341
 30
0.0
 11
-107.6426838801529
 21
145.83703782946341
 31
0.0
  0
LINE
  5
1C0D8
  8
SU
  6
CONTINUOUS
 62
     3
 10
-110.0039574136337
 20
145.63703782946371
 30
0.0
 11
-107.5226838801529
 21
145.63703782946371
 31
0.0
  0
LINE
  5
1C0D9
  8
SU
  6
CONTINUOUS
 62
     3
 10
-110.12395741363351
 20
145.43703782946361
 30
0.0
 11
-107.40268388015291
 21
145.43703782946361
 31
0.0
  0
LINE
  5
1C0DA
  8
SU
  6
CONTINUOUS
 62
     3
 10
-110.2439574136335
 20
145.2370378294637
 30
0.0
 11
-107.2826838801529
 21
145.2370378294637
 31
0.0
  0
LINE
  5
1C0DB
  8
SU
  6
CONTINUOUS
 62
     3
 10
-110.3639574136337
 20
145.03703782946371
 30
0.0
 11
-107.1626838801529
 21
145.03703782946371
 31
0.0
  0
LINE
  5
1C0DC
  8
SU
  6
CONTINUOUS
 62
     3
 10
-110.4839574136337
 20
144.8370378294635
 30
0.0
 11
-107.04268388015259
 21
144.8370378294635
 31
0.0
  0
LINE
  5
1C0DD
  8
SU
  6
CONTINUOUS
 62
     3
 10
-110.60395741363359
 20
144.63703782946371
 30
0.0
 11
-106.9226838801529
 21
144.63703782946371
 31
0.0
  0
LINE
  5
1C0DE
  8
SU
  6
CONTINUOUS
 62
     3
 10
-110.7239574136337
 20
144.43703782946341
 30
0.0
 11
-106.8026838801529
 21
144.43703782946341
 31
0.0
  0
LINE
  5
1C0DF
  8
SU
  6
CONTINUOUS
 62
     3
 10
-110.8439574136337
 20
144.2370378294637
 30
0.0
 11
-106.68268388015279
 21
144.2370378294637
 31
0.0
  0
LINE
  5
1C0E0
  8
SU
  6
CONTINUOUS
 62
     3
 10
-110.96395741363359
 20
144.03703782946371
 30
0.0
 11
-106.5626838801529
 21
144.03703782946371
 31
0.0
  0
LINE
  5
1C0E1
  8
SU
  6
CONTINUOUS
 62
     3
 10
-111.0839574136337
 20
143.8370378294637
 30
0.0
 11
-106.4426838801529
 21
143.8370378294637
 31
0.0
  0
LINE
  5
1C0E2
  8
SU
  6
CONTINUOUS
 62
     3
 10
-111.2039574136337
 20
143.63703782946371
 30
0.0
 11
-106.32268388015279
 21
143.63703782946371
 31
0.0
  0
LINE
  5
1C0E3
  8
SU
  6
CONTINUOUS
 62
     3
 10
-111.32395741363371
 20
143.43703782946341
 30
0.0
 11
-106.2026838801529
 21
143.43703782946341
 31
0.0
  0
LINE
  5
1C0E4
  8
SU
  6
CONTINUOUS
 62
     3
 10
-111.4439574136337
 20
143.2370378294637
 30
0.0
 11
-106.0826838801529
 21
143.2370378294637
 31
0.0
  0
LINE
  5
1C0E5
  8
SU
  6
CONTINUOUS
 62
     3
 10
-111.5639574136337
 20
143.03703782946371
 30
0.0
 11
-105.9626838801527
 21
143.03703782946371
 31
0.0
  0
LINE
  5
1C0E6
  8
SU
  6
CONTINUOUS
 62
     3
 10
-111.68395741363371
 20
142.8370378294637
 30
0.0
 11
-105.8426838801529
 21
142.8370378294637
 31
0.0
  0
LINE
  5
1C0E7
  8
SU
  6
CONTINUOUS
 62
     3
 10
-111.8039574136337
 20
142.63703782946371
 30
0.0
 11
-105.7226838801529
 21
142.63703782946371
 31
0.0
  0
LINE
  5
1C0E8
  8
SU
  6
CONTINUOUS
 62
     3
 10
-111.9239574136337
 20
142.43703782946361
 30
0.0
 11
-105.6026838801529
 21
142.43703782946361
 31
0.0
  0
LINE
  5
1C0E9
  8
SU
  6
CONTINUOUS
 62
     3
 10
-112.04395741363371
 20
142.2370378294637
 30
0.0
 11
-105.4826838801529
 21
142.2370378294637
 31
0.0
  0
LINE
  5
1C0EA
  8
SU
  6
CONTINUOUS
 62
     3
 10
-112.1639574136337
 20
142.03703782946371
 30
0.0
 11
-105.3626838801529
 21
142.03703782946371
 31
0.0
  0
LINE
  5
1C0EB
  8
SU
  6
CONTINUOUS
 62
     3
 10
-112.2839574136337
 20
141.8370378294637
 30
0.0
 11
-105.2426838801529
 21
141.8370378294637
 31
0.0
  0
LINE
  5
1C0EC
  8
SU
  6
CONTINUOUS
 62
     3
 10
-112.40395741363371
 20
141.63703782946371
 30
0.0
 11
-105.12268388015291
 21
141.63703782946371
 31
0.0
  0
LINE
  5
1C0ED
  8
SU
  6
CONTINUOUS
 62
     3
 10
-112.5239574136337
 20
141.43703782946361
 30
0.0
 11
-105.0026838801529
 21
141.43703782946361
 31
0.0
  0
LINE
  5
1C0EE
  8
SU
  6
CONTINUOUS
 62
     3
 10
-112.6439574136337
 20
141.2370378294637
 30
0.0
 11
-104.8826838801529
 21
141.2370378294637
 31
0.0
  0
LINE
  5
1C0EF
  8
SU
  6
CONTINUOUS
 62
     3
 10
-112.76395741363351
 20
141.03703782946371
 30
0.0
 11
-104.76268388015291
 21
141.03703782946371
 31
0.0
  0
LINE
  5
1C0F0
  8
SU
  6
CONTINUOUS
 62
     3
 10
-112.88395741363369
 20
140.8370378294637
 30
0.0
 11
-104.6426838801529
 21
140.8370378294637
 31
0.0
  0
LINE
  5
1C0F1
  8
SU
  6
CONTINUOUS
 62
     3
 10
-113.0039574136337
 20
140.63703782946371
 30
0.0
 11
-104.5226838801529
 21
140.63703782946371
 31
0.0
  0
LINE
  5
1C0F2
  8
SU
  6
CONTINUOUS
 62
     3
 10
-113.1239574136337
 20
140.43703782946361
 30
0.0
 11
-104.40268388015291
 21
140.43703782946361
 31
0.0
  0
LINE
  5
1C0F3
  8
SU
  6
CONTINUOUS
 62
     3
 10
-113.24395741363359
 20
140.2370378294637
 30
0.0
 11
-104.2826838801529
 21
140.2370378294637
 31
0.0
  0
LINE
  5
1C0F4
  8
SU
  6
CONTINUOUS
 62
     3
 10
-113.3639574136337
 20
140.03703782946371
 30
0.0
 11
-104.1626838801529
 21
140.03703782946371
 31
0.0
  0
LINE
  5
1C0F5
  8
SU
  6
CONTINUOUS
 62
     3
 10
-113.4839574136337
 20
139.8370378294637
 30
0.0
 11
-104.04268388015259
 21
139.8370378294637
 31
0.0
  0
LINE
  5
1C0F6
  8
SU
  6
CONTINUOUS
 62
     3
 10
-113.60395741363359
 20
139.63703782946371
 30
0.0
 11
-103.9226838801529
 21
139.63703782946371
 31
0.0
  0
LINE
  5
1C0F7
  8
SU
  6
CONTINUOUS
 62
     3
 10
-113.7239574136337
 20
139.43703782946361
 30
0.0
 11
-103.8026838801529
 21
139.43703782946361
 31
0.0
  0
LINE
  5
1C0F8
  8
SU
  6
CONTINUOUS
 62
     3
 10
-113.8439574136337
 20
139.2370378294637
 30
0.0
 11
-103.68268388015279
 21
139.2370378294637
 31
0.0
  0
LINE
  5
1C0F9
  8
SU
  6
CONTINUOUS
 62
     3
 10
-113.96395741363339
 20
139.03703782946371
 30
0.0
 11
-103.5626838801529
 21
139.03703782946371
 31
0.0
  0
LINE
  5
1C0FA
  8
SU
  6
CONTINUOUS
 62
     3
 10
-114.0839574136337
 20
138.8370378294637
 30
0.0
 11
-103.4426838801529
 21
138.8370378294637
 31
0.0
  0
LINE
  5
1C0FB
  8
SU
  6
CONTINUOUS
 62
     3
 10
-114.2039574136335
 20
138.63703782946371
 30
0.0
 11
-103.3226838801527
 21
138.63703782946371
 31
0.0
  0
LINE
  5
1C0FC
  8
SU
  6
CONTINUOUS
 62
     3
 10
-114.32395741363371
 20
138.43703782946361
 30
0.0
 11
-103.2026838801529
 21
138.43703782946361
 31
0.0
  0
LINE
  5
1C0FD
  8
SU
  6
CONTINUOUS
 62
     3
 10
-114.4439574136337
 20
138.2370378294637
 30
0.0
 11
-103.0826838801529
 21
138.2370378294637
 31
0.0
  0
LINE
  5
1C0FE
  8
SU
  6
CONTINUOUS
 62
     3
 10
-114.5639574136337
 20
138.03703782946371
 30
0.0
 11
-102.9626838801527
 21
138.03703782946371
 31
0.0
  0
LINE
  5
1C0FF
  8
SU
  6
CONTINUOUS
 62
     3
 10
-114.68395741363371
 20
137.8370378294637
 30
0.0
 11
-102.8426838801529
 21
137.8370378294637
 31
0.0
  0
TEXT
  5
1C100
  8
SU
  6
CONTINUOUS
 62
     3
 10
89.716222351175276
 20
-36.77686802772935
 30
0.0
 40
4.0
  1
140
 50
90.0
 41
0.8299999999999999
  0
TEXT
  5
1C101
  8
SU
  6
CONTINUOUS
 62
     3
 10
41.103457990088813
 20
80.503131972269884
 30
0.0
 40
4.0
  1
（20）
 41
0.8299999999999999
  0
TEXT
  5
1C102
  8
SU
  6
CONTINUOUS
 62
     3
 10
223.10345798229281
 20
80.503131972269884
 30
0.0
 40
4.0
  1
（20）
 41
0.8299999999999999
  0
TEXT
  5
1C103
  8
SU
  6
CONTINUOUS
 62
     3
 10
75.716219902646259
 20
-2.1825054839084981
 30
0.0
 40
4.0
  1
57.5
 50
90.0
 41
0.8299999999999999
  0
TEXT
  5
1C104
  8
SU
  6
CONTINUOUS
 62
     3
 10
116.49945798229319
 20
-158.99686802771379
 30
0.0
 40
4.0
  1
ドアW（DW）＝W-56
 41
0.8299999999999999
  0
TEXT
  5
1C105
  8
SU
  6
CONTINUOUS
 62
     3
 10
228.1705055857538
 20
-143.99686802771379
 30
0.0
 40
4.0
  1
4
 41
0.8299999999999999
  0
TEXT
  5
1C106
  8
SU
  6
CONTINUOUS
 62
     3
 10
136.11907702991201
 20
-173.99686802771379
 30
0.0
 40
4.0
  1
W
 41
0.8299999999999999
  0
TEXT
  5
1C107
  8
SU
  6
CONTINUOUS
 62
     3
 10
21.77526751389599
 20
-158.99686802771379
 30
0.0
 40
4.0
  1
24
 41
0.8299999999999999
  0
TEXT
  5
1C108
  8
SU
  6
CONTINUOUS
 62
     3
 10
44.541934188356088
 20
-143.99686802771379
 30
0.0
 40
4.0
  1
4
 41
0.8299999999999999
  0
TEXT
  5
1C109
  8
SU
  6
CONTINUOUS
 62
     3
 10
75.716219887055175
 20
-112.9273442182046
 30
0.0
 40
4.0
  1
7.5
 50
90.0
 41
0.8299999999999999
  0
LINE
  5
1C10A
  8
SU
  6
CONTINUOUS
 62
     3
 10
13.083947831622281
 20
-175.33750479445411
 30
0.0
 11
13.083947831622281
 21
-175.25623126097341
 31
0.0
  0
LINE
  5
1C10B
  8
SU
  6
CONTINUOUS
 62
     3
 10
13.28394783162226
 20
-175.45750479445411
 30
0.0
 11
13.28394783162226
 21
-175.1362312609732
 31
0.0
  0
LINE
  5
1C10C
  8
SU
  6
CONTINUOUS
 62
     3
 10
13.483947831622279
 20
-175.5775047944538
 30
0.0
 11
13.483947831622279
 21
-175.0162312609734
 31
0.0
  0
LINE
  5
1C10D
  8
SU
  6
CONTINUOUS
 62
     3
 10
13.683947831622261
 20
-175.6975047944542
 30
0.0
 11
13.683947831622261
 21
-174.89623126097339
 31
0.0
  0
LINE
  5
1C10E
  8
SU
  6
CONTINUOUS
 62
     3
 10
13.883947831622271
 20
-175.81750479445401
 30
0.0
 11
13.883947831622271
 21
-174.7762312609733
 31
0.0
  0
LINE
  5
1C10F
  8
SU
  6
CONTINUOUS
 62
     3
 10
14.083947831622259
 20
-175.93750479445399
 30
0.0
 11
14.083947831622259
 21
-174.6562312609733
 31
0.0
  0
LINE
  5
1C110
  8
SU
  6
CONTINUOUS
 62
     3
 10
14.28394783162226
 20
-176.05750479445391
 30
0.0
 11
14.28394783162226
 21
-174.53623126097341
 31
0.0
  0
LINE
  5
1C111
  8
SU
  6
CONTINUOUS
 62
     3
 10
14.48394783162227
 20
-176.17750479445411
 30
0.0
 11
14.48394783162227
 21
-174.4162312609734
 31
0.0
  0
LINE
  5
1C112
  8
SU
  6
CONTINUOUS
 62
     3
 10
14.68394783162227
 20
-176.2975047944542
 30
0.0
 11
14.68394783162227
 21
-174.2962312609732
 31
0.0
  0
LINE
  5
1C113
  8
SU
  6
CONTINUOUS
 62
     3
 10
14.883947831622271
 20
-176.4175047944542
 30
0.0
 11
14.883947831622271
 21
-174.17623126097331
 31
0.0
  0
LINE
  5
1C114
  8
SU
  6
CONTINUOUS
 62
     3
 10
15.08394783162227
 20
-176.53750479445401
 30
0.0
 11
15.08394783162227
 21
-174.05623126097339
 31
0.0
  0
LINE
  5
1C115
  8
SU
  6
CONTINUOUS
 62
     3
 10
15.28394783162226
 20
-176.65750479445401
 30
0.0
 11
15.28394783162226
 21
-173.9362312609733
 31
0.0
  0
LINE
  5
1C116
  8
SU
  6
CONTINUOUS
 62
     3
 10
15.483947831622279
 20
-176.77750479445399
 30
0.0
 11
15.483947831622279
 21
-173.81623126097341
 31
0.0
  0
LINE
  5
1C117
  8
SU
  6
CONTINUOUS
 62
     3
 10
15.68394783162228
 20
-176.89750479445411
 30
0.0
 11
15.68394783162228
 21
-173.69623126097301
 31
0.0
  0
LINE
  5
1C118
  8
SU
  6
CONTINUOUS
 62
     3
 10
15.883947831622271
 20
-177.01750479445411
 30
0.0
 11
15.883947831622271
 21
-173.5762312609734
 31
0.0
  0
LINE
  5
1C119
  8
SU
  6
CONTINUOUS
 62
     3
 10
16.083947831622279
 20
-177.1375047944542
 30
0.0
 11
16.083947831622279
 21
-173.4562312609734
 31
0.0
  0
LINE
  5
1C11A
  8
SU
  6
CONTINUOUS
 62
     3
 10
16.283947831622271
 20
-177.25750479445421
 30
0.0
 11
16.283947831622271
 21
-173.33623126097331
 31
0.0
  0
LINE
  5
1C11B
  8
SU
  6
CONTINUOUS
 62
     3
 10
16.483947831622292
 20
-177.37750479445401
 30
0.0
 11
16.483947831622292
 21
-173.2162312609733
 31
0.0
  0
LINE
  5
1C11C
  8
SU
  6
CONTINUOUS
 62
     3
 10
16.68394783162228
 20
-177.49750479445399
 30
0.0
 11
16.68394783162228
 21
-173.0962312609733
 31
0.0
  0
LINE
  5
1C11D
  8
SU
  6
CONTINUOUS
 62
     3
 10
16.883947831622262
 20
-177.61750479445411
 30
0.0
 11
16.883947831622262
 21
-172.97623126097341
 31
0.0
  0
LINE
  5
1C11E
  8
SU
  6
CONTINUOUS
 62
     3
 10
17.083947831622289
 20
-177.73750479445411
 30
0.0
 11
17.083947831622289
 21
-172.8562312609732
 31
0.0
  0
LINE
  5
1C11F
  8
SU
  6
CONTINUOUS
 62
     3
 10
17.283947831622271
 20
-177.8575047944542
 30
0.0
 11
17.283947831622271
 21
-172.73623126097331
 31
0.0
  0
LINE
  5
1C120
  8
SU
  6
CONTINUOUS
 62
     3
 10
17.483947831622292
 20
-177.97750479445389
 30
0.0
 11
17.483947831622292
 21
-172.61623126097339
 31
0.0
  0
LINE
  5
1C121
  8
SU
  6
CONTINUOUS
 62
     3
 10
17.68394783162228
 20
-178.09750479445401
 30
0.0
 11
17.68394783162228
 21
-172.49623126097339
 31
0.0
  0
LINE
  5
1C122
  8
SU
  6
CONTINUOUS
 62
     3
 10
17.883947831622262
 20
-178.21750479445419
 30
0.0
 11
17.883947831622262
 21
-172.3762312609733
 31
0.0
  0
LINE
  5
1C123
  8
SU
  6
CONTINUOUS
 62
     3
 10
18.083947831622289
 20
-178.33750479445419
 30
0.0
 11
18.083947831622289
 21
-172.25623126097341
 31
0.0
  0
LINE
  5
1C124
  8
SU
  6
CONTINUOUS
 62
     3
 10
18.283947831622271
 20
-178.45750479445411
 30
0.0
 11
18.283947831622271
 21
-172.1362312609734
 31
0.0
  0
LINE
  5
1C125
  8
SU
  6
CONTINUOUS
 62
     3
 10
18.483947831622281
 20
-178.577504794454
 30
0.0
 11
18.483947831622281
 21
-172.0162312609734
 31
0.0
  0
LINE
  5
1C126
  8
SU
  6
CONTINUOUS
 62
     3
 10
18.68394783162228
 20
-178.6975047944542
 30
0.0
 11
18.68394783162228
 21
-171.89623126097331
 31
0.0
  0
LINE
  5
1C127
  8
SU
  6
CONTINUOUS
 62
     3
 10
18.883947831622262
 20
-178.81750479445401
 30
0.0
 11
18.883947831622262
 21
-171.77623126097339
 31
0.0
  0
LINE
  5
1C128
  8
SU
  6
CONTINUOUS
 62
     3
 10
19.083947831622279
 20
-178.93750479445399
 30
0.0
 11
19.083947831622279
 21
-171.65623126097341
 31
0.0
  0
LINE
  5
1C129
  8
SU
  6
CONTINUOUS
 62
     3
 10
19.283947831622271
 20
-179.05750479445391
 30
0.0
 11
19.283947831622271
 21
-171.53623126097341
 31
0.0
  0
LINE
  5
1C12A
  8
SU
  6
CONTINUOUS
 62
     3
 10
19.483947831622281
 20
-179.17750479445419
 30
0.0
 11
19.483947831622281
 21
-171.4162312609734
 31
0.0
  0
LINE
  5
1C12B
  8
SU
  6
CONTINUOUS
 62
     3
 10
19.68394783162228
 20
-179.2975047944542
 30
0.0
 11
19.68394783162228
 21
-171.2962312609734
 31
0.0
  0
LINE
  5
1C12C
  8
SU
  6
CONTINUOUS
 62
     3
 10
19.883947831622262
 20
-179.41750479445389
 30
0.0
 11
19.883947831622262
 21
-171.1762312609734
 31
0.0
  0
LINE
  5
1C12D
  8
SU
  6
CONTINUOUS
 62
     3
 10
20.083947831622279
 20
-179.53750479445401
 30
0.0
 11
20.083947831622279
 21
-171.05623126097339
 31
0.0
  0
LINE
  5
1C12E
  8
SU
  6
CONTINUOUS
 62
     3
 10
20.283947831622271
 20
-179.65750479445401
 30
0.0
 11
20.283947831622271
 21
-170.93623126097339
 31
0.0
  0
LINE
  5
1C12F
  8
SU
  6
CONTINUOUS
 62
     3
 10
20.483947831622281
 20
-179.77750479445419
 30
0.0
 11
20.483947831622281
 21
-170.81623126097341
 31
0.0
  0
LINE
  5
1C130
  8
SU
  6
CONTINUOUS
 62
     3
 10
20.68394783162228
 20
-179.89750479445411
 30
0.0
 11
20.68394783162228
 21
-170.69623126097341
 31
0.0
  0
LINE
  5
1C131
  8
SU
  6
CONTINUOUS
 62
     3
 10
20.883947831622262
 20
-180.01750479445411
 30
0.0
 11
20.883947831622262
 21
-170.5762312609734
 31
0.0
  0
LINE
  5
1C132
  8
SU
  6
CONTINUOUS
 62
     3
 10
21.083947831622279
 20
-180.1375047944542
 30
0.0
 11
21.083947831622279
 21
-170.4562312609734
 31
0.0
  0
LINE
  5
1C133
  8
SU
  6
CONTINUOUS
 62
     3
 10
21.283947831622282
 20
-180.25750479445421
 30
0.0
 11
21.283947831622282
 21
-170.33623126097339
 31
0.0
  0
LINE
  5
1C134
  8
SU
  6
CONTINUOUS
 62
     3
 10
21.483947831622292
 20
-180.37750479445401
 30
0.0
 11
21.483947831622292
 21
-170.21623126097339
 31
0.0
  0
LINE
  5
1C135
  8
SU
  6
CONTINUOUS
 62
     3
 10
21.68394783162228
 20
-180.49750479445399
 30
0.0
 11
21.68394783162228
 21
-170.09623126097341
 31
0.0
  0
LINE
  5
1C136
  8
SU
  6
CONTINUOUS
 62
     3
 10
21.883947831622262
 20
-180.61750479445399
 30
0.0
 11
21.883947831622262
 21
-169.97623126097341
 31
0.0
  0
LINE
  5
1C137
  8
SU
  6
CONTINUOUS
 62
     3
 10
22.083947831622289
 20
-180.73750479445411
 30
0.0
 11
22.083947831622289
 21
-169.8562312609734
 31
0.0
  0
LINE
  5
1C138
  8
SU
  6
CONTINUOUS
 62
     3
 10
22.283947831622271
 20
-180.857504794454
 30
0.0
 11
22.283947831622271
 21
-169.7362312609734
 31
0.0
  0
LINE
  5
1C139
  8
SU
  6
CONTINUOUS
 62
     3
 10
22.483947831622292
 20
-180.97750479445401
 30
0.0
 11
22.483947831622292
 21
-169.61623126097339
 31
0.0
  0
LINE
  5
1C13A
  8
SU
  6
CONTINUOUS
 62
     3
 10
22.68394783162228
 20
-181.09750479445401
 30
0.0
 11
22.68394783162228
 21
-169.49623126097339
 31
0.0
  0
LINE
  5
1C13B
  8
SU
  6
CONTINUOUS
 62
     3
 10
22.883947831622269
 20
-181.21750479445399
 30
0.0
 11
22.883947831622269
 21
-169.37623126097341
 31
0.0
  0
TEXT
  5
1C13C
  8
SU
  6
CONTINUOUS
 62
     3
 10
75.716219887055175
 20
-77.458771933394203
 30
0.0
 40
4.0
  1
40
 50
90.0
 41
0.8299999999999999
  0
TEXT
  5
1C13D
  8
SU
  6
CONTINUOUS
 62
     3
 10
75.716219887055175
 20
-51.721628220028393
 30
0.0
 40
4.0
  1
11
 50
90.0
 41
0.8299999999999999
  0
TEXT
  5
1C13E
  8
SU
  6
CONTINUOUS
 62
     3
 10
75.716219887055146
 20
-34.537819933417921
 30
0.0
 40
4.0
  1
24
 50
90.0
 41
0.8299999999999999
  0
TEXT
  5
1C13F
  8
SU
  6
CONTINUOUS
 62
     3
 10
247.77526749830929
 20
-158.99686802771379
 30
0.0
 40
4.0
  1
24
 41
0.8299999999999999
  0
LINE
  5
1C140
  8
SU
  6
CONTINUOUS
 62
     3
 10
253.1484919424876
 20
-181.21750479445399
 30
0.0
 11
253.1484919424876
 21
-169.37623126097341
 31
0.0
  0
LINE
  5
1C141
  8
SU
  6
CONTINUOUS
 62
     3
 10
253.34849194248781
 20
-181.09750479445401
 30
0.0
 11
253.34849194248781
 21
-169.49623126097339
 31
0.0
  0
LINE
  5
1C142
  8
SU
  6
CONTINUOUS
 62
     3
 10
253.5484919424876
 20
-180.97750479445401
 30
0.0
 11
253.5484919424876
 21
-169.61623126097339
 31
0.0
  0
LINE
  5
1C143
  8
SU
  6
CONTINUOUS
 62
     3
 10
253.7484919424875
 20
-180.857504794454
 30
0.0
 11
253.7484919424875
 21
-169.7362312609734
 31
0.0
  0
LINE
  5
1C144
  8
SU
  6
CONTINUOUS
 62
     3
 10
253.94849194248781
 20
-180.73750479445411
 30
0.0
 11
253.94849194248781
 21
-169.8562312609734
 31
0.0
  0
LINE
  5
1C145
  8
SU
  6
CONTINUOUS
 62
     3
 10
254.14849194248751
 20
-180.61750479445399
 30
0.0
 11
254.14849194248751
 21
-169.97623126097341
 31
0.0
  0
LINE
  5
1C146
  8
SU
  6
CONTINUOUS
 62
     3
 10
254.34849194248781
 20
-180.49750479445399
 30
0.0
 11
254.34849194248781
 21
-170.0962312609735
 31
0.0
  0
LINE
  5
1C147
  8
SU
  6
CONTINUOUS
 62
     3
 10
254.5484919424878
 20
-180.37750479445401
 30
0.0
 11
254.5484919424878
 21
-170.21623126097339
 31
0.0
  0
LINE
  5
1C148
  8
SU
  6
CONTINUOUS
 62
     3
 10
254.74849194248759
 20
-180.25750479445421
 30
0.0
 11
254.74849194248759
 21
-170.33623126097339
 31
0.0
  0
LINE
  5
1C149
  8
SU
  6
CONTINUOUS
 62
     3
 10
254.94849194248781
 20
-180.1375047944542
 30
0.0
 11
254.94849194248781
 21
-170.4562312609734
 31
0.0
  0
LINE
  5
1C14A
  8
SU
  6
CONTINUOUS
 62
     3
 10
255.1484919424876
 20
-180.01750479445411
 30
0.0
 11
255.1484919424876
 21
-170.5762312609734
 31
0.0
  0
LINE
  5
1C14B
  8
SU
  6
CONTINUOUS
 62
     3
 10
255.34849194248781
 20
-179.89750479445411
 30
0.0
 11
255.34849194248781
 21
-170.69623126097341
 31
0.0
  0
LINE
  5
1C14C
  8
SU
  6
CONTINUOUS
 62
     3
 10
255.5484919424876
 20
-179.77750479445419
 30
0.0
 11
255.5484919424876
 21
-170.81623126097341
 31
0.0
  0
LINE
  5
1C14D
  8
SU
  6
CONTINUOUS
 62
     3
 10
255.7484919424875
 20
-179.65750479445401
 30
0.0
 11
255.7484919424875
 21
-170.93623126097339
 31
0.0
  0
LINE
  5
1C14E
  8
SU
  6
CONTINUOUS
 62
     3
 10
255.94849194248781
 20
-179.53750479445401
 30
0.0
 11
255.94849194248781
 21
-171.05623126097339
 31
0.0
  0
LINE
  5
1C14F
  8
SU
  6
CONTINUOUS
 62
     3
 10
256.14849194248762
 20
-179.41750479445381
 30
0.0
 11
256.14849194248762
 21
-171.1762312609734
 31
0.0
  0
LINE
  5
1C150
  8
SU
  6
CONTINUOUS
 62
     3
 10
256.34849194248773
 20
-179.29750479445411
 30
0.0
 11
256.34849194248773
 21
-171.2962312609734
 31
0.0
  0
LINE
  5
1C151
  8
SU
  6
CONTINUOUS
 62
     3
 10
256.54849194248749
 20
-179.17750479445411
 30
0.0
 11
256.54849194248749
 21
-171.4162312609734
 31
0.0
  0
LINE
  5
1C152
  8
SU
  6
CONTINUOUS
 62
     3
 10
256.74849194248782
 20
-179.05750479445379
 30
0.0
 11
256.74849194248782
 21
-171.53623126097341
 31
0.0
  0
LINE
  5
1C153
  8
SU
  6
CONTINUOUS
 62
     3
 10
256.94849194248781
 20
-178.93750479445399
 30
0.0
 11
256.94849194248781
 21
-171.6562312609735
 31
0.0
  0
LINE
  5
1C154
  8
SU
  6
CONTINUOUS
 62
     3
 10
257.14849194248768
 20
-178.81750479445401
 30
0.0
 11
257.14849194248768
 21
-171.77623126097339
 31
0.0
  0
LINE
  5
1C155
  8
SU
  6
CONTINUOUS
 62
     3
 10
257.34849194248773
 20
-178.69750479445401
 30
0.0
 11
257.34849194248773
 21
-171.89623126097351
 31
0.0
  0
LINE
  5
1C156
  8
SU
  6
CONTINUOUS
 62
     3
 10
257.5484919424876
 20
-178.577504794454
 30
0.0
 11
257.5484919424876
 21
-172.01623126097351
 31
0.0
  0
LINE
  5
1C157
  8
SU
  6
CONTINUOUS
 62
     3
 10
257.74849194248782
 20
-178.45750479445411
 30
0.0
 11
257.74849194248782
 21
-172.1362312609734
 31
0.0
  0
LINE
  5
1C158
  8
SU
  6
CONTINUOUS
 62
     3
 10
257.94849194248769
 20
-178.33750479445411
 30
0.0
 11
257.94849194248769
 21
-172.25623126097341
 31
0.0
  0
LINE
  5
1C159
  8
SU
  6
CONTINUOUS
 62
     3
 10
258.14849194248762
 20
-178.21750479445419
 30
0.0
 11
258.14849194248762
 21
-172.3762312609735
 31
0.0
  0
LINE
  5
1C15A
  8
SU
  6
CONTINUOUS
 62
     3
 10
258.34849194248773
 20
-178.09750479445401
 30
0.0
 11
258.34849194248773
 21
-172.49623126097339
 31
0.0
  0
LINE
  5
1C15B
  8
SU
  6
CONTINUOUS
 62
     3
 10
258.54849194248749
 20
-177.97750479445381
 30
0.0
 11
258.54849194248749
 21
-172.61623126097339
 31
0.0
  0
LINE
  5
1C15C
  8
SU
  6
CONTINUOUS
 62
     3
 10
258.74849194248782
 20
-177.857504794454
 30
0.0
 11
258.74849194248782
 21
-172.73623126097331
 31
0.0
  0
LINE
  5
1C15D
  8
SU
  6
CONTINUOUS
 62
     3
 10
258.94849194248781
 20
-177.73750479445411
 30
0.0
 11
258.94849194248781
 21
-172.8562312609732
 31
0.0
  0
LINE
  5
1C15E
  8
SU
  6
CONTINUOUS
 62
     3
 10
259.14849194248768
 20
-177.61750479445411
 30
0.0
 11
259.14849194248768
 21
-172.97623126097341
 31
0.0
  0
LINE
  5
1C15F
  8
SU
  6
CONTINUOUS
 62
     3
 10
259.34849194248773
 20
-177.49750479445399
 30
0.0
 11
259.34849194248773
 21
-173.0962312609735
 31
0.0
  0
LINE
  5
1C160
  8
SU
  6
CONTINUOUS
 62
     3
 10
259.5484919424876
 20
-177.37750479445401
 30
0.0
 11
259.5484919424876
 21
-173.2162312609733
 31
0.0
  0
LINE
  5
1C161
  8
SU
  6
CONTINUOUS
 62
     3
 10
259.74849194248782
 20
-177.25750479445421
 30
0.0
 11
259.74849194248782
 21
-173.33623126097331
 31
0.0
  0
LINE
  5
1C162
  8
SU
  6
CONTINUOUS
 62
     3
 10
259.94849194248769
 20
-177.1375047944542
 30
0.0
 11
259.94849194248769
 21
-173.4562312609734
 31
0.0
  0
LINE
  5
1C163
  8
SU
  6
CONTINUOUS
 62
     3
 10
260.14849194248762
 20
-177.01750479445411
 30
0.0
 11
260.14849194248762
 21
-173.5762312609734
 31
0.0
  0
LINE
  5
1C164
  8
SU
  6
CONTINUOUS
 62
     3
 10
260.34849194248773
 20
-176.89750479445411
 30
0.0
 11
260.34849194248773
 21
-173.69623126097309
 31
0.0
  0
LINE
  5
1C165
  8
SU
  6
CONTINUOUS
 62
     3
 10
260.54849194248749
 20
-176.77750479445399
 30
0.0
 11
260.54849194248749
 21
-173.81623126097341
 31
0.0
  0
LINE
  5
1C166
  8
SU
  6
CONTINUOUS
 62
     3
 10
260.74849194248782
 20
-176.65750479445401
 30
0.0
 11
260.74849194248782
 21
-173.9362312609733
 31
0.0
  0
LINE
  5
1C167
  8
SU
  6
CONTINUOUS
 62
     3
 10
260.94849194248781
 20
-176.53750479445401
 30
0.0
 11
260.94849194248781
 21
-174.05623126097339
 31
0.0
  0
LINE
  5
1C168
  8
SU
  6
CONTINUOUS
 62
     3
 10
261.14849194248768
 20
-176.417504794454
 30
0.0
 11
261.14849194248768
 21
-174.17623126097331
 31
0.0
  0
LINE
  5
1C169
  8
SU
  6
CONTINUOUS
 62
     3
 10
261.34849194248773
 20
-176.29750479445411
 30
0.0
 11
261.34849194248773
 21
-174.2962312609732
 31
0.0
  0
LINE
  5
1C16A
  8
SU
  6
CONTINUOUS
 62
     3
 10
261.5484919424876
 20
-176.17750479445411
 30
0.0
 11
261.5484919424876
 21
-174.4162312609734
 31
0.0
  0
LINE
  5
1C16B
  8
SU
  6
CONTINUOUS
 62
     3
 10
261.74849194248782
 20
-176.05750479445379
 30
0.0
 11
261.74849194248782
 21
-174.53623126097341
 31
0.0
  0
LINE
  5
1C16C
  8
SU
  6
CONTINUOUS
 62
     3
 10
261.94849194248769
 20
-175.93750479445399
 30
0.0
 11
261.94849194248769
 21
-174.6562312609733
 31
0.0
  0
LINE
  5
1C16D
  8
SU
  6
CONTINUOUS
 62
     3
 10
262.14849194248762
 20
-175.81750479445401
 30
0.0
 11
262.14849194248762
 21
-174.7762312609735
 31
0.0
  0
LINE
  5
1C16E
  8
SU
  6
CONTINUOUS
 62
     3
 10
262.34849194248773
 20
-175.69750479445401
 30
0.0
 11
262.34849194248773
 21
-174.89623126097351
 31
0.0
  0
LINE
  5
1C16F
  8
SU
  6
CONTINUOUS
 62
     3
 10
262.54849194248749
 20
-175.5775047944538
 30
0.0
 11
262.54849194248749
 21
-175.01623126097351
 31
0.0
  0
LINE
  5
1C170
  8
SU
  6
CONTINUOUS
 62
     3
 10
262.74849194248782
 20
-175.45750479445411
 30
0.0
 11
262.74849194248782
 21
-175.1362312609732
 31
0.0
  0
LINE
  5
1C171
  8
SU
  6
CONTINUOUS
 62
     3
 10
262.94849194248781
 20
-175.33750479445411
 30
0.0
 11
262.94849194248781
 21
-175.25623126097341
 31
0.0
  0
TEXT
  5
1C172
  8
SU
  6
CONTINUOUS
 62
     3
 10
-374.06332064699473
 20
-68.453294244346779
 30
0.0
 40
4.0
  1
35
 50
90.0
 41
0.8299999999999999
  0
LINE
  5
1C173
  8
OS
  6
CONTINUOUS
 62
     2
 10
-328.30724889384601
 20
156.70476577330439
 30
0.0
 11
-324.76332064196191
 21
153.16083752142021
 31
0.0
  0
LINE
  5
1C174
  8
OS
  6
CONTINUOUS
 62
     2
 10
-311.30724889733273
 20
139.70476577679091
 30
0.0
 11
-309.7633206388852
 21
138.16083751834361
 31
0.0
  0
LINE
  5
1C175
  8
OS
  6
CONTINUOUS
 62
     2
 10
-333.76332064177723
 20
152.2613425846238
 30
0.0
 11
-324.76332063993112
 21
143.26134258277779
 31
0.0
  0
LINE
  5
1C176
  8
OS
  6
CONTINUOUS
 62
     2
 10
-321.20674383191403
 20
139.7047657747608
 30
0.0
 11
-314.20674383334921
 21
132.70476577619601
 31
0.0
  0
LINE
  5
1C177
  8
OS
  6
CONTINUOUS
 62
     2
 10
-333.76332063974701
 20
142.36184764598181
 30
0.0
 11
-324.10623876793062
 21
132.70476577416551
 31
0.0
  0
LINE
  5
1C178
  8
OS
  6
CONTINUOUS
 62
     2
 10
-161.76332064563081
 20
142.36184764054681
 30
0.0
 11
-171.42040251744689
 21
132.70476576873079
 31
0.0
  0
LINE
  5
1C179
  8
OS
  6
CONTINUOUS
 62
     2
 10
-161.76332064360031
 20
152.26134257918901
 30
0.0
 11
-170.7633206454461
 21
143.2613425773431
 31
0.0
  0
LINE
  5
1C17A
  8
OS
  6
CONTINUOUS
 62
     2
 10
-174.31989745346351
 20
139.7047657693256
 30
0.0
 11
-181.31989745202799
 21
132.70476577076121
 31
0.0
  0
LINE
  5
1C17B
  8
OS
  6
CONTINUOUS
 62
     2
 10
-167.21939239153139
 20
156.70476576786959
 30
0.0
 11
-170.76332064341591
 21
153.16083751598509
 31
0.0
  0
LINE
  5
1C17C
  8
OS
  6
CONTINUOUS
 62
     2
 10
-184.21939238804489
 20
139.70476577135611
 30
0.0
 11
-185.7633206464925
 21
138.1608375129085
 31
0.0
  0
LINE
  5
1C17D
  8
OS
  6
CONTINUOUS
 62
     2
 10
20.152663477009181
 20
59.20313196565079
 30
0.0
 11
28.016219902646348
 21
51.339575540013541
 31
0.0
  0
LINE
  5
1C17E
  8
OS
  6
CONTINUOUS
 62
     2
 10
10.253168536336741
 20
59.203131969711542
 30
0.0
 11
28.016219902646348
 21
41.440080603401952
 31
0.0
  0
LINE
  5
1C17F
  8
OS
  6
CONTINUOUS
 62
     2
 10
4.0162199026463554
 20
55.540585666790243
 30
0.0
 11
14.353673601407021
 21
45.203131968029538
 31
0.0
  0
LINE
  5
1C180
  8
OS
  6
CONTINUOUS
 62
     2
 10
21.01621990565619
 20
38.540585663780391
 30
0.0
 11
28.016219902646348
 21
31.54058566679026
 31
0.0
  0
LINE
  5
1C181
  8
OS
  6
CONTINUOUS
 62
     2
 10
4.0162199026463554
 20
45.641090730178561
 30
0.0
 11
4.454178660734609
 21
45.203131972090318
 31
0.0
  0
LINE
  5
1C182
  8
OS
  6
CONTINUOUS
 62
     2
 10
4.0162199026464691
 20
-109.2348267856385
 30
0.0
 11
4.4541786607347831
 21
-108.79686802754991
 31
0.0
  0
LINE
  5
1C183
  8
OS
  6
CONTINUOUS
 62
     2
 10
4.0162199026464691
 20
-119.13432172225021
 30
0.0
 11
14.35367360140712
 21
-108.7968680234894
 31
0.0
  0
LINE
  5
1C184
  8
OS
  6
CONTINUOUS
 62
     2
 10
21.016219905656349
 20
-102.13432171924021
 30
0.0
 11
28.016219902646512
 21
-95.134321722250121
 31
0.0
  0
LINE
  5
1C185
  8
OS
  6
CONTINUOUS
 62
     2
 10
10.253168536336821
 20
-122.79686802517151
 30
0.0
 11
28.016219902646469
 21
-105.0338166588618
 31
0.0
  0
LINE
  5
1C186
  8
OS
  6
CONTINUOUS
 62
     2
 10
20.152663477009352
 20
-122.7968680211106
 30
0.0
 11
28.016219902646512
 21
-114.9333115954735
 31
0.0
  0
LINE
  5
1C187
  8
OS
  6
CONTINUOUS
 62
     2
 10
272.01621990264073
 20
45.641090730178789
 30
0.0
 11
271.5782611445527
 21
45.203131972090553
 31
0.0
  0
LINE
  5
1C188
  8
OS
  6
CONTINUOUS
 62
     2
 10
272.01621990264073
 20
55.54058566679042
 30
0.0
 11
261.67876620387989
 21
45.203131968029759
 31
0.0
  0
LINE
  5
1C189
  8
OS
  6
CONTINUOUS
 62
     2
 10
255.01621989963101
 20
38.540585663780519
 30
0.0
 11
248.0162199026409
 21
31.540585666790371
 31
0.0
  0
LINE
  5
1C18A
  8
OS
  6
CONTINUOUS
 62
     2
 10
265.77927126895042
 20
59.203131969711762
 30
0.0
 11
248.01621990264081
 21
41.440080603402087
 31
0.0
  0
LINE
  5
1C18B
  8
OS
  6
CONTINUOUS
 62
     2
 10
255.8797763282781
 20
59.203131965651032
 30
0.0
 11
248.0162199026409
 21
51.339575540013747
 31
0.0
  0
LINE
  5
1C18C
  8
OS
  6
CONTINUOUS
 62
     2
 10
255.8797763282781
 20
-122.7968680211106
 30
0.0
 11
248.0162199026409
 21
-114.9333115954735
 31
0.0
  0
LINE
  5
1C18D
  8
OS
  6
CONTINUOUS
 62
     2
 10
265.77927126895042
 20
-122.79686802517151
 30
0.0
 11
248.0162199026409
 21
-105.0338166588618
 31
0.0
  0
LINE
  5
1C18E
  8
OS
  6
CONTINUOUS
 62
     2
 10
272.01621990264073
 20
-119.13432172225021
 30
0.0
 11
261.67876620387989
 21
-108.7968680234894
 31
0.0
  0
LINE
  5
1C18F
  8
OS
  6
CONTINUOUS
 62
     2
 10
255.01621989963101
 20
-102.13432171924021
 30
0.0
 11
248.0162199026409
 21
-95.134321722250192
 31
0.0
  0
LINE
  5
1C190
  8
OS
  6
CONTINUOUS
 62
     2
 10
272.01621990264073
 20
-109.2348267856385
 30
0.0
 11
271.5782611445527
 21
-108.79686802754991
 31
0.0
  0
ARC
  5
1C191
  8
SU
  6
CONTINUOUS
 62
     3
 10
-372.76332064699488
 20
-82.791390896383817
 30
0.0
 40
0.2999999999999971
 50
90.0
 51
270.0
  0
ARC
  5
1C192
  8
SU
  6
CONTINUOUS
 62
     3
 10
-372.76332064699488
 20
-82.791390896383817
 30
0.0
 40
0.2999999999999971
 50
270.0
 51
90.0
  0
ARC
  5
1C193
  8
SU
  6
CONTINUOUS
 62
     3
 10
-372.76332064699488
 20
-47.79138806850009
 30
0.0
 40
0.2999999999999971
 50
270.0
 51
90.0
  0
ARC
  5
1C194
  8
SU
  6
CONTINUOUS
 62
     3
 10
-372.76332064699488
 20
-47.79138806850009
 30
0.0
 40
0.2999999999999971
 50
90.0
 51
270.0
  0
ARC
  5
1C195
  8
SU
  6
CONTINUOUS
 62
     3
 10
263.01621988705512
 20
-160.2968680277138
 30
0.0
 40
0.3000000000000114
 50
180.0
 51
0.0
  0
ARC
  5
1C196
  8
SU
  6
CONTINUOUS
 62
     3
 10
263.01621988705512
 20
-160.2968680277138
 30
0.0
 40
0.3000000000000114
 50
0.0
 51
180.0
  0
ARC
  5
1C197
  8
SU
  6
CONTINUOUS
 62
     3
 10
77.016219887055144
 20
-19.296868789664611
 30
0.0
 40
0.3000000000000007
 50
270.0
 51
90.0
  0
ARC
  5
1C198
  8
SU
  6
CONTINUOUS
 62
     3
 10
77.016219887055144
 20
-19.296868789664611
 30
0.0
 40
0.3000000000000007
 50
90.0
 51
270.0
  0
ARC
  5
1C199
  8
SU
  6
CONTINUOUS
 62
     3
 10
77.016219887055144
 20
-54.296866315266492
 30
0.0
 40
0.2999999999999971
 50
90.0
 51
270.0
  0
ARC
  5
1C19A
  8
SU
  6
CONTINUOUS
 62
     3
 10
77.016219887055144
 20
-54.296866315266492
 30
0.0
 40
0.2999999999999971
 50
270.0
 51
90.0
  0
ARC
  5
1C19B
  8
SU
  6
CONTINUOUS
 62
     3
 10
77.016219887055144
 20
-43.296866315266492
 30
0.0
 40
0.2999999999999971
 50
270.0
 51
90.0
  0
ARC
  5
1C19C
  8
SU
  6
CONTINUOUS
 62
     3
 10
77.016219887055144
 20
-43.296866315266492
 30
0.0
 40
0.2999999999999971
 50
90.0
 51
270.0
  0
ARC
  5
1C19D
  8
SU
  6
CONTINUOUS
 62
     3
 10
77.016219887055144
 20
-94.296868027712463
 30
0.0
 40
0.2999999999999971
 50
90.0
 51
270.0
  0
ARC
  5
1C19E
  8
SU
  6
CONTINUOUS
 62
     3
 10
77.016219887055144
 20
-94.296868027712463
 30
0.0
 40
0.2999999999999971
 50
270.0
 51
90.0
  0
ARC
  5
1C19F
  8
SU
  6
CONTINUOUS
 62
     3
 10
77.016219887055144
 20
-94.296868027712463
 30
0.0
 40
0.2999999999999971
 50
270.0
 51
90.0
  0
ARC
  5
1C1A0
  8
SU
  6
CONTINUOUS
 62
     3
 10
77.016219887055144
 20
-94.296868027712463
 30
0.0
 40
0.2999999999999971
 50
90.0
 51
270.0
  0
ARC
  5
1C1A1
  8
SU
  6
CONTINUOUS
 62
     3
 10
77.016219887055144
 20
-101.79686802772861
 30
0.0
 40
0.2999999999999971
 50
90.0
 51
270.0
  0
ARC
  5
1C1A2
  8
SU
  6
CONTINUOUS
 62
     3
 10
77.016219887055144
 20
-101.79686802772861
 30
0.0
 40
0.2999999999999971
 50
270.0
 51
90.0
  0
ARC
  5
1C1A3
  8
SU
  6
CONTINUOUS
 62
     3
 10
41.016219902641829
 20
-160.2968680277138
 30
0.0
 40
0.2999999999999971
 50
180.0
 51
0.0
  0
ARC
  5
1C1A4
  8
SU
  6
CONTINUOUS
 62
     3
 10
41.016219902641829
 20
-160.2968680277138
 30
0.0
 40
0.2999999999999971
 50
0.0
 51
180.0
  0
ARC
  5
1C1A5
  8
SU
  6
CONTINUOUS
 62
     3
 10
37.016219887054959
 20
-160.2968680277138
 30
0.0
 40
0.2999999999999971
 50
0.0
 51
180.0
  0
ARC
  5
1C1A6
  8
SU
  6
CONTINUOUS
 62
     3
 10
37.016219887054959
 20
-160.2968680277138
 30
0.0
 40
0.2999999999999971
 50
180.0
 51
0.0
  0
ARC
  5
1C1A7
  8
SU
  6
CONTINUOUS
 62
     3
 10
13.016219887054911
 20
-160.2968680277138
 30
0.0
 40
0.3000000000000007
 50
0.0
 51
180.0
  0
ARC
  5
1C1A8
  8
SU
  6
CONTINUOUS
 62
     3
 10
13.016219887054911
 20
-160.2968680277138
 30
0.0
 40
0.3000000000000007
 50
180.0
 51
0.0
  0
ARC
  5
1C1A9
  8
SU
  6
CONTINUOUS
 62
     3
 10
235.01621987146791
 20
-160.2968680277138
 30
0.0
 40
0.3000000000000114
 50
0.0
 51
180.0
  0
ARC
  5
1C1AA
  8
SU
  6
CONTINUOUS
 62
     3
 10
235.01621987146791
 20
-160.2968680277138
 30
0.0
 40
0.3000000000000114
 50
180.0
 51
0.0
  0
ARC
  5
1C1AB
  8
SU
  6
CONTINUOUS
 62
     3
 10
239.0162198870548
 20
-160.2968680277138
 30
0.0
 40
0.3000000000000114
 50
180.0
 51
0.0
  0
ARC
  5
1C1AC
  8
SU
  6
CONTINUOUS
 62
     3
 10
239.0162198870548
 20
-160.2968680277138
 30
0.0
 40
0.3000000000000114
 50
0.0
 51
180.0
  0
ARC
  5
1C1AD
  8
SU
  6
CONTINUOUS
 62
     3
 10
235.01621987146791
 20
-160.2968680277138
 30
0.0
 40
0.3000000000000114
 50
180.0
 51
0.0
  0
ARC
  5
1C1AE
  8
SU
  6
CONTINUOUS
 62
     3
 10
235.01621987146791
 20
-160.2968680277138
 30
0.0
 40
0.3000000000000114
 50
0.0
 51
180.0
  0
ARC
  5
1C1AF
  8
SU
  6
CONTINUOUS
 62
     3
 10
41.016219902642042
 20
-160.2968680277138
 30
0.0
 40
0.2999999999999971
 50
0.0
 51
180.0
  0
ARC
  5
1C1B0
  8
SU
  6
CONTINUOUS
 62
     3
 10
41.016219902642042
 20
-160.2968680277138
 30
0.0
 40
0.2999999999999971
 50
180.0
 51
0.0
  0
ARC
  5
1C1B1
  8
SU
  6
CONTINUOUS
 62
     3
 10
77.016219902646299
 20
38.203131972269887
 30
0.0
 40
0.2999999999999971
 50
270.0
 51
90.0
  0
ARC
  5
1C1B2
  8
SU
  6
CONTINUOUS
 62
     3
 10
77.016219902646299
 20
38.203131972269887
 30
0.0
 40
0.2999999999999971
 50
90.0
 51
270.0
  0
ARC
  5
1C1B3
  8
SU
  6
CONTINUOUS
 62
     3
 10
239.01621988705449
 20
79.203131972269873
 30
0.0
 40
0.3000000000000114
 50
180.0
 51
0.0
  0
ARC
  5
1C1B4
  8
SU
  6
CONTINUOUS
 62
     3
 10
239.01621988705449
 20
79.203131972269873
 30
0.0
 40
0.3000000000000114
 50
0.0
 51
180.0
  0
ARC
  5
1C1B5
  8
SU
  6
CONTINUOUS
 62
     3
 10
219.0162198870548
 20
79.203131972269873
 30
0.0
 40
0.3000000000000114
 50
0.0
 51
180.0
  0
ARC
  5
1C1B6
  8
SU
  6
CONTINUOUS
 62
     3
 10
219.0162198870548
 20
79.203131972269873
 30
0.0
 40
0.3000000000000114
 50
180.0
 51
0.0
  0
ARC
  5
1C1B7
  8
SU
  6
CONTINUOUS
 62
     3
 10
57.016219887055151
 20
79.203131972269873
 30
0.0
 40
0.2999999999999971
 50
180.0
 51
0.0
  0
ARC
  5
1C1B8
  8
SU
  6
CONTINUOUS
 62
     3
 10
57.016219887055151
 20
79.203131972269873
 30
0.0
 40
0.2999999999999971
 50
0.0
 51
180.0
  0
ARC
  5
1C1B9
  8
SU
  6
CONTINUOUS
 62
     3
 10
91.016222351175287
 20
38.203131972269887
 30
0.0
 40
0.2999999999999971
 50
270.0
 51
90.0
  0
ARC
  5
1C1BA
  8
SU
  6
CONTINUOUS
 62
     3
 10
91.016222351175287
 20
38.203131972269887
 30
0.0
 40
0.2999999999999971
 50
90.0
 51
270.0
  0
ARC
  5
1C1BB
  8
SU
  6
CONTINUOUS
 62
     3
 10
91.016222351175188
 20
-101.79686802772861
 30
0.0
 40
0.2999999999999971
 50
90.0
 51
270.0
  0
ARC
  5
1C1BC
  8
SU
  6
CONTINUOUS
 62
     3
 10
91.016222351175188
 20
-101.79686802772861
 30
0.0
 40
0.2999999999999971
 50
270.0
 51
90.0
  0
ARC
  5
1C1BD
  8
SU
  6
CONTINUOUS
 62
     3
 10
-225.2633207693741
 20
82.204765774032666
 30
0.0
 40
0.3000000000000114
 50
180.0
 51
0.0
  0
ARC
  5
1C1BE
  8
SU
  6
CONTINUOUS
 62
     3
 10
-225.2633207693741
 20
82.204765774032666
 30
0.0
 40
0.3000000000000114
 50
0.0
 51
180.0
  0
ARC
  5
1C1BF
  8
SU
  6
CONTINUOUS
 62
     3
 10
-236.26332076962589
 20
82.204765774032666
 30
0.0
 40
0.3000000000000114
 50
0.0
 51
180.0
  0
ARC
  5
1C1C0
  8
SU
  6
CONTINUOUS
 62
     3
 10
-236.26332076962589
 20
82.204765774032666
 30
0.0
 40
0.3000000000000114
 50
180.0
 51
0.0
  0
ARC
  5
1C1C1
  8
SU
  6
CONTINUOUS
 62
     3
 10
-185.26331906086119
 20
82.204765774032509
 30
0.0
 40
0.3000000000000114
 50
180.0
 51
0.0
  0
ARC
  5
1C1C2
  8
SU
  6
CONTINUOUS
 62
     3
 10
-185.26331906086119
 20
82.204765774032509
 30
0.0
 40
0.3000000000000114
 50
0.0
 51
180.0
  0
ARC
  5
1C1C3
  8
SU
  6
CONTINUOUS
 62
     3
 10
-225.2633207693741
 20
82.204765774032509
 30
0.0
 40
0.3000000000000114
 50
0.0
 51
180.0
  0
ARC
  5
1C1C4
  8
SU
  6
CONTINUOUS
 62
     3
 10
-225.2633207693741
 20
82.204765774032509
 30
0.0
 40
0.3000000000000114
 50
180.0
 51
0.0
  0
ARC
  5
1C1C5
  8
SU
  6
CONTINUOUS
 62
     3
 10
-123.7633206468919
 20
123.704765774031
 30
0.0
 40
0.2999999999999971
 50
90.0
 51
270.0
  0
ARC
  5
1C1C6
  8
SU
  6
CONTINUOUS
 62
     3
 10
-123.7633206468919
 20
123.704765774031
 30
0.0
 40
0.2999999999999971
 50
270.0
 51
90.0
  0
ARC
  5
1C1C7
  8
SU
  6
CONTINUOUS
 62
     3
 10
-123.7633206468919
 20
147.7047657740309
 30
0.0
 40
0.3000000000000114
 50
270.0
 51
90.0
  0
ARC
  5
1C1C8
  8
SU
  6
CONTINUOUS
 62
     3
 10
-123.7633206468919
 20
147.7047657740309
 30
0.0
 40
0.3000000000000114
 50
90.0
 51
270.0
  0
ARC
  5
1C1C9
  8
SU
  6
CONTINUOUS
 62
     3
 10
-185.26331906086119
 20
82.204765774032509
 30
0.0
 40
0.3000000000000114
 50
0.0
 51
180.0
  0
ARC
  5
1C1CA
  8
SU
  6
CONTINUOUS
 62
     3
 10
-185.26331906086119
 20
82.204765774032509
 30
0.0
 40
0.3000000000000114
 50
180.0
 51
0.0
  0
ARC
  5
1C1CB
  8
SU
  6
CONTINUOUS
 62
     3
 10
-177.7633206470968
 20
82.204765774032509
 30
0.0
 40
0.3000000000000114
 50
180.0
 51
0.0
  0
ARC
  5
1C1CC
  8
SU
  6
CONTINUOUS
 62
     3
 10
-177.7633206470968
 20
82.204765774032509
 30
0.0
 40
0.3000000000000114
 50
0.0
 51
180.0
  0
ARC
  5
1C1CD
  8
SU
  6
CONTINUOUS
 62
     3
 10
-123.7633206468919
 20
120.7047332533685
 30
0.0
 40
0.2999999999999971
 50
90.0
 51
270.0
  0
ARC
  5
1C1CE
  8
SU
  6
CONTINUOUS
 62
     3
 10
-123.7633206468919
 20
120.7047332533685
 30
0.0
 40
0.2999999999999971
 50
270.0
 51
90.0
  0
ARC
  5
1C1CF
  8
SU
  6
CONTINUOUS
 62
     3
 10
-123.7633206468919
 20
123.704765774031
 30
0.0
 40
0.2999999999999971
 50
270.0
 51
90.0
  0
ARC
  5
1C1D0
  8
SU
  6
CONTINUOUS
 62
     3
 10
-123.7633206468919
 20
123.704765774031
 30
0.0
 40
0.2999999999999971
 50
90.0
 51
270.0
  0
ARC
  5
1C1D1
  8
SU
  6
CONTINUOUS
 62
     3
 10
-260.26331829522712
 20
82.204765774032509
 30
0.0
 40
0.3000000000000114
 50
180.0
 51
0.0
  0
ARC
  5
1C1D2
  8
SU
  6
CONTINUOUS
 62
     3
 10
-260.26331829522712
 20
82.204765774032509
 30
0.0
 40
0.3000000000000114
 50
0.0
 51
180.0
  0
ARC
  5
1C1D3
  8
SU
  6
CONTINUOUS
 62
     3
 10
-317.76332064699523
 20
82.204765774032509
 30
0.0
 40
0.3000000000000114
 50
0.0
 51
180.0
  0
ARC
  5
1C1D4
  8
SU
  6
CONTINUOUS
 62
     3
 10
-317.76332064699523
 20
82.204765774032509
 30
0.0
 40
0.3000000000000114
 50
180.0
 51
0.0
  0
ARC
  5
1C1D5
  8
SU
  6
CONTINUOUS
 62
     3
 10
-358.76332064699562
 20
123.70476577403061
 30
0.0
 40
0.2999999999999971
 50
270.0
 51
90.0
  0
ARC
  5
1C1D6
  8
SU
  6
CONTINUOUS
 62
     3
 10
-358.76332064699562
 20
123.70476577403061
 30
0.0
 40
0.2999999999999971
 50
90.0
 51
270.0
  0
ARC
  5
1C1D7
  8
SU
  6
CONTINUOUS
 62
     3
 10
-358.76332064699562
 20
103.7047332533687
 30
0.0
 40
0.2999999999999971
 50
90.0
 51
270.0
  0
ARC
  5
1C1D8
  8
SU
  6
CONTINUOUS
 62
     3
 10
-358.76332064699562
 20
103.7047332533687
 30
0.0
 40
0.2999999999999971
 50
270.0
 51
90.0
  0
ARC
  5
1C1D9
  8
SU
  6
CONTINUOUS
 62
     3
 10
-236.26332076962589
 20
82.204765774032779
 30
0.0
 40
0.3000000000000114
 50
180.0
 51
0.0
  0
ARC
  5
1C1DA
  8
SU
  6
CONTINUOUS
 62
     3
 10
-236.26332076962589
 20
82.204765774032779
 30
0.0
 40
0.3000000000000114
 50
0.0
 51
180.0
  0
ARC
  5
1C1DB
  8
SU
  6
CONTINUOUS
 62
     3
 10
-260.26331829522712
 20
82.204765774032779
 30
0.0
 40
0.3000000000000114
 50
0.0
 51
180.0
  0
ARC
  5
1C1DC
  8
SU
  6
CONTINUOUS
 62
     3
 10
-260.26331829522712
 20
82.204765774032779
 30
0.0
 40
0.3000000000000114
 50
180.0
 51
0.0
  0
ARC
  5
1C1DD
  8
SU
  6
CONTINUOUS
 62
     3
 10
-177.7633206470968
 20
67.204765774031955
 30
0.0
 40
0.3000000000000114
 50
180.0
 51
0.0
  0
ARC
  5
1C1DE
  8
SU
  6
CONTINUOUS
 62
     3
 10
-177.7633206470968
 20
67.204765774031955
 30
0.0
 40
0.3000000000000114
 50
0.0
 51
180.0
  0
ARC
  5
1C1DF
  8
SU
  6
CONTINUOUS
 62
     3
 10
-317.76332064699551
 20
67.204765774031955
 30
0.0
 40
0.3000000000000114
 50
0.0
 51
180.0
  0
ARC
  5
1C1E0
  8
SU
  6
CONTINUOUS
 62
     3
 10
-317.76332064699551
 20
67.204765774031955
 30
0.0
 40
0.3000000000000114
 50
180.0
 51
0.0
  0
ARC
  5
1C1E1
  8
SU
  6
CONTINUOUS
 62
     3
 10
-123.76332064688791
 20
-82.791390896381259
 30
0.0
 40
0.2999999999999971
 50
90.0
 51
270.0
  0
ARC
  5
1C1E2
  8
SU
  6
CONTINUOUS
 62
     3
 10
-123.76332064688791
 20
-82.791390896381259
 30
0.0
 40
0.2999999999999971
 50
270.0
 51
90.0
  0
ARC
  5
1C1E3
  8
SU
  6
CONTINUOUS
 62
     3
 10
-179.2633207696262
 20
-102.7913908963889
 30
0.0
 40
0.3000000000000114
 50
180.0
 51
0.0
  0
ARC
  5
1C1E4
  8
SU
  6
CONTINUOUS
 62
     3
 10
-179.2633207696262
 20
-102.7913908963889
 30
0.0
 40
0.3000000000000114
 50
0.0
 51
180.0
  0
ARC
  5
1C1E5
  8
SU
  6
CONTINUOUS
 62
     3
 10
-177.76332064709649
 20
-102.7913908963889
 30
0.0
 40
0.3000000000000114
 50
0.0
 51
180.0
  0
ARC
  5
1C1E6
  8
SU
  6
CONTINUOUS
 62
     3
 10
-177.76332064709649
 20
-102.7913908963889
 30
0.0
 40
0.3000000000000114
 50
180.0
 51
0.0
  0
ARC
  5
1C1E7
  8
SU
  6
CONTINUOUS
 62
     3
 10
-123.7633206468919
 20
-67.791388068497625
 30
0.0
 40
0.2999999999999971
 50
90.0
 51
270.0
  0
ARC
  5
1C1E8
  8
SU
  6
CONTINUOUS
 62
     3
 10
-123.7633206468919
 20
-67.791388068497625
 30
0.0
 40
0.2999999999999971
 50
270.0
 51
90.0
  0
ARC
  5
1C1E9
  8
SU
  6
CONTINUOUS
 62
     3
 10
-120.2633206469942
 20
-222.618812641528
 30
0.0
 40
0.3000000000000114
 50
90.0
 51
270.0
  0
ARC
  5
1C1EA
  8
SU
  6
CONTINUOUS
 62
     3
 10
-120.2633206469942
 20
-222.618812641528
 30
0.0
 40
0.3000000000000114
 50
270.0
 51
90.0
  0
ARC
  5
1C1EB
  8
SU
  6
CONTINUOUS
 62
     3
 10
-105.2633206469955
 20
-234.61881264152811
 30
0.0
 40
0.3000000000000114
 50
90.0
 51
270.0
  0
ARC
  5
1C1EC
  8
SU
  6
CONTINUOUS
 62
     3
 10
-105.2633206469955
 20
-234.61881264152811
 30
0.0
 40
0.3000000000000114
 50
270.0
 51
90.0
  0
ARC
  5
1C1ED
  8
SU
  6
CONTINUOUS
 62
     3
 10
-120.2633206469942
 20
-214.618812641528
 30
0.0
 40
0.3000000000000114
 50
90.0
 51
270.0
  0
ARC
  5
1C1EE
  8
SU
  6
CONTINUOUS
 62
     3
 10
-120.2633206469942
 20
-214.618812641528
 30
0.0
 40
0.3000000000000114
 50
270.0
 51
90.0
  0
ARC
  5
1C1EF
  8
SU
  6
CONTINUOUS
 62
     3
 10
-289.26331640997199
 20
-102.7913908963917
 30
0.0
 40
0.3000000000000114
 50
180.0
 51
0.0
  0
ARC
  5
1C1F0
  8
SU
  6
CONTINUOUS
 62
     3
 10
-289.26331640997199
 20
-102.7913908963917
 30
0.0
 40
0.3000000000000114
 50
0.0
 51
180.0
  0
ARC
  5
1C1F1
  8
SU
  6
CONTINUOUS
 62
     3
 10
-317.76332064699659
 20
-102.7913908963917
 30
0.0
 40
0.3000000000000114
 50
0.0
 51
180.0
  0
ARC
  5
1C1F2
  8
SU
  6
CONTINUOUS
 62
     3
 10
-317.76332064699659
 20
-102.7913908963917
 30
0.0
 40
0.3000000000000114
 50
180.0
 51
0.0
  0
ARC
  5
1C1F3
  8
SU
  6
CONTINUOUS
 62
     3
 10
-358.76332064699562
 20
-67.791388068498108
 30
0.0
 40
0.2999999999999971
 50
90.0
 51
270.0
  0
ARC
  5
1C1F4
  8
SU
  6
CONTINUOUS
 62
     3
 10
-358.76332064699562
 20
-67.791388068498108
 30
0.0
 40
0.2999999999999971
 50
270.0
 51
90.0
  0
ARC
  5
1C1F5
  8
SU
  6
CONTINUOUS
 62
     3
 10
-358.76332064699562
 20
-47.791388068498087
 30
0.0
 40
0.2999999999999971
 50
270.0
 51
90.0
  0
ARC
  5
1C1F6
  8
SU
  6
CONTINUOUS
 62
     3
 10
-358.76332064699562
 20
-47.791388068498087
 30
0.0
 40
0.2999999999999971
 50
90.0
 51
270.0
  0
ARC
  5
1C1F7
  8
SU
  6
CONTINUOUS
 62
     3
 10
-358.76332064699562
 20
-82.791390896383817
 30
0.0
 40
0.2999999999999971
 50
90.0
 51
270.0
  0
ARC
  5
1C1F8
  8
SU
  6
CONTINUOUS
 62
     3
 10
-358.76332064699562
 20
-82.791390896383817
 30
0.0
 40
0.2999999999999971
 50
270.0
 51
90.0
  0
ARC
  5
1C1F9
  8
SU
  6
CONTINUOUS
 62
     3
 10
-358.76332064699562
 20
-67.791388068498108
 30
0.0
 40
0.2999999999999971
 50
270.0
 51
90.0
  0
ARC
  5
1C1FA
  8
SU
  6
CONTINUOUS
 62
     3
 10
-358.76332064699562
 20
-67.791388068498108
 30
0.0
 40
0.2999999999999971
 50
90.0
 51
270.0
  0
ARC
  5
1C1FB
  8
SU
  6
CONTINUOUS
 62
     3
 10
-289.26331640997199
 20
-102.7913908963891
 30
0.0
 40
0.3000000000000114
 50
0.0
 51
180.0
  0
ARC
  5
1C1FC
  8
SU
  6
CONTINUOUS
 62
     3
 10
-289.26331640997199
 20
-102.7913908963891
 30
0.0
 40
0.3000000000000114
 50
180.0
 51
0.0
  0
ARC
  5
1C1FD
  8
SU
  6
CONTINUOUS
 62
     3
 10
-179.2633207696262
 20
-102.7913908963891
 30
0.0
 40
0.3000000000000114
 50
180.0
 51
0.0
  0
ARC
  5
1C1FE
  8
SU
  6
CONTINUOUS
 62
     3
 10
-179.2633207696262
 20
-102.7913908963891
 30
0.0
 40
0.3000000000000114
 50
0.0
 51
180.0
  0
ARC
  5
1C1FF
  8
SU
  6
CONTINUOUS
 62
     3
 10
-123.7633206468919
 20
-62.791388068497632
 30
0.0
 40
0.2999999999999971
 50
90.0
 51
270.0
  0
ARC
  5
1C200
  8
SU
  6
CONTINUOUS
 62
     3
 10
-123.7633206468919
 20
-62.791388068497632
 30
0.0
 40
0.2999999999999971
 50
270.0
 51
90.0
  0
ARC
  5
1C201
  8
SU
  6
CONTINUOUS
 62
     3
 10
239.016189203425
 20
79.203131972269844
 30
0.0
 40
0.3000000000000114
 50
0.0
 51
180.0
  0
ARC
  5
1C202
  8
SU
  6
CONTINUOUS
 62
     3
 10
239.016189203425
 20
79.203131972269844
 30
0.0
 40
0.3000000000000114
 50
180.0
 51
0.0
  0
ARC
  5
1C203
  8
SU
  6
CONTINUOUS
 62
     3
 10
248.01621990264081
 20
79.20313197226973
 30
0.0
 40
0.3000000000000114
 50
0.0
 51
180.0
  0
ARC
  5
1C204
  8
SU
  6
CONTINUOUS
 62
     3
 10
248.01621990264081
 20
79.20313197226973
 30
0.0
 40
0.3000000000000114
 50
180.0
 51
0.0
  0
ARC
  5
1C205
  8
SU
  6
CONTINUOUS
 62
     3
 10
272.01621990264073
 20
79.20313197226973
 30
0.0
 40
0.3000000000000114
 50
180.0
 51
0.0
  0
ARC
  5
1C206
  8
SU
  6
CONTINUOUS
 62
     3
 10
272.01621990264073
 20
79.20313197226973
 30
0.0
 40
0.3000000000000114
 50
0.0
 51
180.0
  0
ARC
  5
1C207
  8
SU
  6
CONTINUOUS
 62
     3
 10
-57.983782564547433
 20
45.203131972270043
 30
0.0
 40
0.2999999999999971
 50
270.0
 51
90.0
  0
ARC
  5
1C208
  8
SU
  6
CONTINUOUS
 62
     3
 10
-57.983782564547433
 20
45.203131972270043
 30
0.0
 40
0.2999999999999971
 50
90.0
 51
270.0
  0
ARC
  5
1C209
  8
SU
  6
CONTINUOUS
 62
     3
 10
-72.983782564547425
 20
45.20313197227005
 30
0.0
 40
0.2999999999999971
 50
90.0
 51
270.0
  0
ARC
  5
1C20A
  8
SU
  6
CONTINUOUS
 62
     3
 10
-72.983782564547425
 20
45.20313197227005
 30
0.0
 40
0.2999999999999971
 50
270.0
 51
90.0
  0
ARC
  5
1C20B
  8
SU
  6
CONTINUOUS
 62
     3
 10
-72.983782564547425
 20
59.203131972269951
 30
0.0
 40
0.2999999999999971
 50
270.0
 51
90.0
  0
ARC
  5
1C20C
  8
SU
  6
CONTINUOUS
 62
     3
 10
-72.983782564547425
 20
59.203131972269951
 30
0.0
 40
0.2999999999999971
 50
90.0
 51
270.0
  0
ARC
  5
1C20D
  8
SU
  6
CONTINUOUS
 62
     3
 10
-57.983782564547433
 20
32.703131972270043
 30
0.0
 40
0.2999999999999971
 50
270.0
 51
90.0
  0
ARC
  5
1C20E
  8
SU
  6
CONTINUOUS
 62
     3
 10
-57.983782564547433
 20
32.703131972270043
 30
0.0
 40
0.2999999999999971
 50
90.0
 51
270.0
  0
ARC
  5
1C20F
  8
SU
  6
CONTINUOUS
 62
     3
 10
-57.983782564547433
 20
-96.296868027729872
 30
0.0
 40
0.2999999999999971
 50
90.0
 51
270.0
  0
ARC
  5
1C210
  8
SU
  6
CONTINUOUS
 62
     3
 10
-57.983782564547433
 20
-96.296868027729872
 30
0.0
 40
0.2999999999999971
 50
270.0
 51
90.0
  0
ARC
  5
1C211
  8
SU
  6
CONTINUOUS
 62
     3
 10
-72.983782564547425
 20
-108.7968680277298
 30
0.0
 40
0.2999999999999971
 50
270.0
 51
90.0
  0
ARC
  5
1C212
  8
SU
  6
CONTINUOUS
 62
     3
 10
-72.983782564547425
 20
-108.7968680277298
 30
0.0
 40
0.2999999999999971
 50
90.0
 51
270.0
  0
ARC
  5
1C213
  8
SU
  6
CONTINUOUS
 62
     3
 10
-72.983782564547425
 20
-122.7968680277299
 30
0.0
 40
0.2999999999999971
 50
90.0
 51
270.0
  0
ARC
  5
1C214
  8
SU
  6
CONTINUOUS
 62
     3
 10
-72.983782564547425
 20
-122.7968680277299
 30
0.0
 40
0.2999999999999971
 50
270.0
 51
90.0
  0
ARC
  5
1C215
  8
SU
  6
CONTINUOUS
 62
     3
 10
-57.802683501001603
 20
-108.7968680277298
 30
0.0
 40
0.2999999999999971
 50
90.0
 51
270.0
  0
ARC
  5
1C216
  8
SU
  6
CONTINUOUS
 62
     3
 10
-57.802683501001603
 20
-108.7968680277298
 30
0.0
 40
0.2999999999999971
 50
270.0
 51
90.0
  0
ARC
  5
1C217
  8
SU
  6
CONTINUOUS
 62
     3
 10
-57.983782564547447
 20
-84.296868027729886
 30
0.0
 40
0.2999999999999971
 50
90.0
 51
270.0
  0
ARC
  5
1C218
  8
SU
  6
CONTINUOUS
 62
     3
 10
-57.983782564547447
 20
-84.296868027729886
 30
0.0
 40
0.2999999999999971
 50
270.0
 51
90.0
  0
ARC
  5
1C219
  8
SU
  6
CONTINUOUS
 62
     3
 10
-57.983782564547433
 20
20.70313197226999
 30
0.0
 40
0.3000000000000007
 50
270.0
 51
90.0
  0
ARC
  5
1C21A
  8
SU
  6
CONTINUOUS
 62
     3
 10
-57.983782564547433
 20
20.70313197226999
 30
0.0
 40
0.3000000000000007
 50
90.0
 51
270.0
  0
ARC
  5
1C21B
  8
SU
  6
CONTINUOUS
 62
     3
 10
-312.26332064699562
 20
208.704765774039
 30
0.0
 40
0.3000000000000114
 50
0.0
 51
180.0
  0
ARC
  5
1C21C
  8
SU
  6
CONTINUOUS
 62
     3
 10
-312.26332064699562
 20
208.704765774039
 30
0.0
 40
0.3000000000000114
 50
180.0
 51
0.0
  0
ARC
  5
1C21D
  8
SU
  6
CONTINUOUS
 62
     3
 10
-324.76332064699562
 20
208.704765774039
 30
0.0
 40
0.3000000000000114
 50
0.0
 51
180.0
  0
ARC
  5
1C21E
  8
SU
  6
CONTINUOUS
 62
     3
 10
-324.76332064699562
 20
208.704765774039
 30
0.0
 40
0.3000000000000114
 50
180.0
 51
0.0
  0
ARC
  5
1C21F
  8
SU
  6
CONTINUOUS
 62
     3
 10
-324.76332064699562
 20
223.704765774039
 30
0.0
 40
0.3000000000000114
 50
180.0
 51
0.0
  0
ARC
  5
1C220
  8
SU
  6
CONTINUOUS
 62
     3
 10
-324.76332064699562
 20
223.704765774039
 30
0.0
 40
0.3000000000000114
 50
0.0
 51
180.0
  0
ARC
  5
1C221
  8
SU
  6
CONTINUOUS
 62
     3
 10
-338.76332065314381
 20
223.704765774039
 30
0.0
 40
0.3000000000000114
 50
0.0
 51
180.0
  0
ARC
  5
1C222
  8
SU
  6
CONTINUOUS
 62
     3
 10
-338.76332065314381
 20
223.704765774039
 30
0.0
 40
0.3000000000000114
 50
180.0
 51
0.0
  0
ARC
  5
1C223
  8
SU
  6
CONTINUOUS
 62
     3
 10
-183.26332064699571
 20
208.704765774039
 30
0.0
 40
0.3000000000000114
 50
180.0
 51
0.0
  0
ARC
  5
1C224
  8
SU
  6
CONTINUOUS
 62
     3
 10
-183.26332064699571
 20
208.704765774039
 30
0.0
 40
0.3000000000000114
 50
0.0
 51
180.0
  0
ARC
  5
1C225
  8
SU
  6
CONTINUOUS
 62
     3
 10
-108.76332064689331
 20
156.7047657657244
 30
0.0
 40
0.3000000000000114
 50
270.0
 51
90.0
  0
ARC
  5
1C226
  8
SU
  6
CONTINUOUS
 62
     3
 10
-108.76332064689331
 20
156.7047657657244
 30
0.0
 40
0.3000000000000114
 50
90.0
 51
270.0
  0
ARC
  5
1C227
  8
SU
  6
CONTINUOUS
 62
     3
 10
-170.76332064699571
 20
208.704765774039
 30
0.0
 40
0.3000000000000114
 50
180.0
 51
0.0
  0
ARC
  5
1C228
  8
SU
  6
CONTINUOUS
 62
     3
 10
-170.76332064699571
 20
208.704765774039
 30
0.0
 40
0.3000000000000114
 50
0.0
 51
180.0
  0
ARC
  5
1C229
  8
SU
  6
CONTINUOUS
 62
     3
 10
-170.76332064699571
 20
223.704765774039
 30
0.0
 40
0.3000000000000114
 50
0.0
 51
180.0
  0
ARC
  5
1C22A
  8
SU
  6
CONTINUOUS
 62
     3
 10
-170.76332064699571
 20
223.704765774039
 30
0.0
 40
0.3000000000000114
 50
180.0
 51
0.0
  0
ARC
  5
1C22B
  8
SU
  6
CONTINUOUS
 62
     3
 10
-156.76332064105191
 20
223.704765774039
 30
0.0
 40
0.3000000000000114
 50
180.0
 51
0.0
  0
ARC
  5
1C22C
  8
SU
  6
CONTINUOUS
 62
     3
 10
-156.76332064105191
 20
223.704765774039
 30
0.0
 40
0.3000000000000114
 50
0.0
 51
180.0
  0
ARC
  5
1C22D
  8
SU
  6
CONTINUOUS
 62
     3
 10
37.016250601873018
 20
79.203131972269873
 30
0.0
 40
0.2999999999999971
 50
180.0
 51
0.0
  0
ARC
  5
1C22E
  8
SU
  6
CONTINUOUS
 62
     3
 10
37.016250601873018
 20
79.203131972269873
 30
0.0
 40
0.2999999999999971
 50
0.0
 51
180.0
  0
ARC
  5
1C22F
  8
SU
  6
CONTINUOUS
 62
     3
 10
28.016219902646348
 20
79.203131972269759
 30
0.0
 40
0.3000000000000007
 50
180.0
 51
0.0
  0
ARC
  5
1C230
  8
SU
  6
CONTINUOUS
 62
     3
 10
28.016219902646348
 20
79.203131972269759
 30
0.0
 40
0.3000000000000007
 50
0.0
 51
180.0
  0
ARC
  5
1C231
  8
SU
  6
CONTINUOUS
 62
     3
 10
4.0162199026463563
 20
79.203131972269759
 30
0.0
 40
0.2999999999999998
 50
0.0
 51
180.0
  0
ARC
  5
1C232
  8
SU
  6
CONTINUOUS
 62
     3
 10
4.0162199026463563
 20
79.203131972269759
 30
0.0
 40
0.2999999999999998
 50
180.0
 51
0.0
  0
ARC
  5
1C233
  8
SU
  6
CONTINUOUS
 62
     3
 10
-300.26332064699568
 20
208.704765774039
 30
0.0
 40
0.3000000000000114
 50
0.0
 51
180.0
  0
ARC
  5
1C234
  8
SU
  6
CONTINUOUS
 62
     3
 10
-300.26332064699568
 20
208.704765774039
 30
0.0
 40
0.3000000000000114
 50
180.0
 51
0.0
  0
ARC
  5
1C235
  8
SU
  6
CONTINUOUS
 62
     3
 10
-195.26332064699571
 20
208.704765774039
 30
0.0
 40
0.3000000000000114
 50
180.0
 51
0.0
  0
ARC
  5
1C236
  8
SU
  6
CONTINUOUS
 62
     3
 10
-195.26332064699571
 20
208.704765774039
 30
0.0
 40
0.3000000000000114
 50
0.0
 51
180.0
  0
ARC
  5
1C237
  8
SU
  6
CONTINUOUS
 62
     3
 10
-358.76332064699562
 20
156.7047657657244
 30
0.0
 40
0.3000000000000114
 50
270.0
 51
90.0
  0
ARC
  5
1C238
  8
SU
  6
CONTINUOUS
 62
     3
 10
-358.76332064699562
 20
156.7047657657244
 30
0.0
 40
0.3000000000000114
 50
90.0
 51
270.0
  0
ARC
  5
1C239
  8
SU
  6
CONTINUOUS
 62
     3
 10
-358.76332064699562
 20
132.704766727703
 30
0.0
 40
0.3000000000000114
 50
270.0
 51
90.0
  0
ARC
  5
1C23A
  8
SU
  6
CONTINUOUS
 62
     3
 10
-358.76332064699562
 20
132.704766727703
 30
0.0
 40
0.3000000000000114
 50
90.0
 51
270.0
  0
ARC
  5
1C23B
  8
SU
  6
CONTINUOUS
 62
     3
 10
-358.76332064699562
 20
123.704766727703
 30
0.0
 40
0.2999999999999971
 50
90.0
 51
270.0
  0
ARC
  5
1C23C
  8
SU
  6
CONTINUOUS
 62
     3
 10
-358.76332064699562
 20
123.704766727703
 30
0.0
 40
0.2999999999999971
 50
270.0
 51
90.0
  0
ENDSEC
  0
EOF
